Oops, an error
Loading. Please wait.

4 00 Am Tab

ver5
ver5
More versions @911Tabs.com
3,793 views 1 this week
3 commentsread comments
1 2 3 4 5
excellent!
x 3
Autoscroll
+/-
esc
set tempo
stop
Contributor
Difficulty
Tuning
intermediate
D A D G B E
NEW! There's an official Ultimate Guitar app which is ideal
for learning songs when you're away from computer. Get the app
WARNING: You are trying to view
                                    content from Ultimate-Guitar.com
                                    in an unauthorized application,
                                    which is prohibited.

                                    Please use an official Ultimate
                                    Guitar Tabs application for iPhone,
                                    iPad or Android to access legitimate
                                    chords, guitar, bass, and drum tabs
                                    from Ultimate-Guitar.com database.

                                    Type "ultimate guitar tabs" in Apple
                                    App Store's or Android Market's
                                    search to find the application.
#----------------------------------PLEASE NOTE---------------------------------#
#This file is the author's own work and represents their interpretation of the #
#song. You may only use this file for private study, scholarship, or research. #
#------------------------------------------------------------------------------#

4:00 AM
As recorded by Avenged Sevenfold
(From the 2011 Album WELCOME TO THE FAMILY)


Transcribed by Liam Briggs - lb.guitar.boy@gmail.com

 Words and Music by Avenged Sevenfold

 

F5
3 3 x x x x A5
7 7 x x x x Bb5
8 8 x x x x D5
0 0 x x x x 
C5
x 3 5 x x x G/B
x 2 5 x x x Bb5(type 2)
x 1 3 x x x A5(type 2)
x 0 2 x x x 
Eb5
1 1 x x x x E5
2 2 2 x x x F/A
7 8 x x x x G5
5 5 x x x x 
C/E
2 3 x x x x D5(type 2)
x 5 7 x x x 


Gtr I (D A D G B E) - 'Piano'
Gtr II (D A D G B E) - 'Guitar 1'
Gtr III (D A D G B E) - 'Guitar 2'
Gtr IV (D A D G B E) - 'Guitar 3'
Gtr V (D A D G B E) - 'Guitar 4'
Gtr VI (D A D G B E) - 'Guitar 5'


 Intro
  Moderately Fast Q=147
  F            Am              Bb              Bbadd9  Bb
 4/4
  Gtr I
  H    H        H     H         H    H          H      H
|------------|-------------|--------------|----------------|
|------------|-(5)---------|--------------|----------------|
|-2----2-----|--5-----5----|----7----7----|-----7------7---|
|-3----3-----|--7-----7----|----8----8----|----10------8---|
|-3----3-----|--7-----7----|----8----8----|-----8------8---|
|-3----3-----|--7-----7----|----8----8----|-----8------8---|
| H    H        H     H         H    H          H      H
|
| Gtr II
|               ~~~             ~~              ~~     ~
| H    Q  Q     W            a  W            a  H    a H
|---------1s=|==8----------|-8s10---------|-10s=8----8s6---|
|------------|-------------|--------------|----------------|
|------------|-------------|--------------|----------------|
|------------|-------------|--------------|----------------|
|------------|-------------|--------------|----------------|
|------------|-------------|--------------|----------------|


  F            Am              Bb           Bbadd9  Bb
  H    H        H     H         H    H        H        H
|------------|-------------|--------------|-------------------|
|------------|-(5)---------|--------------|-------------------|
|-2----2-----|--5-----5----|----7----7----|---7--------7------|
|-3----3-----|--7-----7----|----8----8----|--10--------8------|
|-3----3-----|--7-----7----|----8----8----|---8--------8------|
|-3----3-----|--7-----7----|----8----8----|---8--------8------|
| H    H        H     H         H    H        H        H
|
|               ~~~             ~~~~~~~~~~~~~~~~~~~~~~~~~~~
| H    Q  Q     W            a  W            +H       +H
|---------1s=|==8----------|-8s10---------|-(10)----([10])----|
|------------|-------------|--------------|-------------------|
|------------|-------------|--------------|-------------------|
|------------|-------------|--------------|-------------------|
|------------|-------------|--------------|-------------------|
|------------|-------------|--------------|-------------------|


  F             C/E         Eb5                       D5
                                                       <
    H    H      H    H      H.      Q     W            W
|-------------|-----------|------------|------------|--------||
|-------------|-----------|------------|------------|--------||
|---2----2----|-0----5----|-3-------2--|--0---------|--2-----||
|---3----3----|-2----2----|-1----------|------------|--0-----||
|---3----3----|-3----3----|-1----------|------------|--------||
|---3----3----|-2----2----|-1----------|-(1)--------|--0-----||
|   H    H      H    H      W            +W            W
|
| Gtr III
|                                         <
|   ~~~~~~~~~~~~~~~~~~~~~~~~~~~~~~~~~~~~~~~~~~~~~~~~~~~~~~
|   W           W           W             W           +W
|-------------|-----------|------------|------------|--------||
|--/6---------|-5---------|-4----------|--4---------|-(4)----||
|-------------|-----------|------------|------------|--------||
|-------------|-----------|------------|------------|--------||
|-------------|-----------|------------|------------|--------||
|-------------|-----------|------------|------------|--------||
|
| Gtr IV
|                                         <
|   ~~~~~~~~~~~~~~~~~~~~~~~~~~~~~~~~~~~~~~~~~~~~~~~~~~~~~~
|   W           W           W             W           +W
|-------------|-----------|------------|------------|--------||
|-/10---------|-8---------|-8----------|--8---------|-(8)----||
|-------------|-----------|------------|------------|--------||
|-------------|-----------|------------|------------|--------||
|-------------|-----------|------------|------------|--------||
|-------------|-----------|------------|------------|--------||


  $
  D5                                      G5
  Gtrs V, VI
    PM  ~~~~~~PM--|     PM  ~~~~~~PM--|      PM   ~~~~~~~PM--|
  E E E E +E  E E E   E E E E +E  E E E    E E E  E  +E  E E E
|-------------------|-------------------|----------------------|
|-------------------|-------------------|----------------------|
|-------------------|-------------------|----------------------|
|-----7-------------|-----7-------------|------8---------------|
|-5-0---8-(8)-0-0-0-|-5-0---8-(8)-0-0-0-|-10-0---10-(10)-0-0-0-|
|-------------0-0-0-|-------------0-0-0-|----------------0-0-0-|


                         D5                  A7/C#
     PM   ~~~~~~~PM--|     PM  ~~~~~~PM
   E E E  E  +E  E E E   E E E E +E  E E E   E E E E E E E E
|----------------------|-------------------|-----------------||
|----------------------|-------------------|-----------------||
|----------------------|-------------------|-----------------||
|------8---------------|-----7-------------|---------5-------||
|-10-0---10-(10)-0-0-0-|-5-0---8-(8)-0-5-0-|-4-0-4-7---7-4-7-||
|----------------0-0-0-|-------------------|-----------------||


   Verse
    D5                                  G5
    Gtrs V, VI
      PM|   PM|   PM    PM|   PM|   PM    PM|   PM|
    E E E E E E E E   E E E E E E E E   E E E E E E E E
||------------------|-----------------|-----------------|
||o-----------------|-----------------|-----------------|
||------------------|-----------------|-----------------|
||--0-----0-----0---|-0-----0-----0---|-5-----5---------|
||o-0-0-0-0-0-0-0-0-|-0-0-0-0-0-0-0-0-|-5-5-5-5-5-5-----|
||--0-0-0-0-0-0-0-0-|-0-0-0-0-0-0-0-0-|-5-5-5-5-5-5-5h6-|


                    D5                A/C#
    PM|   PM|         PM|   PM|   PM    PM|   PM----|
  E E E E E E E E   E E E E E E E E   E E E E E E E E
|-----------------|-----------------|------------------||
|-----------------|-----------------|-----------------o||
|-----------------|-----------------|------------------||
|-5-----5---------|-0-----0-----0---|-2-----2----------||
|-5-5-5-5-5-5-----|-0-0-0-0-0-0-0-0-|-4-4-4-4-4-4-4-4-o||
|-5-5-5-5-5-5-5h6-|-0-0-0-0-0-0-0-0-|-2-2-2-2-2-2-2-2--||


 Pre-Chorus
  D5
  Gtrs V, VI
  E E  E E E  E E E   +E  E  E E E  E E E
|-------------------|---------------------|
|-------------------|---------------------|
|-------------------|---------------------|
|-------------------|---------------------|
|---------------5---|-----------------5---|
|-0-0-/7-0-0-/7---0-|-(0)-0-/7-0-0-/7---0-|


                   ~~~~~~~~    ~~~~~~
  +E  E  E E E E E E   +E  E E E +E  E E E
|--------------------|---------------------||
|--------------------|---------------------||
|--------------------|---------------------||
|--------------------|---------------------||
|--------------------|-----8-7-6-(6)-6-----||
|-(0)-0-/7-0-0-5-7-8-|-(8)-------------3-2-||


   Chorus
    D5                   C5
    Gtrs V, VI
    E. S +E E +E E E E   E. S +E E +E E E E
    |  |  | |  | | | |   |  |  | |  | | | |
    /  /  / /  / / / /   /  /  / /  / / / /

    Gtr II
    W                    W
||---------------------|--------------------|
||o--------------------|--------------------|
||--7------------------|-9------------------|
||--x------------------|-x------------------|
||o-5------------------|-7------------------|
||---------------------|--------------------|


  G/B                   Bb5(type 2)A5(type 2)
   E. S +E E +E E E E    E. S +E E Q  Q
   |  |  | |  | | | |    |  |  | | |  |
   /  /  / /  / / / /    /  /  / / /  /

   W                     H         H
|---------------------|--------------------||
|---------------------|-------------------o||
|-12------------------|-10---------9-------||
|--x------------------|--x---------x-------||
|-10------------------|--8---------7------o||
|---------------------|--------------------||


    $$
    F5                      A5
     E E  E E  E  E  E  E   E E E E E E E E
     | |  | |  |  |  |  |   | | | | | | | |
     / /  / /  /  /  /  /   / / / / / / / /

     Q    Q    E  E  E  E   Q   Q   E E E E
||------------------------|-----------------|
||o-----------------------|-----------------|
||--10---10---10-10-10-10-|-9---9---9-9-9-9-|
||---x----x----x--x--x--x-|-x---x---x-x-x-x-|
||o--8----8----8--8--8--8-|-7---7---7-7-7-7-|
||------------------------|-----------------|


  Bb5
  E E E E E E E E   E E E E E E E E
  | | | | | | | |   | | | | | | | |
  / / / / / / / /   / / / / / / / /

  Q   Q   E E E E   Q   Q   E E E E
|-----------------|-------------------||
|-----------------|------------------o||
|-7---7---7-7-7-7-|-7---7---7-7-7-7---||
|-x---x---x-x-x-x-|-x---x---x-x-x-x---||
|-5---5---5-5-5-5-|-5---5---5-5-5-5--o||
|-----------------|-------------------||


                                                       D.S.
                                                       D.S.
  F5                C/E               Eb5
  Gtrs V, VI
  E E E E E E E E   E E E E E E E E   W          +W
|-----------------|-----------------|----------|------------||
|-----------------|-----------------|----------|------------||
|-----------------|-----------------|----------|------------||
|-----------------|-----------------|----------|------------||
|-3-3-3-3-3-3-3-3-|-3-3-3-3-3-3-3-3-|-1--------|-(1)--------||
|-3-3-3-3-3-3-3-3-|-2-2-2-2-2-2-2-2-|-1--------|-(1)--------||


   Breakdown
    D5                C#5          C5   D5  C5
    Gtrs V, VI
    E.    S      +E    E      +S    E.  E.    S
||-------------------------------------------------|
||o------------------------------------------------|
||-------------------------------------------------|
||-------------------------------------------------|
||o-0---/12-----(12)--11-----(11)--10---0---/10----|
||--0---/12-----(12)--11-----(11)--10---0---/10----|
|
|   Gtr II
|   E.    S      +E    E      +S    E.  E.    S
||-------------------------------------------------|
||o-3-----7------(7)---6------(6)---5---3-----5----|
||--5b7---9b11===(9)r--8b10===(8)r--7b9-5b7---7b9==|
||-------------------------------------------------|
||o------------------------------------------------|
||-------------------------------------------------|


        B5        Bb5 N.C.
                      PM------------|
   +E   E    +S   E.  S S S S S S S S
|--------------------------------------||
|-------------------------------------o||
|--------------------------------------||
|--------------------------------------||
|-(10)--9----(9)--8\------------------o||
|-(10)--9----(9)--8\--6-7-3-3-5-6-2-2--||
|
|  +E   E    +S   E.  H
|--------------------------------------||
|--(5)--4----(4)--3-------------------o||
|--(7)r-6b8==(6)r-5b7------------------||
|--------------------------------------||
|-------------------------------------o||
|--------------------------------------||


    D5                 C#5          C5    D5   C5
    E.     S      +E    E      +S    E.   E.     S
||-----------------------------------------------------|
||o----------------------------------------------------|
||-----------------------------------------------------|
||-----------------------------------------------------|
||o-0----/12-----(12)--11-----(11)--10----0----/10-----|
||--0----/12-----(12)--11-----(11)--10----0----/10-----|
|
|   Gtr III
|   E.     S      +E    E      +S    E.   E.     S
||-----------------------------------------------------|
||o-3------7------(7)---6------(6)---5----3------5-----|
||--5b7----9b11===(9)r--8b10===(8)r--7b9--5b7----7b9===|
||-----------------------------------------------------|
||o----------------------------------------------------|
||-----------------------------------------------------|
|
|   Gtr IV
|   E.     S      +E    E      +S    E.   E.     S
||-----------------------------------------------------|
||o-6-----10-----(10)---9------(9)---8----6------8-----|
||--8b10--12b14==(12)r-11b13==(11)r-10b12-8b10--10b12==|
||-----------------------------------------------------|
||o----------------------------------------------------|
||-----------------------------------------------------|


        B5         Bb5  N.C.
                        PM------------|
   +E   E     +S   E.   S S S S S S S S
|----------------------------------------||
|---------------------------------------o||
|----------------------------------------||
|----------------------------------------||
|-(10)--9-----(9)--8\-------------------o||
|-(10)--9-----(9)--8\---6-7-3-3-5-6-2-2--||
|
|  +E   E     +S   E.   H
|----------------------------------------||
|--(5)--4-----(4)--3--------------------o||
|--(7)r-6b8===(6)r-5b7-------------------||
|----------------------------------------||
|---------------------------------------o||
|----------------------------------------||
|
|  +E   E     +S   E.   H
|----------------------------------------||
|--(8)--7-----(7)--6--------------------o||
|-(10)r-9b11==(9)r-8b10------------------||
|----------------------------------------||
|---------------------------------------o||
|----------------------------------------||


   Bridge
    Bb5                F/A                G5                 F5    C/E
    Gtrs V, VI
     Q.   E  +Q   Q     Q.   E  +Q   Q     Q.   E  +Q   Q     H     H
     |    |   |   |     |    |   |   |     |    |   |   |     |     |
     /    /   /   /     /    /   /   /     /    /   /   /     /     /

    Gtr III
          ~~~~~~~            ~~~~~~~            ~~~~~~~             ~~
     Q.   E  +H         Q.   E  +H         Q.   E  +H         H     H
||-------------------|------------------|------------------|--------------||
||o-11s==15-(15)-----|-10s==15-(15)-----|--8s==15-(15)-----|-10s===13----o||
||-------------------|------------------|------------------|--------------||
||-------------------|------------------|------------------|--------------||
||o------------------|------------------|------------------|-------------o||
||-------------------|------------------|------------------|--------------||
|
|   Gtr IV
|         ~~~~~~~            ~~~~~~~            ~~~~~~~             ~~
|    Q.   E  +H         Q.   E  +H         Q.   E  +H         H     H
||-------------------|------------------|------------------|--------------||
||o-15s==18-(18)-----|-13s==18-(18)-----|-11s==18-(18)-----|-13s===17----o||
||-------------------|------------------|------------------|--------------||
||-------------------|------------------|------------------|--------------||
||o------------------|------------------|------------------|-------------o||
||-------------------|------------------|------------------|--------------||


  D5                                  A/C#
  Gtrs V, VI
      PM----|      PM------|    PM|       PM----|      PM------|    PM|
   E  S S S S  E   S  S  S S  E S S    E  S S S S  E   S  S  S S  E S S
|-----------------------------------|-----------------------------------|
|-----------------------------------|-----------------------------------|
|-----------------------------------|-----------------------------------|
|--7-----------7--------------7-----|--7-----------7--------------7-----|
|--5--5-5-5-5--5---5--5--5-5--5-5-5-|--4--4-4-4-4--4---4--4--4-4--4-4-4-|
|-----------------------------------|-----------------------------------|
|
| Gtr III
|  ~~~~~~~~~~~~~~~~~~~        ~~~~~~~~~~~~~~~~~~~~~~~~~~~~        ~~
|  Q.          E  +E     E    Q        Q.          E  +E     E    Q
|-----------------------------------|-----------------------------------|
|-15----------15-(15)---17---18-----|-17----------17-(17)---18---20-----|
|-----------------------------------|-----------------------------------|
|-----------------------------------|-----------------------------------|
|-----------------------------------|-----------------------------------|
|-----------------------------------|-----------------------------------|
|
| Gtr IV
|  ~~~~~~~~~~~~~~~~~~~        ~~~~~~~~~~~~~~~~~~~~~~~~~~~~        ~~
|  Q.          E  +E     E    Q        Q.          E  +E     E    Q
|----------------------------17-----|----------------------------18-----|
|-18----------18-(18)---20----------|-20----------20-(20)---21----------|
|-----------------------------------|-----------------------------------|
|-----------------------------------|-----------------------------------|
|-----------------------------------|-----------------------------------|
|-----------------------------------|-----------------------------------|


  F5                                  C/E
      PM----|      PM------|    PM|       PM----|      PM------|     PM|
   E  S S S S  E   S  S  S S  E S S    E  S S S S  E   S  S  S S  E  S S
|-----------------------------------|------------------------------------|
|-----------------------------------|------------------------------------|
|-----------------------------------|------------------------------------|
|-----------------------------------|------------------------------------|
|--3-----------3--------------3-----|--3-----------3--------------3------|
|--3--3-3-3-3--3---3--3--3-3--3-3-3-|--2--2-2-2-2--2---2--2--2-2--2--2-2-|
|
|  ~~~~~~~~~~~~~~~~~~~        ~~~~~~~~~~~~~~~~~~~~~~~~~~~~        ~~~
|  Q.          E  +E     E    Q        Q.          E  +E     E    Q
|-----------------------15---16-----|-15----------15-(15)---16---18\-----|
|-18----------18-(18)---------------|------------------------------------|
|-----------------------------------|------------------------------------|
|-----------------------------------|------------------------------------|
|-----------------------------------|------------------------------------|
|-----------------------------------|------------------------------------|
|
|  ~~~~~~~~~~~~~~~~~~~        ~~~~~~~~~~~~~~~~~~~~~~~~~~~~        ~~~
|  Q.          E  +E     E    Q        Q.          E  +E     E    Q
|-16----------16-(16)---18---20-----|-18----------18-(18)---20---21\-----|
|-----------------------------------|------------------------------------|
|-----------------------------------|------------------------------------|
|-----------------------------------|------------------------------------|
|-----------------------------------|------------------------------------|
|-----------------------------------|------------------------------------|


    F5
     PM|         PM|           PM|         PM|
     E  E  Q     E  E  Q       E  E  Q     E  E  Q
||--------------------------|-------------------------|
||o-------------------------|-------------------------|
||--------------------------|-------------------------|
||--------------------------|-------------------------|
||o--------3-----------3----|--------3-----------3----|
||---3--3--3-----3--3--3----|--3--3--3-----3--3--3----|
|
|    E  E  E  E  E  E  E  E    E  E  E  E  E  E  E  E
||--16-13----------------13-|-16-13----------------13-|
||o-------13----------13----|-------13----------13----|
||-----------13----13-------|----------13----13-------|
||--------------15----------|-------------15----------|
||o-------------------------|-------------------------|
||--------------------------|-------------------------|
|
|    E  E  E  E  E  E  E  E    E  E  E  E  E  E  E  E
||--20-16----------------16-|-20-16----------------16-|
||o-------18----------18----|-------18----------18----|
||-----------17----17-------|----------17----17-------|
||--------------18----------|-------------18----------|
||o-------------------------|-------------------------|
||--------------------------|-------------------------|


  C/E
   PM|         PM|           PM|         PM|
   E  E  Q     E  E  Q       E  E  Q     E  E  Q
|-------------------------|---------------------------||
|-------------------------|--------------------------o||
|-------------------------|---------------------------||
|-------------------------|---------------------------||
|--------3-----------3----|--------3-----------3-----o||
|--2--2--2-----2--2--2----|--2--2--2-----2--2--2------||
|
|  E  E  E  E  E  E  E  E    E  E  E  E  E  E  E  E
|-15-12----------------12-|-15-12----------------12---||
|-------13----------13----|-------13----------13-----o||
|----------12----12-------|----------12----12---------||
|-------------14----------|-------------14------------||
|-------------------------|--------------------------o||
|-------------------------|---------------------------||
|
|  E  E  E  E  E  E  E  E    E  E  E  E  E  E  E  E
|-20-15----------------15-|-20-15----------------15---||
|-------17----------17----|-------17----------17-----o||
|----------17----17-------|----------17----17---------||
|-------------17----------|-------------17------------||
|-------------------------|--------------------------o||
|-------------------------|---------------------------||


  Eb5                        E5
  Gtrs V, VI
   Q.        E +Q     Q       W
   |         |  |     |       |
   /         /  /     /       /

  Gtr III
                              ~~~~~~
   E   E  E  E  E  E  E  E    H.              +Q
|-15--11----------------11-|-12--------------(12)\---||
|--------11----------11----|-------------------------||
|-----------12----12-------|-------------------------||
|--------------13----------|-------------------------||
|--------------------------|-------------------------||
|--------------------------|-------------------------||
|
| Gtr IV
|  E   E  E  E  E  E  E  E    Q       +H      +Q
|-18-----15----------------|-15b16===(15)----(15)r\--||
|-----16-------16-------16-|-------------------------||
|-----------15----15-------|-------------------------||
|--------------------17----|-------------------------||
|--------------------------|-------------------------||
|--------------------------|-------------------------||


 Interlude
  D5                      C5
  Gtrs V, VI
    S S S S  E E H         S S S S  E E H
    | | | |  |             | | | |  |
    / / / /  /             / / / /  /

  Gtr III
             ~~                     ~~
    Q        H       Q     Q        H       Q
|-----------------------|----------------------|
|-----------------------|----------------------|
|-----------------------|----------------------|
|-----------------------|----------------------|
|-----------------------|----------------------|
|-/12-------12------12--|-10-------10------10--|
|
| Gtr IV
|            ~~                     ~~
|   Q        H       Q     Q        H       Q
|-----------------------|----------------------|
|-----------------------|----------------------|
|-----------------------|----------------------|
|-----------------------|----------------------|
|--/8--------8-------8--|--7--------7-------7--|
|-----------------------|----------------------|


  G/B                     Bb5(type 2)  A5(type 2)
    S S S S  E E H        S S S S E  E  S S S S E E
    | | | |  |            | | | | |     | | | | |
    / / / /  /            / / / / /     / / / / /

             ~~                         ~~
    Q        H       Q    E   E   Q     H
|-----------------------|-----------------------------||
|-----------------------|-----------------------------||
|-----------------------|-----------------------------||
|-----------------------|-----------------------------||
|-----------------------|-----------------------------||
|---9--------9-------9--|-8---8---8\---/7-------------||
|
|            ~~                         ~~
|   Q        H       Q    E   E   Q     H
|-----------------------|-----------------------------||
|-----------------------|-----------------------------||
|-----------------------|-----------------------------||
|-----------------------|-----------------------------||
|-/10-------10------10S=|=5---5---5\---/4-------------||
|-----------------------|-----------------------------||


   Guitar Solo
    D5
    Gtrs V, VI
     E.        S +E     E      +E    E    E  E
     |         |  |     |       |    |    |  |
     /         /  /     /       /    /    /  /

    Gtr II
     S   S  S  S  S  S  E      +E   +E   +Q
||---------------10-12-13b15==(13)-(13)r(13)---|
||o-----------10-------------------------------|
||---------10----------------------------------|
||------12-------------------------------------|
||o-12-----------------------------------------|
||---------------------------------------------|


  C5                                         G/B
   E.      S +E     E      +E    E    E  E    E.        S +E     E      +E    E    E  E
   |       |  |     |       |    |    |  |    |         |  |     |       |    |    |  |
   /       /  /     /       /    /    /  /    /         /  /     /       /    /    /  /

   S   S S S  S  S  E      +E   +E   +Q       S   S  S  S  S  S  E      +E   +E   +Q
|-------------8-10-12b15==(12)-(12)r(12)---|-----------------14-15b17==(15)-(15)r(15)----|
|----------8-------------------------------|-----------12-15-----------------------------|
|--------9---------------------------------|--------12-----------------------------------|
|-----10-----------------------------------|-----12--------------------------------------|
|-10---------------------------------------|-14------------------------------------------|
|------------------------------------------|---------------------------------------------|


  1.
  Bb5(type 2)             A5(type 2)
   E.       S +E     E     Q           Q
   |        |  |     |     |           |
   /        /  /     /     /           /

                                       ~~
   S  S  S  S  S  S  S  S  S  S  S  S  Q
|-13p10----------10-13p10-12h13p12p10h12---||
|-------11----11--------------------------o||
|----------10------------------------------||
|------------------------------------------||
|-----------------------------------------o||
|------------------------------------------||


  2.
  Bb5(type 2)             A5(type 2)
   E.       S +E     E     Q           Q
   |        |  |     |     |           |
   /        /  /     /     /           /

   S  S  S  S  S  S  S  S  S  S  S  S  S  S  S  S
|-13p10----------10-13p10-12h13p12p10h12h13p12p10-|
|-------11----11----------------------------------|
|----------10-------------------------------------|
|-------------------------------------------------|
|-------------------------------------------------|
|-------------------------------------------------|


  F5                        A5
  Gtrs V, VI
    E  E E E  E E   E   E    E E E E  E E    E    E
    |  | | |  | |   |   |    | | | |  | |    |    |
    /  / / /  / /   /   /    / / / /  / /    /    /

  Gtr II
    ~~~~
    H.             +Q        W
|--13-------------(13)\---|-------------------------|
|-------------------------|-------------------------|
|-------------------------|-------------------------|
|-------------------------|-------------------------|
|-------------------------|-------------------------|
|-------------------------|-------------------------|
|
| Gtr III
|   ~~~~                     ~~
|                                     |----3----|
|   H         Q     Q        H        Q    Q    Q
|-------------------------|-------------------------|
|-/13--------13s===10s====|=13-------13---15---17---|
|-------------------------|-------------------------|
|-------------------------|-------------------------|
|-------------------------|-------------------------|
|-------------------------|-------------------------|
|
| Gtr IV
|   ~~~~                     ~~
|                                     |----3----|
|   H         Q     Q        H        Q    Q    Q
|-------------------------|-------------------------|
|-/10--------10s====6s====|=10-------10---11---13---|
|-------------------------|-------------------------|
|-------------------------|-------------------------|
|-------------------------|-------------------------|
|-------------------------|-------------------------|


  Bb5
   E E  E  E   E   E E  E     E   E E    E  E  E E    E
   | |  |  |   |   | |  |     |   | |    |  |  | |    |
   / /  /  /   /   / /  /     /   / /    /  /  / /    /

   W                          W
|-------------------------|-----------------------------|
|-------------------------|-----------------------------|
|-------------------------|-----------------------------|
|-------------------------|-----------------------------|
|-------------------------|-----------------------------|
|-------------------------|-----------------------------|
|
|                                                     ~~
|  Q    E  E  +E   Q    E    +E   E E  a E +E  Q   a  E
|-------------------------|-----------------------------|
|-17---18-15-(15)---------|------15---15s6-(6)-8---8s10-|
|-----------------17---17-|-(17)------------------------|
|-------------------------|-----------------------------|
|-------------------------|-----------------------------|
|-------------------------|-----------------------------|
|
|                                                     ~~
|  Q    E  E  +E   Q    E    +E   E E  a E +E  Q   a  E
|-------------------------|-----------------------------|
|-13---15-----------------|-----------------------------|
|---------15-(15)-14---14-|-(14)-15---15s7-(7)-9---9s10-|
|-------------------------|-----------------------------|
|-------------------------|-----------------------------|
|-------------------------|-----------------------------|


  F5                     A5
    E  E E E  E E  E E    E E E E  E E    E    E
    |  | | |  | |  | |    | | | |  | |    |    |
    /  / / /  / /  / /    / / / /  / /    /    /

  Gtr III
    ~~~~                  ~~
                                   |----3----|
   +H         Q    Q      H        Q    Q    Q
|----------------------|-------------------------|
|-(10)-------13s==10s==|=13-------13---15---17---|
|----------------------|-------------------------|
|----------------------|-------------------------|
|----------------------|-------------------------|
|----------------------|-------------------------|
|
| Gtr IV
|   ~~~~                  ~~
|                                  |----3----|
|  +H         Q    Q      H        Q    Q    Q
|----------------------|-------------------------|
|------------10s===6s==|=10-------10---11---13---|
|-(10)-----------------|-------------------------|
|----------------------|-------------------------|
|----------------------|-------------------------|
|----------------------|-------------------------|


  Bb5
   E E  E  E   E   E E   E     E  E E E E E   E   E
   | |  |  |   |   | |   |     |  | | | | |   |   |
   / /  /  /   /   / /   /     /  / / / / /   /   /

                         ~~~~~~~~~
   Q    E  E  +E   Q     E    +H.            +Q
|--------------------------|--------------------------|
|-17---18-15-(15)------/22-|-(22)-----------(22)\-----|
|-----------------17-------|--------------------------|
|--------------------------|--------------------------|
|--------------------------|--------------------------|
|--------------------------|--------------------------|
|
|                        ~~~~~~~~~
|  Q    E  E  +E   Q     E    +H.            +Q
|--------------------------|--------------------------|
|-13---15--------------/18-|-(18)-----------(18)\-----|
|---------15-(15)-14-------|--------------------------|
|--------------------------|--------------------------|
|--------------------------|--------------------------|
|--------------------------|--------------------------|


  F5                            C/E
   E     E   E    E   E E E E    E E E E  E E   E   E
   |     |   |    |   | | | |    | | | |  | |   |   |
   /     /   /    /   / / / /    / / / /  / /   /   /

                      ~~~~~~~~~~~~~~~~~~~~~~
   Q        +E   +E   H          H        H
|-15b17====(15)r(15)----------|-15-------17-----------|
|--------------------18-------|-----------------------|
|-----------------------------|-----------------------|
|-----------------------------|-----------------------|
|-----------------------------|-----------------------|
|-----------------------------|-----------------------|
|
|                     ~~~~~~~~~~~~~~~~~~~~~~
|  Q        +E   +E   H          H        Q    +Q
|-18b20====(18)r(18)-17-------|-18-------20---(20)\---|
|-----------------------------|-----------------------|
|-----------------------------|-----------------------|
|-----------------------------|-----------------------|
|-----------------------------|-----------------------|
|-----------------------------|-----------------------|


  Eb5
    W                                       +W
    |                                        |
    /                                        /

                                             ~~~
             |-----5-----|  |-----5-----|
    H        S  S  S  S  S  S  S  S  S  S    H.       +Q
|--17b18----17-15-------------------------|-----------------|
|-----------------18-17-15----------------|-----------------|
|--------------------------17-15-14-------|-----------------|
|-----------------------------------17-15-|-13-------(13)\--|
|-----------------------------------------|-----------------|
|-----------------------------------------|-----------------|
|
|                                            ~~~
|            |-----5-----|  |-----5-----|
|   H        S  S  S  S  S  S  S  S  S  S    H.       +Q
|-----------------------------------------|-----------------|
|-/18b20----18-17-------------------------|-----------------|
|-----------------19-17-15----------------|-----------------|
|--------------------------19-17-15-------|-17-------(17)\--|
|-----------------------------------19-17-|-----------------|
|-----------------------------------------|-----------------|


  D5(type 2)
   S    S     S    S     E        E        H
   |    |     |    |     |
   /    /     /    /     /

   |--------6---------|  |------6-------|  |------6-------|  |------6-------|
   S  S    S  S  S    S  S  S  S  S  S  S  S  S  S  S  S  S  S  S  S  S  S  S
|-13-12---11-10-11---12-13-12-11-10-11-12-13-12-11-10-11-12-13-12-11-10-11-12-|
|-----------------------------------------------------------------------------|
|-----------------------------------------------------------------------------|
|-----------------------------------------------------------------------------|
|-----------------------------------------------------------------------------|
|-----------------------------------------------------------------------------|
|
|  |--------6---------|  |------6-------|  |------6-------|  |------6-------|
|  S  S    S  S  S    S  S  S  S  S  S  S  S  S  S  S  S  S  S  S  S  S  S  S
|-17-16---15-13-15---16-17-16-15-13-15-16-17-16-15-13-15-16-17-16-15-13-15-16-|
|-----------------------------------------------------------------------------|
|-----------------------------------------------------------------------------|
|-----------------------------------------------------------------------------|
|-----------------------------------------------------------------------------|
|-----------------------------------------------------------------------------|


  Bb5(type 2)                             A5  G5      F5
   S    S     S    S     E        E        E.  S  +E   E
   |    |     |    |     |                 |   |   |   |
   /    /     /    /     /                 /   /   /   /

   |--------6---------|  |------6-------|
   S  S    S  S  S    S  S  S  S  S  S  S  E.  S  +E   E
|-13-12---11--9-10---11-12-11-10--9-10-11-10---8--(8)-10---||
|----------------------------------------------------------||
|----------------------------------------------------------||
|----------------------------------------------------------||
|----------------------------------------------------------||
|----------------------------------------------------------||
|
|  |--------6---------|  |------6-------|
|  S  S    S  S  S    S  S  S  S  S  S  S  E.  S  +E   E
|-17-16---15-12-13---14-15-14-13-12-13-14-13--12-(12)-13---||
|----------------------------------------------------------||
|----------------------------------------------------------||
|----------------------------------------------------------||
|----------------------------------------------------------||
|----------------------------------------------------------||


 Chorus
  D5                            C5
  Gtrs V, VI
   E.   S  +E  E +E E   E   E   E. S +E E +E E E E
   |    |   |  |  | |   |   |   |  |  | |  | | | |
   /    /   /  /  / /   /   /   /  /  / /  / / / /

  Gtr III
   Q       +H          +Q       W
|-10b13r==(10)--------(10)\---|--------------------|
|-----------------------------|--------------------|
|-----------------------------|--------------------|
|-----------------------------|--------------------|
|-----------------------------|--------------------|
|-----------------------------|--------------------|
|
| Gtr IV
|  Q       +H          +Q       W
|-15b17r==(15)--------(15)\---|--------------------|
|-----------------------------|--------------------|
|-----------------------------|--------------------|
|-----------------------------|--------------------|
|-----------------------------|--------------------|
|-----------------------------|--------------------|
|
| Gtr II
|  W                            W
|-----------------------------|--------------------|
|-----------------------------|--------------------|
|--7--------------------------|-9------------------|
|--x--------------------------|-x------------------|
|--5--------------------------|-7------------------|
|-----------------------------|--------------------|


  G/B                   Bb5(type 2)A5(type 2)
   E. S +E E +E E E E    E. S +E E Q  Q
   |  |  | |  | | | |    |  |  | | |  |
   /  /  / /  / / / /    /  /  / / /  /

   W                     W
|---------------------|------------------|
|---------------------|------------------|
|---------------------|------------------|
|---------------------|------------------|
|---------------------|------------------|
|---------------------|------------------|
|
|  W                     W
|---------------------|------------------|
|---------------------|------------------|
|---------------------|------------------|
|---------------------|------------------|
|---------------------|------------------|
|---------------------|------------------|
|
|  W                     H         H
|---------------------|------------------|
|---------------------|------------------|
|-12------------------|-10---------9-----|
|--x------------------|--x---------x-----|
|-10------------------|--8---------7-----|
|---------------------|------------------|


  D5                   C5
  Gtrs V, VI
  E. S +E E +E E E E   E. S +E E +E E E E
  |  |  | |  | | | |   |  |  | |  | | | |
  /  /  / /  / / / /   /  /  / /  / / / /

  Gtr II
  W                    W
|--------------------|--------------------|
|--------------------|--------------------|
|-7------------------|-9------------------|
|-x------------------|-x------------------|
|-5------------------|-7------------------|
|--------------------|--------------------|


                          D.S.S. al Coda
  G/B                   Bb5(type 2)A5(type 2)
   E. S +E E +E E E E    E. S +E E Q Q
   |  |  | |  | | | |    |  |  | | | |
   /  /  / /  / / / /    /  /  / / / /

   W                     H         H
|---------------------|------------------||
|---------------------|------------------||
|-12------------------|-10---------9-----||
|--x------------------|--x---------x-----||
|-10------------------|--8---------7-----||
|---------------------|------------------||


 Outro
  &
  F5                C/E               Eb5
  Gtrs V, VI
  E E E E E E E E   E E E E E E E E   W
|-----------------|-----------------|------|
|-----------------|-----------------|------|
|-----------------|-----------------|------|
|-----------------|-----------------|------|
|-3-3-3-3-3-3-3-3-|-3-3-3-3-3-3-3-3-|-1----|
|-3-3-3-3-3-3-3-3-|-2-2-2-2-2-2-2-2-|-1----|


               D5                  A/C#
                 PM  ~~~~~~PM
  +W           E E E E +E  E E E   E E E E E E E E
|------------|-------------------|-----------------*|
|------------|-------------------|-----------------*|
|------------|-------------------|-----------------*|
|------------|-----7-------------|---------5-------*|
|-(1)--------|-5-0---8-(8)-0-5-0-|-4-0-4-7---7-4-7-*|
|-(1)--------|-------------------|-----------------*|




--------------------------------------------------------------------------------


Duration Legend
---------------
W - whole; H - half; Q - quarter; E - 8th; S - 16th; T - 32nd; X - 64th; a - acciaccatura
+ - note tied to previous; . - note dotted; .. - note double dotted
Uncapitalized letters represent notes that are staccato (1/2 duration)
Irregular groupings are notated above the duration line
Duration letters will always appear directly above the note/fret number it represents the
duration for.  Duration letters with no fret number below them represent rests.  Multi-
bar rests are notated in the form Wxn, where n is the number of bars to rest for.  Low
melody durations appear below the staff

Tablature Legend
----------------
 h   - hammer-on
 p   - pull-off
 b   - bend
 pb  - pre-bend
 r   - bend release (if no number after the r, then release immediately)
 /\  - slide into or out of (from/to "nowhere")
 s   - legato slide
 S   - shift slide
<n> - natural harmonic
[n]  - artificial harmonic
n(n) - tapped harmonic
 ~   - vibrato
 tr  - trill
 T   - tap
 TP  - trem. picking
 PM  - palm muting
\n/  - tremolo bar dip; n = amount to dip
 \n  - tremolo bar down
 n/  - tremolo bar up
/n\  - tremolo bar inverted dip
 =   - hold bend; also acts as connecting device for hammers/pulls
 <> - volume swell (louder/softer)
 x   - on rhythm slash represents muted slash
 o   - on rhythm slash represents single note slash

Misc Legend
-----------
 |  - bar
||  - double bar
||o - repeat start
o|| - repeat end
*|  - double bar (ending)
 :  - bar (freetime)
 $  - Segno
 &  - Coda
Tempo markers - <E/E./Q/Q./H/H.> = BPM(8/16=s8/s16), where s8 = swing 8ths, s16 = swing 16ths


comments
We did not receive enough feedback on this tab! Please rate:
print report bad tab
1 2 3 4 5
3 comments total.
+1 reply
avsHRSHES wrote on March 30 2011, 08:27 pm

Great tab man!

0 reply
slash.r0cks wrote on March 30 2011, 10:06 pm

Thanks dude. :D

0 reply
avsHRSHES wrote on April 3 2011, 01:07 am

check out my tab of so far away. i know its got a bad rating but that was just because i put in the arpeggio section wrong. I feel like its pretty spot on for a first tab but I'd like to see what everyone else thinks. :)

I want to post or [tab]
guest
You may want to rate the tab now too:
select rating
Please do not post tabs as comments. Select "correction" instead!