Oops, an error
Loading. Please wait.

A Little Piece Of Heaven Bass Tab

ver3
ver3

Whole song

More versions @911Tabs.com
1,062 views 12 this week
no commentswrite comment
1 2 3 4 5
excellent!
x 1
Autoscroll
+/-
esc
set tempo
stop
Contributor
Difficulty
Tuning
novice
C# G# C# F# A# D#
WARNING: You are trying to view
                                    content from Ultimate-Guitar.com
                                    in an unauthorized application,
                                    which is prohibited.

                                    Please use an official Ultimate
                                    Guitar Tabs application for iPhone,
                                    iPad or Android to access legitimate
                                    chords, guitar, bass, and drum tabs
                                    from Ultimate-Guitar.com database.

                                    Type "ultimate guitar tabs" in Apple
                                    App Store's or Android Market's
                                    search to find the application.
"Before the story begins, is it such a sin,
For me to take what's mine, until the end of time."

0:13
F#|--------------------------------------------------------------------|
C#|o------------------------------------------------------------------o|
G#|o------------------------------------------------------------------o|
C#|--1-1-11111-1-11111-1-11111-1-11114-4-44444-4-44444-4-44444-4-4444--|
     1 + 2 + 3 + 4 + 1 + 2 + 3 + 4 + 1 + 2 + 3 + 4 + 1 + 2 + 3 + 4 +

Pre Verse 0:26
F#|---------------------------------------------------------------------------------------------------|
C#|o-------------------------------------------------------------------------------------------------o|
G#|o-------------------------------------------------------------------------0-0-----0-0-----0-0-----o|
C#|--1-1-----1-1-----1-1-----0-0-----0-0-----0-0-----4-4-----4-4-----4-4------------------------------|
     1 + 2 + 3 + 4 + 5 + 6 + 1 + 2 + 3 + 4 + 5 + 6 + 1 + 2 + 3 + 4 + 5 + 6 + 1 + 2 + 3 + 4 + 5 + 6 +

Verse 0:47
F#|-------------------------------------------------------------------------------------------------|
C#|-1-------1-------1-------0-------0-------0-------------------------------1-----------------------|
G#|-----1-------1-------1-------1-------1-------1---0---3---0---3---0---3-------1---1---------------|
C#|-------------------------------------------------------------------------------------4---3---2---|
    1 + 2 + 3 + 4 + 5 + 6 + 1 + 2 + 3 + 4 + 5 + 6 + 1 + 2 + 3 + 4 + 5 + 6 + 1 + 2 + 3 + 4 + 5 + 6 +

F#|-------------------------------------------------------------------------------------------------|
C#|-------------------------0-------0-------0-------------------------------1-----------------------|
G#|-----1-------1-------1-------1-------1-------1---0---3---0---3---0---3-------1---1---------------|
C#|-1-------1-------1-------------------------------------------------------------------4---3---2---|
    1 + 2 + 3 + 4 + 5 + 6 + 1 + 2 + 3 + 4 + 5 + 6 + 1 + 2 + 3 + 4 + 5 + 6 + 1 + 2 + 3 + 4 + 5 + 6 +

1:06
F#|-------------------------------------------------------------------------------------------------|
C#|-------------------------------------------------------------------------------------------------|
G#|---------1-------0---4---3-----------0---3---0-----------1-------0---4---6-----------------------|
C#|-1-3-4-6-----4-6---------------------------------1-3-4-6-----4-6---------------------------------|
    1 + 2 + 3 + 4 + 5 + 6 + 1 + 2 + 3 + 4 + 5 + 6 + 1 + 2 + 3 + 4 + 5 + 6 + 1 + 2 + 3 + 4 + 5 + 6 +

1:16
F#|---------------------------------------------------|-------------------------|
C#|o-------------------------------------------------o|-------------------------|
G#|o-6-----------5-----------------------------------o|-0--/3---0--/3---0--/3---|
C#|--------------------------4--/7---4--/7---4--/7----|-------------------------|
     1 + 2 + 3 + 4 + 5 + 6 + 1 + 2 + 3 + 4 + 5 + 6 +    1 + 2 + 3 + 4 + 5 + 6 + 

F#|-----------------------4-3-----------------------------4-3-------|
C#|-1-------1-------1-3-4-----6-4-3-0-------0-------0-3-4-----6-4-3-|
G#|-------1-------1-----------------------1-------1-----------------|
C#|-----------------------------------------------------------------|
    1 + 2 + 3 + 4 + 1 + 2 + 3 + 4 + 1 + 2 + 3 + 4 + 1 + 2 + 3 + 4 + 

1:35
F#|-------------------------------------------------------------------|
C#|o-----------------------------------------------------------------o|
G#|o-----------------------------------------------------------------o|
C#|--1-----3-----3-/-9-----8---------6-----8-----4-----6-----3---0----|
     1 + 2 + 3 + 4 + 1 + 2 + 3 + 4 + 1 + 2 + 3 + 4 + 1 + 2 + 3 + 4 + 

Pre Chorus 1:49
F#|-----------------------------------------------------------------|
C#|---------4---1---------------------------8-----------------------|
G#|-2---------------4-------------/-9-----------9---6-6-6-6-6-6-6-6-|
C#|-----------------------------------------------------------------|
    1 + 2 + 3 + 4 + 1 + 2 + 3 + 4 + 1 + 2 + 3 + 4 + 1 + 2 + 3 + 4 +

F#|-----------------------------------------------------------------|
C#|-----------------------------------------------------------------|
G#|-2---2-2---2-2---4-4-4-4---4-4-/-9---9-9---9-9---6-6-6-6---6-6---|
C#|-----------------------------------------------------------------|
    1 + 2 + 3 + 4 + 1 + 2 + 3 + 4 + 1 + 2 + 3 + 4 + 1 + 2 + 3 + 4 +

F#|-----------------------------------------------------------------|
C#|-----------------------------------------------------------------|
G#|-2-2---2---2---2-4-4---4---4---4-5-5---5---5---5-6-------4-------|
C#|-----------------------------------------------------------------|
    1 + 2 + 3 + 4 + 1 + 2 + 3 + 4 + 1 + 2 + 3 + 4 + 1 + 2 + 3 + 4 +

F#|-----------------------------------------------------------------|
C#|-----------------------------------------------------------------|
G#|-2---2---2---2---2---2---2---2---4-4-4-4-4-4-4-4-4\--------------|
C#|-----------------------------------------------------------------|
    1 + 2 + 3 + 4 + 1 + 2 + 3 + 4 + 1 + 2 + 3 + 4 + 1 + 2 + 3 + 4 +

Chorus 2:15
F#|-----------------------------------------------------------------|
C#|-----------------------------------------------------------------|
G#|-2---2---2---2---2---2---2---2---4---4---4---4-4-4---4-4-4-4-4-4-|
C#|-----------------------------------------------------------------|
    1 + 2 + 3 + 4 + 1 + 2 + 3 + 4 + 1 + 2 + 3 + 4 + 1 + 2 + 3 + 4 +

F#|-----------------------------------------------------------------|
C#|-4---4-4-4---4-6-3---3---3h4-3h4---------------------------------|
G#|---------------------------------6---6---6---6---4---4---4---4---|
C#|-----------------------------------------------------------------|
    1 + 2 + 3 + 4 + 1 + 2 + 3 + 4 + 1 + 2 + 3 + 4 + 1 + 2 + 3 + 4 +

F#|-----------------------------------------------------------------|
C#|-------------------------------------------------------------3---|
G#|-2---2---2---2-2-2---2---2---2---4---4-4-4---4-4-4---4---6-6-----|
C#|-----------------------------------------------------------------|
    1 + 2 + 3 + 4 + 1 + 2 + 3 + 4 + 1 + 2 + 3 + 4 + 1 + 2 + 3 + 4 +

F#|-----------------------------------------------------------------|
C#|-4---4-4-4---4-6-3---3---3h4-3h4---------------------------------|
G#|---------------------------------6---6-6-6---6-6-4---4-4-4---4---|
C#|-----------------------------------------------------------------|
    1 + 2 + 3 + 4 + 1 + 2 + 3 + 4 + 1 + 2 + 3 + 4 + 1 + 2 + 3 + 4 +

F#|-----------------------------------------------------------------|
C#|-----------------------------------------------------------------|
G#|-2---2---2---2---2---2---2---2---4---4---4---4---4\--------------|
C#|-----------------------------------------------------------------|
    1 + 2 + 3 + 4 + 1 + 2 + 3 + 4 + 1 + 2 + 3 + 4 + 1 + 2 + 3 + 4 +

Verse 2:48
F#|-------------------------------------------------------------------------------------------------|
C#|-1-------1-------1-------0-------0-------0-------------------------------1-----------------------|
G#|-----1-------1-------1-------1-------1-------1---0---3---0---3---0---3-------1---1---------------|
C#|-------------------------------------------------------------------------------------4---3---2---|
    1 + 2 + 3 + 4 + 5 + 6 + 1 + 2 + 3 + 4 + 5 + 6 + 1 + 2 + 3 + 4 + 5 + 6 + 1 + 2 + 3 + 4 + 5 + 6 +

F#|-------------------------------------------------------------------------------------------------|
C#|-------------------------0-------0-------0-------------------------------1-----------------------|
G#|-----1-------1-------1-------1-------1-------1---0---3---0---3---0---3-------1---1---------------|
C#|-1-------1-------1-------------------------------------------------------------------4---3---2---|
    1 + 2 + 3 + 4 + 5 + 6 + 1 + 2 + 3 + 4 + 5 + 6 + 1 + 2 + 3 + 4 + 5 + 6 + 1 + 2 + 3 + 4 + 5 + 6 +

3:08
F#|-------------------------------------------------------------------------------------------------|
C#|-------------------------------------------------------------------------------------------------|
G#|---------1-------0---4---3-----------0---3---0-----------1-------0---4---6-----------------------|
C#|-1-3-4-6-----4-6---------------------------------1-3-4-6-----4-6---------------------------------|
    1 + 2 + 3 + 4 + 5 + 6 + 1 + 2 + 3 + 4 + 5 + 6 + 1 + 2 + 3 + 4 + 5 + 6 + 1 + 2 + 3 + 4 + 5 + 6 +

3:18
F#|---------------------------------------------------|-------------------------|
C#|o-------------------------------------------------o|-------------------------|
G#|o-6-----------5-----------------------------------o|-0--/3---0--/3---0--/3---|
C#|--------------------------4--/7---4--/7---4--/7----|-------------------------|
     1 + 2 + 3 + 4 + 5 + 6 + 1 + 2 + 3 + 4 + 5 + 6 +    1 + 2 + 3 + 4 + 5 + 6 + 

F#|-----------------------4-3-----------------------------4-3-------|
C#|-1-------1-------1-3-4-----6-4-3-0-------0-------0-3-4-----6-4-3-|
G#|-------1-------1-----------------------1-------1-----------------|
C#|-----------------------------------------------------------------|
    1 + 2 + 3 + 4 + 1 + 2 + 3 + 4 + 1 + 2 + 3 + 4 + 1 + 2 + 3 + 4 + 

3:37
F#|-------------------------------------------------------------------|
C#|o-----------------------------------------------------------------o|
G#|o-----------------------------------------------------------------o|
C#|--1-----3-----3-/-9-----8---------6-----8-----4-----6-----3---0----|
     1 + 2 + 3 + 4 + 1 + 2 + 3 + 4 + 1 + 2 + 3 + 4 + 1 + 2 + 3 + 4 + 

Pre Chorus 3:50
F#|-----------------------------------------------------------------|
C#|---------4---1---------------------------8-----------------------|
G#|-2---------------4-------------/-9-----------9---6-6-6-6-6-6-6-6-|
C#|-----------------------------------------------------------------|
    1 + 2 + 3 + 4 + 1 + 2 + 3 + 4 + 1 + 2 + 3 + 4 + 1 + 2 + 3 + 4 +

F#|-----------------------------------------------------------------|
C#|-----------------------------------------------------------------|
G#|-2---2-2---2-2---4-4-4-4---4-4-/-9---9-9---9-9---6-6-6-6---6-6---|
C#|-----------------------------------------------------------------|
    1 + 2 + 3 + 4 + 1 + 2 + 3 + 4 + 1 + 2 + 3 + 4 + 1 + 2 + 3 + 4 +

F#|-----------------------------------------------------------------|
C#|-----------------------------------------------------------------|
G#|-2-2---2---2---2-4-4---4---4---4-5-5---5---5---5-6-------4-------|
C#|-----------------------------------------------------------------|
    1 + 2 + 3 + 4 + 1 + 2 + 3 + 4 + 1 + 2 + 3 + 4 + 1 + 2 + 3 + 4 +

F#|-----------------------------------------------------------------|
C#|-----------------------------------------------------------------|
G#|-2---2---2---2---2---2---2---2---4---4---4-4-4-4-4---------------|
C#|-----------------------------------------------------------------|
    1 + 2 + 3 + 4 + 1 + 2 + 3 + 4 + 1 + 2 + 3 + 4 + 1 + 2 + 3 + 4 +

Chorus 4:16
F#|-----------------------------------------------------------------|
C#|-------------------------------------------------------------3---|
G#|-2---2---2---2---2---2---2---2---4---4---4---4-4-4---4-4-6-------|
C#|-----------------------------------------------------------------|
    1 + 2 + 3 + 4 + 1 + 2 + 3 + 4 + 1 + 2 + 3 + 4 + 1 + 2 + 3 + 4 +

F#|-----------------------------------------------------------------|
C#|-4---4-4-4---4-6-3---3---3h4-3h4---------------------------------|
G#|---------------------------------6---6-6-6---6---4---4---4---4---|
C#|-----------------------------------------------------------------|
    1 + 2 + 3 + 4 + 1 + 2 + 3 + 4 + 1 + 2 + 3 + 4 + 1 + 2 + 3 + 4 +

F#|-----------------------------------------------------------------|
C#|-------------------------------------------------------------3-3-|
G#|-2---2-2-2---2---2---2---2---2---4---4-4-4---4-4-4---4---6-6-----|
C#|-----------------------------------------------------------------|
    1 + 2 + 3 + 4 + 1 + 2 + 3 + 4 + 1 + 2 + 3 + 4 + 1 + 2 + 3 + 4 +

F#|-----------------------------4-3---------------------------------|
C#|-4---4-4-4---6-4-3---3---6-4-------------------4-----------------|
G#|---------------------------------6---6-6-6---6---4---4-4-4---4---|
C#|-----------------------------------------------------------------|
    1 + 2 + 3 + 4 + 1 + 2 + 3 + 4 + 1 + 2 + 3 + 4 + 1 + 2 + 3 + 4 +

F#|-----------------------------------------------------------------|
C#|-----------------------------------------------------------------|
G#|-2---2---2---2-2-2---2---2-2-2-2-4---4---4---4-4-4---------------|
C#|-----------------------------------------------------------------|
    1 + 2 + 3 + 4 + 1 + 2 + 3 + 4 + 1 + 2 + 3 + 4 + 1 + 2 + 3 + 4 +

Bridge 4:50
F#|---------------------------------------------------------------------------------------------------|
C#|o-------------------------------------------------------------------------------------------------o|
G#|o-------------------------------------------------------------------------------------------------o|
C#|--1-------1---4-------4---3-------3---0-------0---4-------4---7-------7---6-------6---3-------3----|
     1 + 2 + 3 + 4 + 5 + 6 + 1 + 2 + 3 + 4 + 5 + 6 + 1 + 2 + 3 + 4 + 5 + 6 + 1 + 2 + 3 + 4 + 5 + 6 +

5:10
F#|-------------------------------------------------------------------------------------------------|
C#|-1-----1-----1-------1---1---1-1---1-1---3---4---------------------------------------------------|
G#|-----------1-------------------------------------2-----2-----2-------2---2---2-2---2-2-----2-----|
C#|-----------------------------------------------------------4---------------------------------4-4-|
    1 + 2 + 3 + 4 + 5 + 6 + 1 + 2 + 3 + 4 + 5 + 6 + 1 + 2 + 3 + 4 + 5 + 6 + 1 + 2 + 3 + 4 + 5 + 6 +

F#|-------------------------------------------------------------------------------------------------|
C#|-------------------------------------------------------------------------------------------------|
G#|-------------------------------------------------4-----------4-----------4-----------5-----------|
C#|-6---6-6---6-6-------6---6---6-6---6-6-------6---------------------------------------------------|
    1 + 2 + 3 + 4 + 5 + 6 + 1 + 2 + 3 + 4 + 5 + 6 + 1 + 2 + 3 + 4 + 5 + 6 + 1 + 2 + 3 + 4 + 5 + 6 +

5:30
F#|-------------------------------------------------------------------------------------------------|
C#|-1-----1-----1---1---1---1---1-1---1-1---3---4-----------------------------------------------4---|
G#|-----------1-------------------------------------2-----2-----2-------2---2---2-2---2-2---2-------|
C#|-----------------------------------------------------------4-------------------------------------|
    1 + 2 + 3 + 4 + 5 + 6 + 1 + 2 + 3 + 4 + 5 + 6 + 1 + 2 + 3 + 4 + 5 + 6 + 1 + 2 + 3 + 4 + 5 + 6 +

F#|-------------------------------------------------------------------------------------------------|
C#|-------------------------------------------------------------------------------------------------|
G#|-------------------------------------------------4---4-4---4-4---4---4---4---4---4---5---5---8---|
C#|-6---6-6---6-6---6---6---6---6-6---6-6---6---6---------------------------------------------------|
    1 + 2 + 3 + 4 + 5 + 6 + 1 + 2 + 3 + 4 + 5 + 6 + 1 + 2 + 3 + 4 + 5 + 6 + 1 + 2 + 3 + 4 + 5 + 6 +

F#|-------------------------------------------------------------------------------------|
C#|-------------------------------------------------------------------------------------|
G#|-6-----------------1---------------------4-------------------4---------------------1-|
C#|---------------------1-----------------4-------------------4-------------------------|
    1 + 2 + 3 + 4 + 5 + 1 + 2 + 3 + 4 + 5 + 1 + 2 + 3 + 4 + 5 + 1 + 2 + 3 + 4 + 5 + 6 +

Interlude 5:58
F#|--------------------------------------------------------------------|
C#|o------------------------------------------------------------------o|
G#|o------------------------------------------------------------------o|
C#|--1-1-11111-1-11111-1-11111-1-11114-4-44444-4-44444-4-44444-4-4444--|
     1 + 2 + 3 + 4 + 1 + 2 + 3 + 4 + 1 + 2 + 3 + 4 + 1 + 2 + 3 + 4 +

F#|----------------------------------|
C#|----------------------------------|
G#|-000000000000000000000000000000000|
C#|----------------------------------|
    1 + 2 + 3 + 4 + 1 + 2 + 3 + 4 +

Bridge 6:14
F#|-4-------3---------------------------------------------------3---|
C#|-----------------3-------1---------------------------------------|
G#|---------------------------------------------------------1-------|
C#|---------------------------------6-------4-------3---------------|
    1 + 2 + 3 + 4 + 1 + 2 + 3 + 4 + 1 + 2 + 3 + 4 + 1 + 2 + 3 + 4 +

F#|-4-------3-----------------------------------------------|
C#|-----------------3-------1-------------------------------|
G#|---------------------------------------------------------|
C#|---------------------------------6-------4-------3-------|
    1 + 2 + 3 + 4 + 1 + 2 + 3 + 4 + 1 + 2 + 3 + 4 + 1 + 2 +

6:26
F#|-------------------------------------------------------------------|
C#|o-----------------------------------------------------------------o|
G#|o-----------------------------------------------------------------o|
C#|--1-----3-----3-/-9-----8---------6-----8-----4-----6-----3---0----|
     1 + 2 + 3 + 4 + 1 + 2 + 3 + 4 + 1 + 2 + 3 + 4 + 1 + 2 + 3 + 4 + 

Pre Chorus 6:40
F#|-----------------------------------------------------------------|
C#|---------4---1---------------------------8-----------------------|
G#|-2---------------4-------------/-9-----------9---6-6-6-6-6-6-6-6-|
C#|-----------------------------------------------------------------|
    1 + 2 + 3 + 4 + 1 + 2 + 3 + 4 + 1 + 2 + 3 + 4 + 1 + 2 + 3 + 4 +

F#|-----------------------------------------------------------------|
C#|-----------------------------------------------------------------|
G#|-2---2-2---2-2---4-4-4-4---4-4-/-9---9-9---9-9---6-6-6-6---6-6---|
C#|-----------------------------------------------------------------|
    1 + 2 + 3 + 4 + 1 + 2 + 3 + 4 + 1 + 2 + 3 + 4 + 1 + 2 + 3 + 4 +

F#|-----------------------------------------------------------------|
C#|-----------------------------------------------------------------|
G#|-2-2---2---2---2-4-4---4---4---4-5-5---5---5---5-6-------4-------|
C#|-----------------------------------------------------------------|
    1 + 2 + 3 + 4 + 1 + 2 + 3 + 4 + 1 + 2 + 3 + 4 + 1 + 2 + 3 + 4 +

F#|-----------------------------------------------------------------|
C#|-----------------------------------------------------------------|
G#|-2---2---2---2---2---2---2---2---4---4---4-4-4-4-4---------------|
C#|-----------------------------------------------------------------|
    1 + 2 + 3 + 4 + 1 + 2 + 3 + 4 + 1 + 2 + 3 + 4 + 1 + 2 + 3 + 4 +

Chorus 7:07
F#|-----------------------------------------------------------------|
C#|-------------------------------------------------------------3---|
G#|-2---2---2---2---2---2---2---2---4---4---4---4-4-4---4-4-6-------|
C#|-----------------------------------------------------------------|
    1 + 2 + 3 + 4 + 1 + 2 + 3 + 4 + 1 + 2 + 3 + 4 + 1 + 2 + 3 + 4 +

F#|-------------------------5---------------------------------------|
C#|-4---4-4-4---6-4-3---3-3---3-4-3---------------------------------|
G#|---------------------------------6---6-6-6---6---4---4---4---4---|
C#|-----------------------------------------------------------------|
    1 + 2 + 3 + 4 + 1 + 2 + 3 + 4 + 1 + 2 + 3 + 4 + 1 + 2 + 3 + 4 +

F#|-----------------------------------------------------------------|
C#|---------------------------------------------------------------3-|
G#|-2---2---2---2---2---2---2---2---4---4---4---4-4-4---4-4-4-4-6---|
C#|-----------------------------------------------------------------|
    1 + 2 + 3 + 4 + 1 + 2 + 3 + 4 + 1 + 2 + 3 + 4 + 1 + 2 + 3 + 4 +

F#|-----------------------------------------------------------------|
C#|-4---4---4---4---3---3-3-3h4-3h4---------------------------------|
G#|---------------------------------6---6-6-6---6---4---4---4---4---|
C#|-----------------------------------------------------------------|
    1 + 2 + 3 + 4 + 1 + 2 + 3 + 4 + 1 + 2 + 3 + 4 + 1 + 2 + 3 + 4 +

F#|-----------------------------------------------------------------|
C#|-----------------------------------------------------------------|
G#|-2---2---2---2-2-2---2---2---2---4---4-4-4-4-4-4-4\--------------|
C#|-----------------------------------------------------------------|
    1 + 2 + 3 + 4 + 1 + 2 + 3 + 4 + 1 + 2 + 3 + 4 + 1 + 2 + 3 + 4 +
Tabbed By Dave Vucko
comments
We did not receive enough feedback on this tab! Please rate:
1 2 3 4 5
I want to post or [tab]
guest
You may want to rate the tab now too:
select rating
Please do not post tabs as comments. Select "correction" instead!