Oops, an error
Loading. Please wait.

Afterlife Bass Tab

ver1
ver1
More versions @911Tabs.com
51,070 views 69 this week
13 commentsread comments
1 2 3 4 5
worth learning
x 14
Autoscroll
+/-
esc
set tempo
stop
Difficulty
Tuning
intermediate
D A D G B E
WARNING: You are trying to view
                                    content from Ultimate-Guitar.com
                                    in an unauthorized application,
                                    which is prohibited.

                                    Please use an official Ultimate
                                    Guitar Tabs application for iPhone,
                                    iPad or Android to access legitimate
                                    chords, guitar, bass, and drum tabs
                                    from Ultimate-Guitar.com database.

                                    Type "ultimate guitar tabs" in Apple
                                    App Store's or Android Market's
                                    search to find the application.
Drop D Tuning
Intermediate Difficulty
New Contributor Teh D Bot
Original Contributor Trooper Headly

Intro 0:16
G|-----------------------------------------------------------------|
D|-----------------------------------------------------------------|
A|-----------------------------------------------------------------|
D|-0---0-0---0-0---0-0-0---0-0-0---8---0-8---0-8-----8-8---8-8-8---|
   1 + 2 + 3 + 4 + 1 + 2 + 3 + 4 + 1 + 2 + 3 + 4 + 1 + 2 + 3 + 4 +

G|-----------------------------------------------------------------|
D|-----------------------------------------------------------------|
A|-----------------------------------------------------------------|
D|-5---0-5---0-5-----5-5---5-5-5---1---0-1---0-1---1-1-1---1-1-1---|
   1 + 2 + 3 + 4 + 1 + 2 + 3 + 4 + 1 + 2 + 3 + 4 + 1 + 2 + 3 + 4 +

G|-----------------------------------------------------------------|
D|-----------------------------------------------------------------|
A|-----------------------------------------------------------------|
D|-0---0-0---0-0---0-0-0---0-0-0---8---0-8---0-8---8-8-8-8-8-8-8---|
   1 + 2 + 3 + 4 + 1 + 2 + 3 + 4 + 1 + 2 + 3 + 4 + 1 + 2 + 3 + 4 +

G|-----------------------------------------------------------------|
D|-----------------------------------------------------------------|
A|-----------------------------------------------------------------|
D|-5---0-5---0-5---5-5-5-5-5-5-5-5-1---0-1---0-1---1-1-1-1-1-1-1-1-|
   1 + 2 + 3 + 4 + 1 + 2 + 3 + 4 + 1 + 2 + 3 + 4 + 1 + 2 + 3 + 4 +

0:34
G|-----------------------------------------------------------------|
D|-----------------------------------------------------------------|
A|-----------------------------------------------------------------|
D|-0-----------------------------------------------3---0-5---0-6---|
   1 + 2 + 3 + 4 + 1 + 2 + 3 + 4 + 1 + 2 + 3 + 4 + 1 + 2 + 3 + 4 +

Verse 0:38 x4
G|---------------------------------------------------------------------------|-----------------|
D|o-------------------------------------------------------------------------o|-----------------|
A|o-5h8p5---5h8p5---------------5h8p5---5h8p5-------------------------------o|-----------------|
D|--------6-------6-0---0---0---------6-------6-0---0---0---3-----5-----6----|-6-----5-----3---|
    Tripl Tripl 3 + 4 + 1 + 2 + Tripl Tripl 1 + 2 + 3 + 4 + 1 + 2 + 3 + 4 +    1 + 2 + 3 + 4 + 

0:57
G|------------------------------------------------------------------|
D|------------------------------------------------------------------|
A|----------------------------------3---3---3-3-3-3-3---3-3---3-3---|
D|-0-0-8-0-7-0-0-10---8---8-7-8-7-5---------------------------------|
   1 + 2 + 3 + 4 +  1 + 2 + 3 + 4 + 1 + 2 + 3 + 4 + 1 + 2 + 3 + 4 +

G|------------------------------------------------------------------|
D|------------------------------------------------------------------|
A|----------------------------------3---3---3-3-3-3/7---7-7---7-7---|
D|-0-0-8-0-7-0-0-10---8---7---8-7-5---------------------------------|
   1 + 2 + 3 + 4 +  1 + 2 + 3 + 4 + 1 + 2 + 3 + 4 + 1 + 2 + 3 + 4 +

G|------------------------------------------------------------------|
D|------------------------------------------------------------------|
A|----------------------------------3---3---3-3-3-3-3-3-3-3---3-3-3-|
D|-0-0-8-0-7-0-0-10---8---8-7-8-7-5---------------------------------|
   1 + 2 + 3 + 4 +  1 + 2 + 3 + 4 + 1 + 2 + 3 + 4 + 1 + 2 + 3 + 4 +

G|-----------------------------------------------------------------|
D|-----------------------------------------------------------------|
A|-1-----1-----1-----1---1-1-1-1-1-3-----3-----4---4-4-4-4-4-4-4-4-|
D|-----------------------------------------------------------------|
   1 + 2 + 3 + 4 + 1 + 2 + 3 + 4 + 1 + 2 + 3 + 4 + 1 + 2 + 3 + 4 +

Pre Chorus 1:15
G|-------------------------------------------------------------------|
D|o-------------------------------------------------------------2---o|
A|o---------------------------------1-----------1---------3---------o|
D|--0-----------0---------3-----3------------------------------------|
    1 + 2 + 3 + 4 + 1 + 2 + 3 + 4 + 1 + 2 + 3 + 4 + 1 + 2 + 3 + 4 +

Chorus 
G|-----------------------------------------------------------------|
D|-----------------------------------------------------------------|
A|---------------------------------3---3---3---3---3---3---3---3---|
D|-3---3---3---3---3---3---3---3-----------------------------------|
   1 + 2 + 3 + 4 + 1 + 2 + 3 + 4 + 1 + 2 + 3 + 4 + 1 + 2 + 3 + 4 +

G|-----------------------------------------------------------------|
D|-----------------------------------------------------------------|
A|---------------------------------1---1---1---1---1---1---1---1---|
D|-0---0---0---0---0---0---0---0-----------------------------------|
   1 + 2 + 3 + 4 + 1 + 2 + 3 + 4 + 1 + 2 + 3 + 4 + 1 + 2 + 3 + 4 +

G|-----------------------------------------------------------------|
D|-----------------------------------------------------------------|
A|---------------------------------3---3---3---3---3---3---3---3---|
D|-3---3---3---3---3---3---2---3-----------------------------------|
   1 + 2 + 3 + 4 + 1 + 2 + 3 + 4 + 1 + 2 + 3 + 4 + 1 + 2 + 3 + 4 +

G|-------------------------------------------------------------------------------------------------|
D|-------------------------------------------------------------------------------------------------|
A|-5---5---5---5---5---5---5---5---1---1---1---1---1---1---1---1-----------------------------------|
D|-----------------------------------------------------------------2---2---2---2---2---------------|
   1 + 2 + 3 + 4 + 1 + 2 + 3 + 4 + 1 + 2 + 3 + 4 + 1 + 2 + 3 + 4 + 1 + 2 + 3 + 4 + 1 + 2 + 3 + 4 +  

Verse 1:43
G|---------------------------------------------------------------------------|-----------------|
D|o-------------------------------------------------------------------------o|-----------------|
A|o-5h8p5---5h8p5---------------5h8p5---5h8p5-------------------------------o|-----------------|
D|--------6-------6-0---0---0---------6-------6-0---0---0---3-----5-----6----|-6-----5-----3---|
    Tripl Tripl 3 + 4 + 1 + 2 + Tripl Tripl 1 + 2 + 3 + 4 + 1 + 2 + 3 + 4 +    1 + 2 + 3 + 4 + 

2:02
G|------------------------------------------------------------------|
D|------------------------------------------------------------------|
A|----------------------------------3---3---3-3-3-3-3---3-3---3-3---|
D|-0-0-8-0-7-0-0-10---8---8-7-8-7-5---------------------------------|
   1 + 2 + 3 + 4 +  1 + 2 + 3 + 4 + 1 + 2 + 3 + 4 + 1 + 2 + 3 + 4 +

G|------------------------------------------------------------------|
D|------------------------------------------------------------------|
A|----------------------------------3---3---3-3-3-3/7---7-7---7-7---|
D|-0-0-8-0-7-0-0-10---8---7---8-7-5---------------------------------|
   1 + 2 + 3 + 4 +  1 + 2 + 3 + 4 + 1 + 2 + 3 + 4 + 1 + 2 + 3 + 4 +

G|------------------------------------------------------------------|
D|------------------------------------------------------------------|
A|----------------------------------3---3---3-3-3-3-3-3-3-3---3-3-3-|
D|-0-0-8-0-7-0-0-10---8---8-7-8-7-5---------------------------------|
   1 + 2 + 3 + 4 +  1 + 2 + 3 + 4 + 1 + 2 + 3 + 4 + 1 + 2 + 3 + 4 +

G|-----------------------------------------------------------------|
D|-----------------------------------------------------------------|
A|-1-----1-----1-----1---1-1-1-1-1-3-----3-----4---4-4-4-4-4-4-4-4-|
D|-----------------------------------------------------------------|
   1 + 2 + 3 + 4 + 1 + 2 + 3 + 4 + 1 + 2 + 3 + 4 + 1 + 2 + 3 + 4 +

Pre Chorus 2:19
G|-------------------------------------------------------------------|
D|o-------------------------------------------------------------2---o|
A|o---------------------------------1-----------1---------3---------o|
D|--0-----------0---------3-----3------------------------------------|
    1 + 2 + 3 + 4 + 1 + 2 + 3 + 4 + 1 + 2 + 3 + 4 + 1 + 2 + 3 + 4 +

Chorus 2:28
G|-----------------------------------------------------------------|
D|-----------------------------------------------------------------|
A|---------------------------------3---3---3---3---3---3---3---3---|
D|-3---3---3---3---3---3---3---3-----------------------------------|
   1 + 2 + 3 + 4 + 1 + 2 + 3 + 4 + 1 + 2 + 3 + 4 + 1 + 2 + 3 + 4 +

G|-----------------------------------------------------------------|
D|-----------------------------------------------------------------|
A|---------------------------------1---1---1---1---1---1---1---1---|
D|-0---0---0---0---0---0---0---0-----------------------------------|
   1 + 2 + 3 + 4 + 1 + 2 + 3 + 4 + 1 + 2 + 3 + 4 + 1 + 2 + 3 + 4 +

G|-----------------------------------------------------------------|
D|-----------------------------------------------------------------|
A|---------------------------------3---3---3---3---3---3---3---3---|
D|-3---3---3---3---3---3---2---3-----------------------------------|
   1 + 2 + 3 + 4 + 1 + 2 + 3 + 4 + 1 + 2 + 3 + 4 + 1 + 2 + 3 + 4 +

G|-----------------------------------------------------------------|
D|-----------------------------------------------------------------|
A|-5---5---5---5---5---5---5---5---1---1---1---1---1---0---1---3---|
D|-----------------------------------------------------------------|
   1 + 2 + 3 + 4 + 1 + 2 + 3 + 4 + 1 + 2 + 3 + 4 + 1 + 2 + 3 + 4 +  

2:46
G|-----------------------------------------------------------------|
D|-3---3---3---3---3---3---3---2-----------------------------------|
A|---------------------------------3---3---3---3---3---3---1---3---|
D|-----------------------------------------------------------------|
   1 + 2 + 3 + 4 + 1 + 2 + 3 + 4 + 1 + 2 + 3 + 4 + 1 + 2 + 3 + 4 +

G|-----------------------------------------------------------------|
D|-0---0---0---0---0---2---3---2-----------------------------------|
A|---------------------------------1---1---1---1---1---0---1---3---|
D|-----------------------------------------------------------------|
   1 + 2 + 3 + 4 + 1 + 2 + 3 + 4 + 1 + 2 + 3 + 4 + 1 + 2 + 3 + 4 +

G|-----------------------------------------------------------------|
D|-3---3---3---3---3---3---3---2-----------------------------------|
A|---------------------------------3---3---3---3---3---3---1---3---|
D|-----------------------------------------------------------------|
   1 + 2 + 3 + 4 + 1 + 2 + 3 + 4 + 1 + 2 + 3 + 4 + 1 + 2 + 3 + 4 +

G|-------------------------------------------------------------------------------------------------|
D|-------------7---7---7---7-----------------------------------------------------------------------|
A|-5---5---5-------------------5---1---1---1---1---1---1---1---1---7---7---7---7---7---7---7---7---|
D|-------------------------------------------------------------------------------------------------|
   1 + 2 + 3 + 4 + 1 + 2 + 3 + 4 + 1 + 2 + 3 + 4 + 1 + 2 + 3 + 4 + 1 + 2 + 3 + 4 + 1 + 2 + 3 + 4 +  

Bridge 3:06
G|-----------------------------------------------------------------|
D|-----------------------------------------------------------------|
A|---------------------------------1-1-1---1-1-1---1-1-1---1-1-1---|
D|-0-0-0---0-0-0---0-0-0---0-0-0-----------------------------------|
   1 + 2 + 3 + 4 + 1 + 2 + 3 + 4 + 1 + 2 + 3 + 4 + 1 + 2 + 3 + 4 +

G|-----------------------------------------------------------------|
D|-----------------------------------------------------------------|
A|-----------------------------------------------------------------|
D|-5-5-5---5-5-5---5-5-5---5-5-5---1-1-1---1-1-1---1-1-1---1-1-1---|
   1 + 2 + 3 + 4 + 1 + 2 + 3 + 4 + 1 + 2 + 3 + 4 + 1 + 2 + 3 + 4 +

G|-----------------------------------------------------------------|
D|-----------------------------------------------------------------|
A|---------------------------------1-1-1---1-1-1---1-1-1---1-1-1---|
D|-0-0-0---0-0-0---0-0-0---0-0-0-----------------------------------|
   1 + 2 + 3 + 4 + 1 + 2 + 3 + 4 + 1 + 2 + 3 + 4 + 1 + 2 + 3 + 4 +

G|-----------------------------------------------------------------|
D|-----------------------------------------------------------------|
A|---------------------------------1-1-1---1-1-1---0-0-0---0-0-0---|
D|-5-5-5---5-5-5---5-5-5---5-5-5-----------------------------------|
   1 + 2 + 3 + 4 + 1 + 2 + 3 + 4 + 1 + 2 + 3 + 4 + 1 + 2 + 3 + 4 +

3:23
G|-----------------------------------------------------------------|
D|-----------------------------------------------------------------|
A|---------------------------------1-----------1---1---1---1---0---|
D|-0-----------0---0---0---2---3-----------------------------------|
   1 + 2 + 3 + 4 + 1 + 2 + 3 + 4 + 1 + 2 + 3 + 4 + 1 + 2 + 3 + 4 +

G|-----------------------------------------------------------------|
D|-----------------------------------------------------------------|
A|---------------------------------1-------3---1---0---------------|
D|-5-----------5---5---5---3---5---------------------------7---\---|
   1 + 2 + 3 + 4 + 1 + 2 + 3 + 4 + 1 + 2 + 3 + 4 + 1 + 2 + 3 + 4 +

G|-----------------------------------------------------------------|
D|-----------------------------------------------------------------|
A|---------------------------------1-----------1---1---1---1---0---|
D|-0-----------0---0---0---2---3-----------------------------------|
   1 + 2 + 3 + 4 + 1 + 2 + 3 + 4 + 1 + 2 + 3 + 4 + 1 + 2 + 3 + 4 +

G|-----------------------------------------------------------------|
D|-----------------------------------------------------------------|
A|---------------------------------1-------1---1---0-------0---0---|
D|-5-----------5---5---5---5---------------------------------------|
   1 + 2 + 3 + 4 + 1 + 2 + 3 + 4 + 1 + 2 + 3 + 4 + 1 + 2 + 3 + 4 +

3:40
G|-----------------------------------------------------------------|
D|---------------------------------------------------------0---3---|
A|---------------------------------1-----------1---1---3-----------|
D|-0-----------0---0---0---2---3-----------------------------------|
   1 + 2 + 3 + 4 + 1 + 2 + 3 + 4 + 1 + 2 + 3 + 4 + 1 + 2 + 3 + 4 +

G|-----------------------------------------5-----------------------|
D|-5-----------5---5---5---5---5---8---8-------8---7---8---7---8---|
A|-----------------------------------------------------------------|
D|-----------------------------------------------------------------|
   1 + 2 + 3 + 4 + 1 + 2 + 3 + 4 + 1 + 2 + 3 + 4 + 1 + 2 + 3 + 4 +

G|-----------------------------------------------------------------|
D|-----------------------------------------------------------------|
A|---------------------------------1-----------1---1---1---1---0---|
D|-0-----------0---0---0---2---3-----------------------------------|
   1 + 2 + 3 + 4 + 1 + 2 + 3 + 4 + 1 + 2 + 3 + 4 + 1 + 2 + 3 + 4 +

G|-----------------------------------------------------------------|
D|-----------------------------------------------------------------|
A|---------------------------------1---1---1---1---0---0---0---0---|
D|-5-----------5---5---5---3---5-----------------------------------|
   1 + 2 + 3 + 4 + 1 + 2 + 3 + 4 + 1 + 2 + 3 + 4 + 1 + 2 + 3 + 4 +

Solo 3:58
G|-----------------------------------------------------------------|
D|-----------------------------------------------------------------|
A|-----------------------------------------------------------------|
D|-0---0-0---0-0-----0-0---0-0-0---8---0-8---0-8-----8-8---8-8-8---|
   1 + 2 + 3 + 4 + 1 + 2 + 3 + 4 + 1 + 2 + 3 + 4 + 1 + 2 + 3 + 4 +

G|-----------------------------------------------------------------|
D|-----------------------------------------------------------------|
A|-----------------------------------------------------------------|
D|-5---0-5---0-5-----5-5---5-5-5---8---8-8---8-8---7---7-7---7-7---|
   1 + 2 + 3 + 4 + 1 + 2 + 3 + 4 + 1 + 2 + 3 + 4 + 1 + 2 + 3 + 4 +

G|-----------------------------------------------------------------|
D|-----------------------------------------------------------------|
A|-----------------------------------------------------------------|
D|-0---0-0---0-0-----0-0---0-0-0---8---0-8---0-8-----8-8---8-8-8---|
   1 + 2 + 3 + 4 + 1 + 2 + 3 + 4 + 1 + 2 + 3 + 4 + 1 + 2 + 3 + 4 +

G|-----------------------------------------------------------------|
D|-----------------------------------------------------------------|
A|-----------------------------------------------------------------|
D|-5---0-5---0-5-----5-5---5-5-5---8-8-8-8---8-8-8-7-7-7-7-7-7-7-7-|
   1 + 2 + 3 + 4 + 1 + 2 + 3 + 4 + 1 + 2 + 3 + 4 + 1 + 2 + 3 + 4 +

4:16
G|------------------------------------------------------------------|
D|o-----------------------------------------------------------------|
A|o-----------------------------------------------------------------|
D|--0-0-0-0-0-0-0-0-0-0-0-0-0-0-0-0-8-8-8-8-8-8-8-8-8-8-8-8-8-8-8-8-|
    1 + 2 + 3 + 4 + 1 + 2 + 3 + 4 + 1 + 2 + 3 + 4 + 1 + 2 + 3 + 4 +

G|------------------------------------------------------------------|
D|-----------------------------------------------------------------o|
A|-----------------------------------------------------------------o|
D|-5-5-5-5-5-5-5-5-5-5-5-5-5-5-5-5-8-8-8-8-8-8-8-8-7-7-7-7-7-7-7-7--|
   1 + 2 + 3 + 4 + 1 + 2 + 3 + 4 + 1 + 2 + 3 + 4 + 1 + 2 + 3 + 4 +

Interlude 4:33
G|-------------------------------------------------------------------|
D|o-----------------------------------------------------------------o|
A|o-5-5-5-5-5-----------------------3-3-3-3-3-----------------------o|
D|------------0---------0---0---0-------------2---------2---2---2----|
    1 + 2 + 3 + 4 + 1 + 2 + 3 + 4 + 1 + 2 + 3 + 4 + 1 + 2 + 3 + 4 +

G|-------------------------------------------------------------------|
D|o-----------------------------------------------------------------o|
A|o-5-5-5-5-5-----------------------3-3-3-3-3-----------------------o|
D|--------------0-0-0-0-0---0-0-0---------------2-2-2-2-2---2-2-2----|
    1 + 2 + 3 + 4 + 1 + 2 + 3 + 4 + 1 + 2 + 3 + 4 + 1 + 2 + 3 + 4 +

G|-----------------------------------------------------------------|
D|-----------------------------------------------------------------|
A|-----------------------------------------------------------------|
D|-0-------2-------3-------5-------2-------------------------------|
   1 + 2 + 3 + 4 + 1 + 2 + 3 + 4 + 1 + 2 + 3 + 4 + 1 + 2 + 3 + 4 +

rest

Chorus 5:00
G|-----------------------------------------------------------------|
D|-3---3---3---3---3---3---3---2-----------------------------------|
A|---------------------------------3---3---3---3---3---3---1---3---|
D|-----------------------------------------------------------------|
   1 + 2 + 3 + 4 + 1 + 2 + 3 + 4 + 1 + 2 + 3 + 4 + 1 + 2 + 3 + 4 +

G|-----------------------------------------------------------------|
D|-0---0---0---0---0---2---3---2-----------------------------------|
A|---------------------------------1---1---1---1---1---0---1---3---|
D|-----------------------------------------------------------------|
   1 + 2 + 3 + 4 + 1 + 2 + 3 + 4 + 1 + 2 + 3 + 4 + 1 + 2 + 3 + 4 +

G|-----------------------------------------------------------------|
D|-3---3---3---3---3---3---5---7-------------------7-------5---3---|
A|---------------------------------3---3---3---3-------3-----------|
D|-----------------------------------------------------------------|
   1 + 2 + 3 + 4 + 1 + 2 + 3 + 4 + 1 + 2 + 3 + 4 + 1 + 2 + 3 + 4 +

G|-----------------------------------------------------------------|
D|-0---0---0---0---0---0---2---3-----------------------------------|
A|---------------------------------1---1---1---1---1---1---1---0---|
D|-----------------------------------------------------------------|
   1 + 2 + 3 + 4 + 1 + 2 + 3 + 4 + 1 + 2 + 3 + 4 + 1 + 2 + 3 + 4 +

5:17
G|-----------------------------------------------------------------|
D|-3---3---3---3---3---3---3---3h5-2---2---2---2---2---2---2---3---|
A|-----------------------------------------------------------------|
D|-----------------------------------------------------------------|
   1 + 2 + 3 + 4 + 1 + 2 + 3 + 4 + 1 + 2 + 3 + 4 + 1 + 2 + 3 + 4 +

G|-----------------------------------------------------------------|
D|-0---0---0---0---0---0---0---0---8---8---8---8---7---8---7---5---|
A|-----------------------------------------------------------------|
D|-----------------------------------------------------------------|
   1 + 2 + 3 + 4 + 1 + 2 + 3 + 4 + 1 + 2 + 3 + 4 + 1 + 2 + 3 + 4 +

G|-----------------------------------------------------------------|
D|-3---3---3---3---3---3---3---2-----------------------------------|
A|---------------------------------3---3---3---3---3---3---1---3---|
D|-----------------------------------------------------------------|
   1 + 2 + 3 + 4 + 1 + 2 + 3 + 4 + 1 + 2 + 3 + 4 + 1 + 2 + 3 + 4 +

G|-----------------------------------------------------------------|
D|-0---0---0---7---7---7---0---------------------------------------|
A|-----------------------------1---1---1---1---1---1---1---1---0---|
D|-----------------------------------------------------------------|
   1 + 2 + 3 + 4 + 1 + 2 + 3 + 4 + 1 + 2 + 3 + 4 + 1 + 2 + 3 + 4 +

G|-----------------------------------------------------------------|
D|-----------------------------------------------------------------|
A|-7---7---7---7---7---7---7---------------------------------------|
D|---------------------------------0-------------------------------|
   1 + 2 + 3 + 4 + 1 + 2 + 3 + 4 + 1 + 2 + 3 + 4 + 1 + 2 + 3 + 4 +
Tab Changed by Dave Vucko
comments
print report bad tab
13 comments total. Showing first comments.
+1 reply
starcaster13 wrote on November 3 2007, 10:06 am

Nice. This is great!

+1 reply
Avengedx7xFold wrote on November 4 2007, 08:33 pm

first of all its in drop d, and there are a few parts that are wrong

0 reply
phasesevenfold wrote on January 10 2008, 09:56 pm

Afterlife is the same as scream; theyre the only two songs on the new album that aren't in Drop D. This is correct
tuning but i only have a problem with playing on the (higher) D string; i'd rather hit the 5th fret on the A rather than
have to hit more than 2 strings. Otherwise great tab!

I want to post or [tab]
guest
You may want to rate the tab now too:
select rating
Please do not post tabs as comments. Select "correction" instead!