Oops, an error
Loading. Please wait.

Afterlife Tab

27,149 views 6 this week
8 commentsread comments
1 2 3 4 5
accurate
x 7
Autoscroll
+/-
esc
set tempo
stop
Contributor
Tuning
D A D G B E
Hey! There's an official Ultimate Guitar app which is ideal
for learning songs when you're away from computer. Get the app
WARNING: You are trying to view
                                    content from Ultimate-Guitar.com
                                    in an unauthorized application,
                                    which is prohibited.

                                    Please use an official Ultimate
                                    Guitar Tabs application for iPhone,
                                    iPad or Android to access legitimate
                                    chords, guitar, bass, and drum tabs
                                    from Ultimate-Guitar.com database.

                                    Type "ultimate guitar tabs" in Apple
                                    App Store's or Android Market's
                                    search to find the application.
#----------------------------------PLEASE NOTE---------------------------------#
#This file is the author's own work and represents their interpretation of the #
#song. You may only use this file for private study, scholarship, or research. #
#------------------------------------------------------------------------------#

AFTERLIFE
As recorded by Avenged Sevenfold
(From the 2007 Album AVENGED SEVENFOLD)

Transcribed by Seth Sanders {F.u.c.kallyourfalsebeauty@hotmail.com}


Words and Music by Avenged Sevenfold
Arranged by Avenged Sevenfold

D5
0 0 0 x x x

Bb5
x 1 3 3 x x

G5
5 5 5 x x x

Eb5
1 1 1 x x x
A5
x 0 2 2 x x

Gtr I (D A D G B E) - 'Rhythm I'
Gtr II (D A D G B E) - 'Rhythm II'
Gtr III (D A D G B E) - 'Lead I'
Gtr IV (D A D G B E) - 'Lead II'
Gtr V (D A D G B E) - 'Lead III'
Gtr VI (D A D G B E) - 'Violin'

 Violin Intro
  Q=114
 4/4
  Gtr VI
  H     Q   Q     +H      Q   Q     +H      Q   Q     +H     Q  Q
|--------------|-----------------|-----------------|---------------|
|--------------|-----------------|-----------------|---------------|
|------14--12--|-(12)----12--10--|-(10)----14--12--|-(12)----8--7--|
|--------------|-----------------|-----------------|---------------|
|------12--10--|-(10)----10---8--|--(8)----12--10--|-(10)----6--5--|
|--------------|-----------------|-----------------|---------------|
  H     Q   Q     +H      Q   Q     +H      Q   Q     +H     Q  Q


  +H      Q   Q     +H      Q   q     Q  q   Q  q      Q   q    Q   q
|----------------|-----------------|---------------|-------------------||
|----------------|-----------------|---------------|-/17--15--/17--15--||
|-(7)----14--12--|-(12)----12--10--|-/9--7--/9--7--|-------------------||
|----------------|-----------------|---------------|-/14--12--/14--12--||
|-(5)----12--10--|-(10)----10---8--|-/7--5--/7--5--|-------------------||
|----------------|-----------------|---------------|-------------------||
  +H      Q   Q     +H      Q   q     Q  q   Q  q      Q   q    Q   q


 Intro
  Gtr III
            ~~~                     ~~~
   E.  E.   Q   E  E  E    E.  E.   H       E
|-----------------------|---------------------|
|---------/17-----------|---------/18---------|
|-12--14\------14-12-14-|-12--14\----------14-|
|-----------------------|---------------------|
|-----------------------|---------------------|
|-----------------------|---------------------|
|
| Gtr IV
|           ~~~                     ~~~
|  E.  E.   Q   E  E  E    E.  E.   H       E
|-----------------------|---------------------|
|-----------------------|---------/15---------|
|---------/17-----------|---------------------|
|-14--15\------15-14-15-|-14--15\----------15-|
|-----------------------|---------------------|
|-----------------------|---------------------|
|
| Gtrs I, II
|  E.  E.   Q   E  Q       E.  E.   Q  E Q
|-----------------------|---------------------|
|-----------------------|---------------------|
|-----------------------|--3---3----3--3-3----|
|--0---0----0---0--0----|--3---3----3--3-3----|
|--0---0----0---0--0----|--1---1----1--1-1----|
|--0---0----0---0--0----|---------------------|


            ~~~                                ~~~~
   E.  E.   H       E    Q        +E    E     +H
|---------------------|----------------17b18-(17)-----|
|---------/20------18-|-20b22r===(20)-----------------|
|-12--14\-------------|-------------------------------|
|---------------------|-------------------------------|
|---------------------|-------------------------------|
|---------------------|-------------------------------|
|
|           ~~~                                ~~~~
|  E.  E.   H       E    Q        +E    E     +H
|---------------------|-------------------------------|
|---------/17------15-|-17b18r===(17)-/18b20-(18)-----|
|---------------------|-------------------------------|
|-14--15\-------------|-------------------------------|
|---------------------|-------------------------------|
|---------------------|-------------------------------|
|
|  E.  E.   Q  E Q       E.   E.        Q         E Q
|---------------------|-------------------------------|
|---------------------|-------------------------------|
|---------------------|-------------------------------|
|--5---5----5--5-5----|--1----1---------1---------1-0-|
|--5---5----5--5-5----|--1----1---------1---------1-0-|
|--5---5----5--5-5----|--1----1---------1---------1-0-|


   S  S  S  S  E  S  S  S  S  E  S  S  S  S
|-12h13p12-------12h13p12-------12h13p12----|
|----------15-------------15-------------15-|
|-------------14-------------14-------------|
|-------------------------------------------|
|-------------------------------------------|
|-------------------------------------------|
|
|  S  S  S  S  E  S  S  S  S  E  S  S  S  S
|-15h17p15-------15h17p15-------15h17p15----|
|----------18p15----------18p15----------18-|
|-------------------------------------------|
|-------------------------------------------|
|-------------------------------------------|
|-------------------------------------------|
|
|  E.       E.    Q           E  Q
|-------------------------------------------|
|-------------------------------------------|
|-------------------------------------------|
|--0--------0-----0-----------0--0----------|
|--0--------0-----0-----------0--0----------|
|--0--------0-----0-----------0--0----------|


   S  S  S  S  E  S  S  S  S  E  S  S  S  S
|-12h13p12-------12h13p12-------12h13p12----|
|----------15-------------15-------------15-|
|-------------15-------------15-------------|
|-------------------------------------------|
|-------------------------------------------|
|-------------------------------------------|
|
|  S  S  S  S  E  S  S  S  S  E  S  S  S  S
|-15h17p15-------15h17p15-------15h17p15----|
|----------18p15----------18p15----------18-|
|-------------------------------------------|
|-------------------------------------------|
|-------------------------------------------|
|-------------------------------------------|
|
|  E.       E.    Q           E  Q
|-------------------------------------------|
|-------------------------------------------|
|--3--------3-----3-----------3--3----------|
|--3--------3-----3-----------3--3----------|
|--1--------1-----1-----------1--1----------|
|-------------------------------------------|


   S  S  S  S  E  S  S  S  S  E  S  S  S  S
|-20h22p20-------20h22p20-------20h22p20----|
|----------23p20----------23p20----------23-|
|-------------------------------------------|
|-------------------------------------------|
|-------------------------------------------|
|-------------------------------------------|
|
|  S  S  S  S  E  S  S  S  S  E  S  S  S  S
|-17h18p17-------17h18p17-------17h18p17----|
|----------20-------------20-------------20-|
|-------------19-------------19-------------|
|-------------------------------------------|
|-------------------------------------------|
|-------------------------------------------|
|
|  E.       E.    Q           E  Q
|-------------------------------------------|
|-------------------------------------------|
|-------------------------------------------|
|--5--------5-----5-----------5--5----------|
|--5--------5-----5-----------5--5----------|
|--5--------5-----5-----------5--5----------|


   S  S  S  S  E  S  S  S  S  E    E     +E
|-20h22p20-------20h22p20----20\-/20b22-(20)\-||
|----------23p20----------23------------------||
|---------------------------------------------||
|---------------------------------------------||
|---------------------------------------------||
|---------------------------------------------||
|
|                                         ~~~~~
|  S  S  S  S  E  S  S  S  S  E    E     +E
|-17h18p17-------17h18p17----17\-/17b18-(17)\-||
|----------20-------------20------------------||
|-------------19------------------------------||
|---------------------------------------------||
|---------------------------------------------||
|---------------------------------------------||
|
|  E.       E.    Q           E    Q
|---------------------------------------------||
|---------------------------------------------||
|---------------------------------------------||
|--1--------1-----1-----------1----0----------||
|--1--------1-----1-----------1----0----------||
|--1--------1-----1-----------1----0----------||


 Pre-Verse
  Gtr II
            PM--|                  PM--|
  E.   E.   e e e E.   S      E    e e e  H
|---------------------------|--------------------------------||
|---------------------------|--------------------------------||
|---------------------------|--------------------------------||
|---------------------------|--------------------------------||
|-5tr6-5tr8-0-0-0-5tr6-5tr8-|-5tr8-0-0-0---------------------||
|-----------0-0-0-----------|------0-0-0-(3)p(0)-(5)p(0)-(6)-||
|                             H           E   S   E   S   E
|
| Gtr I
|           PM--|                  PM--|
| Q.        e e e Q           E    e e e  H
|---------------------------|--------------------------------||
|---------------------------|--------------------------------||
|---------------------------|--------------------------------||
|---------------------------|--------------------------------||
|-----------0-0-0-----------|-x----0-0-0---------------------||
|-----------0-0-0-----------|-x----0-0-0---------------------||


   Verse I
                                           1.,2.,3.
    Gtrs I, II
              PM--|                  PM--|
    E.   E.   e e e E.   S      E    e e e E. E. E  4x
||----------------------------|---------------------||
||o---------------------------|--------------------o||
||----------------------------|---------------------||
||----------------------------|------------3--5--6--||
||o-5tr6-5tr8-0-0-0-5tr6-5tr8-|-5tr8-0-0-0-3--5--6-o||
||------------0-0-0-----------|------0-0-0-3--5--6--||


  4.
  Gtr II
  E. E. E E. E. E   W
|-----------------|------|
|-----------------|------|
|-----------------|------|
|-3--5--6-6--5--3-|------|
|-3--5--6-6--5--3-|------|
|-3--5--6-6--5--3-|------|
|
| Gtr I
| E. E. E E. E. E   w
|-----------------|------|
|-----------------|------|
|-----------------|------|
|-3--5--6-6--5--3-|-x----|
|-3--5--6-6--5--3-|-x----|
|-3--5--6-6--5--3-|-x----|


  E E S S E E.  E. E   w          E E S S E  E.  E. E
|--------------------|----------|---------------------|
|--------------------|----------|---------------------|
|-5-5-5-5-5S9--10S12-|-x--------|-5-5-5-5-5S12--14S17-|
|-x-x-x-x-x-x---x--x-|-x--------|-x-x-x-x-x--x---x--x-|
|-3-3-3-3-3S7---8S10-|-x--------|-3-3-3-3-3S10--12S15-|
|--------------------|----------|---------------------|
|
|                                 <
| W                    W          W
|--------------------|----------|---------------------|
|--------------------|----------|---------------------|
|--------------------|----------|-5-------------------|
|--------------------|----------|-5-------------------|
|--------------------|----------|-3-------------------|
|--------------------|----------|---------------------|


  Gtr I
  PM            PM|
  E  E  E.    S S S  E  E  S S   E E S S E S S E E E
|------------------------------|---------------------|
|------------------------------|---------------------|
|------------------------------|-5-5-5-5-5-5-5-5-5-5-|
|------------------------------|-5-5-5-5-5-5-5-5-5-5-|
|------------------------------|-3-3-3-3-3-3-3-3-3-3-|
|-0-15-14b15r17-0-0-15p14-15p0-|---------------------|
|
| Gtr II
| PM            PM|
| E  E  E.    S S S  E  E  S S   E E S S E S S E E E
|------------------------------|---------------------|
|------------------------------|---------------------|
|------------------------------|-5-5-5-5-5-5-5-5-5-5-|
|------------------------------|-5-5-5-5-5-5-5-5-5-5-|
|------------------------------|-3-3-3-3-3-3-3-3-3-3-|
|-0-15-14b15r17-0-0--8p=7--8p0-|---------------------|


  E E E E E E Q    E E Q  H
|----------------|-------------||
|----------------|-------------||
|-3-3-3-3-3-3-3--|-5-5-5--6----||
|-3-3-3-3-3-3-3--|-5-5-5--7----||
|-1-1-1-1-1-1-1--|-3-3-3--4----||
|----------------|-------------||
|
| E E E E E E Q    E E Q  H
|----------------|-------------||
|----------------|-------------||
|-3-3-3-3-3-3-3--|-5-5-5--6----||
|-3-3-3-3-3-3-3--|-5-5-5--7----||
|-1-1-1-1-1-1-1--|-3-3-3--4----||
|----------------|-------------||


 Pre-Chorus
  Gtrs I, II
    PM----|   PM|   PM|       PM----|   PM|   PM|
  E S S S S E S S E S S E   E S S S S E S S E S S E
|-------------------------|-------------------------|
|-------------------------|-------------------------|
|-------------------------|-------------------------|
|-------------------------|-3---------3-----5-------|
|-0---------0-----0-----3-|-1-1-1-1-1-1-3-3-3-----3-|
|-0-0-0-0-0-0-0-0-0-3-3-3-|-------------------3-3-3-|


    PM----|   PM|   PM|       PM----|   PM----------|
  E S S S S E S S E S S E   E S S S S E S S S S S S e
|-------------------------|-----------------------------||
|-------------------------|-----------------------------||
|-------------------------|-----------------------------||
|-------------------------|-3---------3-----------------||
|-0---------0-----0-----3-|-1-1-1-1-1-1-1-1-1-1-1-1-1---||
|-0-0-0-0-0-0-0-0-0-3-3-3-|-----------------------------||


 Chorus
  Gtrs I, II
  Q    Q  E E  E E   Q    Q  E E  E E     Q     Q    E  E E E    Q  Q  E E E E
|------------------|------------------|-----------------------|----------------|
|------------------|------------------|-----------------------|----------------|
|------------------|-5----5--5-5--5-5-|---7-----7----7--7-7-7-|--3--3--3-3-3-3-|
|-3----3--3-3--3-3-|-5----5--5-5--5-5-|---7-----7----7--7-7-7-|--3--3--3-3-3-3-|
|-3----3--3-3--3-3-|-3----3--3-3--3-3-|---5-----5----5--5-5-5-|--1--1--1-1-1-1-|
|-3----3--3-3--3-3-|------------------|-----------------------|----------------|
|
| Gtr V
| E E  Q  Q    Q     E E  Q  Q    Q      +E   Q    Q    Q   E    W
|------------------|------------------|-----------------------|----------------|
|------------------|------------------|-----------------------|----------------|
|-5-5S10--9---10---|-5-5S10--9---10---|-(10)S14---12---10---9S|=10-------------|
|-x-x--x--x----x---|-x-x--x--x----x---|-------x----x----x---x-|--x-------------|
|-3-3S=8--7----8---|-3-3S=8--7----8---|--(8)S12---10----8---7S|==8-------------|
|------------------|------------------|-----------------------|----------------|


  Q    Q  E E  E E   Q    Q  E E  E E
|------------------|------------------|
|------------------|------------------|
|------------------|-5----5--5-5--5-5-|
|-3----3--3-3--3-3-|-5----5--5-5--5-5-|
|-3----3--3-3--3-3-|-3----3--3-3--3-3-|
|-3----3--3-3--3-3-|------------------|
|
| E E  Q  Q    Q     E E  Q  Q    Q
|------------------|------------------|
|------------------|------------------|
|-5-5S10--9---10---|-5-5S10--9---10---|
|-x-x--x--x----x---|-x-x--x--x----x---|
|-3-3S=8--7----8---|-3-3S=8--7----8---|
|------------------|------------------|


    Q     Q    E  E E E    Q   Q   E  E  E E
|-----------------------|--------------------|
|-----------------------|--------------------|
|---7-----7----7--7-7-7-|--3---3---3--3--3-3-|
|---7-----7----7--7-7-7-|--3---3---3--3--3-3-|
|---5-----5----5--5-5-5-|--1---1---1--1--1-1-|
|-----------------------|--------------------|
|
|  +E   Q    Q    Q   E    Q   Q   E  Q.
|-----------------------|--------------------|
|-----------------------|--------------------|
|-(10)S14---12---10---9S|=10--10--10-10------|
|-------x----x----x---x-|--x---x---x--x------|
|--(8)S12---10----8---7S|==8---8---8--8------|
|-----------------------|--------------------|


   E  E E E q  Q
|-----------------||
|-----------------||
|--3--3-3-3-3-----||
|--3--3-3-3-3-----||
|--1--1-1-1-1-----||
|-----------------||
|
|  h        H
|-----------------||
|-----------------||
|-10\-------------||
|--x--------------||
|--8\-------------||
|-----------------||


   Verse II
                                           1.,2.,3.
    Gtrs I, II
              PM--|                  PM--|
    E.   E.   e e e E.   S      E    e e e E. E. E  4x
||----------------------------|---------------------||
||o---------------------------|--------------------o||
||----------------------------|---------------------||
||----------------------------|------------3--5--6--||
||o-5tr6-5tr8-0-0-0-5tr6-5tr8-|-5tr8-0-0-0-3--5--6-o||
||------------0-0-0-----------|------0-0-0-3--5--6--||


  4.
  Gtr II
  E. E. E E. E. E   W
|-----------------|------|
|-----------------|------|
|-----------------|------|
|-3--5--6-6--5--3-|------|
|-3--5--6-6--5--3-|------|
|-3--5--6-6--5--3-|------|
|
| Gtr I
| E. E. E E. E. E   w
|-----------------|------|
|-----------------|------|
|-----------------|------|
|-3--5--6-6--5--3-|-x----|
|-3--5--6-6--5--3-|-x----|
|-3--5--6-6--5--3-|-x----|


  E E S S E E.  E. E   w          E E S S E  E.  E. E
|--------------------|----------|---------------------|
|--------------------|----------|---------------------|
|-5-5-5-5-5S9--10S12-|-x--------|-5-5-5-5-5S12--14S17-|
|-x-x-x-x-x-x---x--x-|-x--------|-x-x-x-x-x--x---x--x-|
|-3-3-3-3-3S7---8S10-|-x--------|-3-3-3-3-3S10--12S15-|
|--------------------|----------|---------------------|
|
|                                 <
| W                    W          W
|--------------------|----------|---------------------|
|--------------------|----------|---------------------|
|--------------------|----------|-5-------------------|
|--------------------|----------|-5-------------------|
|--------------------|----------|-3-------------------|
|--------------------|----------|---------------------|


  Gtr I
  PM            PM|
  E  E  E.    S S S  E  E  S S   E E S S E S S E E E
|------------------------------|---------------------|
|------------------------------|---------------------|
|------------------------------|-5-5-5-5-5-5-5-5-5-5-|
|------------------------------|-5-5-5-5-5-5-5-5-5-5-|
|------------------------------|-3-3-3-3-3-3-3-3-3-3-|
|-0-15-14b15r17-0-0-15p14-15p0-|---------------------|
|
| Gtr II
| PM            PM|
| E  E  E.    S S S  E  E  S S   E E S S E S S E E E
|------------------------------|---------------------|
|------------------------------|---------------------|
|------------------------------|-5-5-5-5-5-5-5-5-5-5-|
|------------------------------|-5-5-5-5-5-5-5-5-5-5-|
|------------------------------|-3-3-3-3-3-3-3-3-3-3-|
|-0-15-14b15r17-0-0--8p=7--8p0-|---------------------|


  E E E E E E Q    E E Q  H
|----------------|-------------||
|----------------|-------------||
|-3-3-3-3-3-3-3--|-5-5-5--6----||
|-3-3-3-3-3-3-3--|-5-5-5--7----||
|-1-1-1-1-1-1-1--|-3-3-3--4----||
|----------------|-------------||
|
| E E E E E E Q    E E Q  H
|----------------|-------------||
|----------------|-------------||
|-3-3-3-3-3-3-3--|-5-5-5--6----||
|-3-3-3-3-3-3-3--|-5-5-5--7----||
|-1-1-1-1-1-1-1--|-3-3-3--4----||
|----------------|-------------||


 Pre-Chorus
  Gtrs I, II
    PM----|   PM|   PM|       PM----|   PM|   PM|
  E S S S S E S S E S S E   E S S S S E S S E S S E
|-------------------------|-------------------------|
|-------------------------|-------------------------|
|-------------------------|-------------------------|
|-------------------------|-3---------3-----5-------|
|-0---------0-----0-----3-|-1-1-1-1-1-1-3-3-3-----3-|
|-0-0-0-0-0-0-0-0-0-3-3-3-|-------------------3-3-3-|


    PM----|   PM|   PM|       PM----|   PM----------|
  E S S S S E S S E S S E   E S S S S E S S S S S S e
|-------------------------|-----------------------------||
|-------------------------|-----------------------------||
|-------------------------|-----------------------------||
|-------------------------|-3---------3-----------------||
|-0---------0-----0-----3-|-1-1-1-1-1-1-1-1-1-1-1-1-1---||
|-0-0-0-0-0-0-0-0-0-3-3-3-|-----------------------------||


   Chorus
    Gtrs I, II
    Q    Q  E E  E E   Q    Q   E E  E E
||-------------------|-------------------|
||o------------------|-------------------|
||-------------------|-5----5---5-5--5-5-|
||--3----3--3-3--3-3-|-5----5---5-5--5-5-|
||o-3----3--3-3--3-3-|-3----3---3-3--3-3-|
||--3----3--3-3--3-3-|-------------------|
|
|   Gtr III
|   E E  Q  Q    Q     E E  Q   Q    Q
||-------------------|-------------------|
||o------------------|-------------------|
||--5-5S10--9---10---|-5-5S10---9---10---|
||--x-x--x--x----x---|-x-x--x---x----x---|
||o-3-3S=8--7----8---|-3-3S=8---7----8---|
||-------------------|-------------------|
|
|   Gtr IV
|   E E  Q  Q    Q     E E  Q   Q    Q
||-------------------|-------------------|
||o------------------|-------------------|
||--9-9S10--9---10---|-9-9S14--12----7---|
||--x-x--x--x----x---|-x-x--x---x----x---|
||o-7-7S=8--7----8---|-7-7S12--10----5---|
||-------------------|-------------------|


    Q     Q    E  E E  E    Q  Q  E E E E
|------------------------|-----------------|
|------------------------|-----------------|
|---7-----7----7--7-7--7-|--3--3--3-3-3-3--|
|---7-----7----7--7-7--7-|--3--3--3-3-3-3--|
|---5-----5----5--5-5--5-|--1--1--1-1-1-1--|
|------------------------|-----------------|
|
|  +E   Q    Q    Q    E    W
|------------------------|-----------------|
|------------------------|-----------------|
|-(10)S14---12---10----9S|=10--------------|
|-------x----x----x----x-|--x--------------|
|--(8)S12---10----8----7S|==8--------------|
|------------------------|-----------------|
|
|  +E   Q    Q    Q    E    W
|------------------------|-----------------|
|------------------------|-----------------|
|--(7)S10----9----7---12S|==7--------------|
|-------x----x----x----x-|--x--------------|
|--(5)S=8----7----5---10S|==5--------------|
|------------------------|-----------------|


  Q    Q   E E  E E   Q    Q   E E  E E
|-------------------|-------------------|
|-------------------|-------------------|
|-------------------|-5----5---5-5--5-5-|
|-3----3---3-3--3-3-|-5----5---5-5--5-5-|
|-3----3---3-3--3-3-|-3----3---3-3--3-3-|
|-3----3---3-3--3-3-|-------------------|
|
| E E  Q   Q    Q     E E  Q   Q    Q
|-------------------|-------------------|
|-------------------|-------------------|
|-5-5S10---9---10---|-5-5S10---9---10---|
|-x-x--x---x----x---|-x-x--x---x----x---|
|-3-3S=8---7----8---|-3-3S=8---7----8---|
|-------------------|-------------------|
|
| E E  Q   Q    Q     E E  Q   Q    Q
|-------------------|-------------------|
|-------------------|-------------------|
|-9-9S14--12----7---|-9-9S14--12---14---|
|-x-x--x---x----x---|-x-x--x---x----x---|
|-7-7S12--10----5---|-7-7S12--10---12---|
|-------------------|-------------------|


    Q     Q    E  E  E  E     Q      Q     E E E E
|-------------------------|-------------------------||
|-------------------------|------------------------o||
|---7-----7----7--7--7--7-|---3------3-----3-3-3-3--||
|---7-----7----7--7--7--7-|---3------3-----3-3-3-3--||
|---5-----5----5--5--5--5-|---1------1-----1-1-1-1-o||
|-------------------------|-------------------------||
|
|  +E   Q    Q    Q     E    +E   E  E  E  H
|-------------------------|-------------------------||
|-------------------------|------------------------o||
|-(10)S14---12---10----14-|-(14)-10s12-10--7--------||
|-------x----x----x-----x-|-------x-----x--x--------||
|--(8)S12---10----8----12-|-(12)--8s10--8--5-------o||
|-------------------------|-------------------------||
|
|  +E   Q    Q    E  E  E    +E   Q     E  H
|-------------------------|-------------------------||
|-------------------------|------------------------o||
|-(14)S10----9---14-14S17-|-(17)-14----12-10--------||
|-------x----x----x--x--x-|-------x-----x--x--------||
|-(12)S=8----7---12-12S15-|-(15)-12----10--8-------o||
|-------------------------|-------------------------||


    E  E E E E E E E
|--------------------||
|--------------------||
|---3--3-3-3-3-3-3-3-||
|---3--3-3-3-3-3-3-3-||
|---1--1-1-1-1-1-1-1-||
|--------------------||
|
|   ~~~~
|  +W
|--------------------||
|--------------------||
|--(7)---------------||
|--------------------||
|--(5)---------------||
|--------------------||
|
|   ~~~~
|  +W
|--------------------||
|--------------------||
|-(10)---------------||
|--------------------||
|--(8)---------------||
|--------------------||


 Interlude
  Gtrs I, II
   PM--------------------------------------------------------------------
   S  S E     S S  E S S  E  S S  E    S  S E     S S  E S S E S S   E
|-----------------------------------|-----------------------------------|
|-----------------------------------|-----------------------------------|
|-----------------------------------|-----------------------------------|
|-----------------------------------|-----------------------------------|
|--0--0-0-----0-0--0-0-0--0--0-0--0-|--8--8-8-----8-8--8-8-8-8-8-8---8--|
|--0--0-0-----0-0--0-0-0--0--0-0--0-|--8--8-8-----8-8--8-8-8-8-8-8---8--|
|
| Gtr VI
|  E.      E.      Q      E  E    E    E.      E.      H            +E
|-----------------------------------|-----------------------------------|
|-----------------17----------------|-----------------15-----------(18)-|
|-12------14------17-----14-12---14-|-12------14------------------------|
|-14------15-------------15-14---15-|-14------15--------------------15--|
|-----------------------------------|-----------------------------------|
|-----------------------------------|-----------------------------------|
   E.      E.      Q      E  E    E    E.      E.      H             E


 ----------------------------------------------------------------|
  S  S E     S S  E S S E S S   E    S  S E     S S  E S S E S S   E
|----------------------------------|-------------------------------------|
|----------------------------------|-------------------------------------|
|----------------------------------|-------------------------------------|
|----------------------------------|-------------------------------------|
|-5--5-5-----5-5--5-5-5-5-5-5---5--|-8--8-8-----8-8--8-7-7-7-7-7---7-----|
|-5--5-5-----5-5--5-5-5-5-5-5---5--|-8--8-8-----8-8--8-7-7-7-7-7---7-----|
|
| E.      E.      H            +E    E.      E.      H            +E
|----------------12-----------(12)-|----------------13-----------(13)----|
|-8------10------13----------------|-8------10------15-------------------|
|-9------10--------------------12--|-9------10--------------------14-----|
|----------------------------------|-------------------------------------|
|----------------------------------|-------------------------------------|
|----------------------------------|-------------------------------------|
  E.      E.      H             E    E.      E.      H             E


   PM--------------------------------------------------------------------
   S  S E     S S  E S S  E  S S  E    S  S E     S S  E S S E S S   E
|-----------------------------------|-----------------------------------|
|-----------------------------------|-----------------------------------|
|-----------------------------------|-----------------------------------|
|-----------------------------------|-----------------------------------|
|--0--0-0-----0-0--0-0-0--0--0-0--0-|--8--8-8-----8-8--8-8-8-8-8-8---8--|
|--0--0-0-----0-0--0-0-0--0--0-0--0-|--8--8-8-----8-8--8-8-8-8-8-8---8--|
|
|  E.      E.      Q      E  E    E    E.      E.      H            +E
|-----------------------------------|-----------------------------------|
|-----------------17----------------|-----------------15-----------(18)-|
|-12------14------17-----14-12---14-|-12------14------------------------|
|-14------15-------------15-14---15-|-14------15--------------------15--|
|-----------------------------------|-----------------------------------|
|-----------------------------------|-----------------------------------|
   E.      E.      Q      E  E    E    E.      E.      H             E


 ----------------------------------------------------------------|
  S  S E     S S  E  S S E  S  S  E       S S E S S E  S S E S S E
|--------------------------------------|------------------------------||
|--------------------------------------|------------------------------||
|--------------------------------------|------------------------------||
|--------------------------------------|------------------------------||
|-5--5-5-----5-5--5--5-5-5--5--5--5----|--8-8-8-8-8-8--7-7-7-7-7-7----||
|-5--5-5-----5-5--5--5-5-5--5--5--5----|--8-8-8-8-8-8--7-7-7-7-7-7----||
|
| E.      E.      Q.        S  S  S  S    H            H
|----------------15--------------13-15-|-17-----------18--------------||
|-8------10------17--------14-17-15-17-|-18-----------20--------------||
|-9------10----------------14-17-------|------------------------------||
|--------------------------------------|------------------------------||
|--------------------------------------|------------------------------||
|--------------------------------------|------------------------------||
  E.      E.      Q.        S  S  S  S    H            H


 Bridge
  Gtr I
   Q  Q  Q  Q    Q  Q  Q  Q    Q  Q  Q  Q     Q  Q   Q  Q
|--------------|-------------|-------------|---------------|
|--------------|-------------|-------------|---------------|
|--------------|-3--3--3--3--|-------------|--3--3---2--2--|
|--0--0--0--0--|-3--3--3--3--|-5--5--5--5--|--3--3---2--2--|
|--0--0--0--0--|-1--1--1--1--|-5--5--5--5--|--1--1---4--4--|
|--0--0--0--0--|-------------|-5--5--5--5--|---------------|
|
| Gtr II
|  W             W             W              H      H
|--------------|-------------|-------------|---------------|
|--------------|-------------|-------------|---------------|
|--------------|-3-----------|-------------|--3------2-----|
|--0-----------|-3-----------|-5-----------|--3------2-----|
|--0-----------|-1-----------|-5-----------|--1------4-----|
|--0-----------|-------------|-5-----------|---------------|
|
| Gtr VI
|  >
|  W             W             W              Q  q   Q  q
|-17-----------|-------------|-------------|---------------|
|-18-----------|-------------|-------------|-10--8--10--8--|
|--------------|-------------|-------------|-10--9--10--9--|
|--------------|-------------|-------------|---------------|
|--------------|-------------|-------------|---------------|
|--------------|-------------|-------------|---------------|
   W                                          Q  q   Q  q


    Q  Q  Q  Q    Q  Q  Q  Q    Q  Q  Q  Q     Q  Q   Q  Q
||--------------|-------------|-------------|-----------------||
||o-------------|-------------|-------------|----------------o||
||--------------|-3--3--3--3--|-------------|--3--3---2--2----||
||--0--0--0--0--|-3--3--3--3--|-5--5--5--5--|--3--3---2--2----||
||o-0--0--0--0--|-1--1--1--1--|-5--5--5--5--|--1--1---4--4---o||
||--0--0--0--0--|-------------|-5--5--5--5--|-----------------||
|
|   W             W             W              H      H
||--------------|-------------|-------------|-----------------||
||o-------------|-------------|-------------|----------------o||
||--------------|-3-----------|-------------|--3------2-------||
||--0-----------|-3-----------|-5-----------|--3------2-------||
||o-0-----------|-1-----------|-5-----------|--1------4------o||
||--0-----------|-------------|-5-----------|-----------------||
|
|   W             W             W              Q  q   Q  q
||--------------|-------------|-------------|-----------------||
||o-------------|-------------|-------------|-10--8--10--8---o||
||--------------|-------------|-------------|-10--9--10--9----||
||--------------|-------------|-------------|-----------------||
||o-------------|-------------|-------------|----------------o||
||--------------|-------------|-------------|-----------------||
                                               Q  q   Q  q


  Q  Q  Q  Q    Q  Q  Q  Q    Q  Q  Q  Q      Q   Q    Q   Q
|-------------|-------------|-------------|-------------------||
|-------------|-------------|-------------|-------------------||
|-------------|-3--3--3--3--|-------------|---3---3----2---2--||
|-0--0--0--0--|-3--3--3--3--|-5--5--5--5--|---3---3----2---2--||
|-0--0--0--0--|-1--1--1--1--|-5--5--5--5--|---1---1----4---4--||
|-0--0--0--0--|-------------|-5--5--5--5--|-------------------||
|
| W             W             W               H        H
|-------------|-------------|-------------|-------------------||
|-------------|-------------|-------------|-------------------||
|-------------|-3-----------|-------------|---3--------2------||
|-0-----------|-3-----------|-5-----------|---3--------2------||
|-0-----------|-1-----------|-5-----------|---1--------4------||
|-0-----------|-------------|-5-----------|-------------------||
|
| W             W             W               Q   q    Q   q
|-------------|-------------|-------------|-------------------||
|-------------|-------------|-------------|-/17--15--/17--15--||
|-------------|-------------|-------------|-------------------||
|-------------|-------------|-------------|-/14--12--/14--12--||
|-------------|-------------|-------------|-------------------||
|-------------|-------------|-------------|-------------------||
                                              Q   q    Q   q


 Guitar Solo
  D5
  Gtrs I, II
   E.       E.          Q           E  Q
   |        |           |           |  |
   /        /           /           /  /

  Gtr V
                                    ~~~
               |--3--|
   S  S  S  S  S  S  S  S  S  S  S  Q.
|-----------------------------------------|
|----------------------------------15-----|
|-------------------------12----12--------|
|----------------12----15----15-----------|
|----------12h15----15--------------------|
|-10s12h15--------------------------------|


  Bb5
   E.       E.          Q           E  Q
   |        |           |           |  |
   /        /           /           /  /

                                    ~~~
               |--3--|
   S  S  S  S  S  S  S  S  S  S  S  Q.
|----------------------------------12-----|
|-----------------------------------------|
|-------------------------12----12--------|
|----------------12----15----15-----------|
|----------12h15----15--------------------|
|-10s12h15--------------------------------|


  G5
   E.       E.          Q           E  Q
   |        |           |           |  |
   /        /           /           /  /

                                    ~~~
               |--3--|
   S  S  S  S  S  S  S  S  S  S  S  Q.
|----------------------------------13-----|
|-----------------------------------------|
|-------------------------12----12--------|
|----------------12----15----15-----------|
|----------12h15----15--------------------|
|-10s12h15--------------------------------|


  Eb5
    E.            E.              Q                 E        Q
    |             |               |                 |        |
    /             /               /                 /        /

    |-----------------------------------3-----------------------------------|
    S  S  S  S  S     S  S  S  S  S  S  S  S  S  S  S  S  S  S  S  S  S  S  S
|------------------------------------------------------------------------------|
|-/17s15s17s15-----------------------------------------------------------------|
|--------------14----17s14-14----17s15s14s17p15s14----17s14--------------------|
|-----------------------------15-------------------15-------17s15----17s15s17--|
|-----------------------------------------------------------------17-----------|
|------------------------------------------------------------------------------|


  D5                               Bb5
  Gtrs I, II
    E.       E.      Q   E  Q       E.  E.   Q  E Q
    |        |       |   |  |       |   |    |  | |
    /        /       /   /  /       /   /    /  / /

  Gtr V
    S   S E     H.                  W
|------17sx----------------------|----------------------|
|------18sx----------------------|----------------------|
|--15----------------------------|----------------------|
|--------------------------------|----------------------|
|--------------------------------|----------------------|
|--------------------------------|----------------------|
|
| Gtr IV
|                    ~~~                     ~~~
|   E.       E.      Q   E  E  E    E.  E.   H       E
|--------------------------------|----------------------|
|------------------/17-----------|---------/18----------|
|-/12-------14\---------14-12-14-|-12--14\----------14--|
|--------------------------------|----------------------|
|--------------------------------|----------------------|
|--------------------------------|----------------------|
|
| Gtr III
|                    ~~~                     ~~~
|   E.       E.      Q   E  E  E    E.  E.   H       E
|--------------------------------|----------------------|
|--------------------------------|---------/15----------|
|------------------/17-----------|----------------------|
|--14-------15\---------15-14-15-|-14--15\----------15--|
|--------------------------------|----------------------|
|--------------------------------|----------------------|


  G5                     Eb5                         D5
   E.  E.   Q  E Q        E.   E.        Q         E Q
   |   |    |  | |        |    |         |         | |
   /   /    /  / /        /    /         /         / /

   W                      H..                            E
|----------------------|-------------------------------------|
|----------------------|-------------------------------/18---|
|----------------------|-------------------------------------|
|----------------------|-------------------------------------|
|----------------------|-------------------------------------|
|----------------------|-------------------------------------|
|
|           ~~~                                 ~~~~
|  E.  E.   H       E     Q        +E    E     +H
|----------------------|----------------17b18-(17)-----------|
|---------/20------18--|-20b22r===(20)-----------------------|
|-12--14\--------------|-------------------------------------|
|----------------------|-------------------------------------|
|----------------------|-------------------------------------|
|----------------------|-------------------------------------|
|
|           ~~~                                 ~~~~
|  E.  E.   H       E     Q        +E    E     +H
|----------------------|-------------------------------------|
|---------/17------15--|-17b18r===(17)-/18b20-(18)-----------|
|----------------------|-------------------------------------|
|-14--15\--------------|-------------------------------------|
|----------------------|-------------------------------------|
|----------------------|-------------------------------------|


  D5
  Gtrs I, II
   E.                E.                Q                       E           Q
   |                 |                 |                       |           |
   /                 /                 /                       /           /

  Gtr V
                                                                           ~~
   T  T  T  T  T  T  T  T  T  T  T  T  T  T  T  T  T  T  T  T  T  T  T  T  Q
|-18s17s15----15h17s18p17p15----15h17s18p17p15----------------------------17--|
|----------18----------------18----------------18p15----------------15h18-----|
|----------------------------------------------------14----------14-----------|
|-------------------------------------------------------15----15--------------|
|----------------------------------------------------------17-----------------|
|-----------------------------------------------------------------------------|


  Bb5
   E.                E.                Q                       E              Q
   |                 |                 |                       |              |
   /                 /                 /                       /              /

                                                                              ~~
   T  T  T  T  T  T  T  T  T  T  T  T  T  T  T  T  T  T  T  T  T  T  T  T  a  Q
|--------------------------------------------------------------------------------|
|-18s17s15----15h17s18p17p15----15h17s18p17p15----15----------------------15h18--|
|----------17----------------17----------------17----15----------------15--------|
|-------------------------------------------------------15----------15-----------|
|----------------------------------------------------------17----17--------------|
|-------------------------------------------------------------17-----------------|


  G5
   E.                E.                Q                       E           Q
   |                 |                 |                       |           |
   /                 /                 /                       /           /

                                                                           ~~
   T  T  T  T  T  T  T  T  T  T  T  T  T  T  T  T  T  T  T  T  T  T  T  T  Q
|-18s17s15----15h17s18p17p15----20p18s17-15h18-15----------------------15h18--|
|----------18----------------18-------------------15----------------15--------|
|----------------------------------------------------15----------15-----------|
|-------------------------------------------------------17----17--------------|
|----------------------------------------------------------17-----------------|
|-----------------------------------------------------------------------------|


  Bb5                                                         A5
   E.                E.                Q                       E           Q
   |                 |                 |                       |           |
   /                 /                 /                       /           /

   T  T  T  T  T  T  T  T  T  T  T  T  T  T  T  T  T  T  T  T  T  T  T  T  T  T  T  T  T 
T  T  T
|-18s17s15----15h17s18p17p15----15h17s18p17p15-17h18h20s22s20p17-------20h22-20p18----------------|
|----------18----------------18----------------------------------20p17-------------20----------20-|
|-------------------------------------------------------------------------------------19----19----|
|----------------------------------------------------------------------------------------20-------|
|-------------------------------------------------------------------------------------------------|
|-------------------------------------------------------------------------------------------------|


  D5
  Gtrs I, II
   E.                   E.                 Q                       E           Q
   |                    |                  |                       |           |
   /                    /                  /                       /           /

  Gtr V
   >
   W
|-20b22-------------------------------------------------------------------------------------------|
|-------------------------------------------------------------------------------------------------|
|-------------------------------------------------------------------------------------------------|
|-------------------------------------------------------------------------------------------------|
|-------------------------------------------------------------------------------------------------|
|-------------------------------------------------------------------------------------------------|
|
| Gtr IV
|  T     T  T  T  T  T  T   T  T  T  T  T  T  T  T  T  T  T  T  T  T  T  T  T  T  T  T  T T  T  T
|----------------------17-----------------------17----------------------17-------18-------17-----|
|-17----15-18-15-17-15-----15-17-15-18-15-17-15----15-17-15-18-15-17-15----15-17----15-17-17-15-18|
|-------------------------------------------------------------------------------------------------|
|-------------------------------------------------------------------------------------------------|
|-------------------------------------------------------------------------------------------------|
|-------------------------------------------------------------------------------------------------|


  Bb5
   E.                 E.                 Q                       E           Q
   |                  |                  |                       |           |
   /                  /                  /                       /           /

   W
|--------------------------------------------------------------------------------------------------|
|--------------------------------------------------------------------------------------------------|
|--------------------------------------------------------------------------------------------------|
|--------------------------------------------------------------------------------------------------|
|--------------------------------------------------------------------------------------------------|
|--------------------------------------------------------------------------------------------------|
|
|  T   T  T  T  T  T  T   T  T  T  T  T  T  T  T  T  T  T  T  T  T  T  T  T  T  T  T  T  T T  T  T
|--------------------17-----------------------17----------------------17-------18-------17---------|
|-17--15-18-15-17-15-----15-17-15-18-15-17-15----15-17-15-18-15-17-15----15-17----15-17----17-15-18|
|--------------------------------------------------------------------------------------------------|
|--------------------------------------------------------------------------------------------------|
|--------------------------------------------------------------------------------------------------|
|--------------------------------------------------------------------------------------------------|


  G5
   E.                 E.                 Q                       E           Q
   |                  |                  |                       |           |
   /                  /                  /                       /           /

  Gtr IV
   T   T  T  T  T  T  T   T  T  T  T  T  T  T  T  T  T  T  T  T  T  T  T  T  T  T  T  T  T T  T
|--------------------18-----------------------18----------------------18-------20-------18------|
|-18--17-20-17-18-17-----17-18-17-20-17-18-17----17-18-17-20-17-18-17----17-18----17-18-18-17-20|
|-----------------------------------------------------------------------------------------------|
|-----------------------------------------------------------------------------------------------|
|-----------------------------------------------------------------------------------------------|
|-----------------------------------------------------------------------------------------------|


  Bb5                                                          A5
   E.                E.                 Q                       E           Q
   |                 |                  |                       |           |
   /                 /                  /                       /           /

   T  T  T  T  T  T  T   T  T  T  T  T  T  T  T  T  T  T  T  T  T  T  T  T  T  T  T  T  T T  
|-18s17p15--------------------------15-----------------------------------------------------------|
|----------15-----------------15h18----18h15----------------15h18p15-------------15---------15h18|
|-------------15-----------15----------------14----------14----------15-------15----15----15------|
|----------------17-----17----------------------15p12h15----------------17p15----------17---------|
|-------------------17----------------------------------------------------------------------------|
|-------------------------------------------------------------------------------------------------|


 Post-Verse
  Gtr IV
   \2.5________/
   E.         +E.    H           +E     +H             +Q.      +E
|------------------------------------|-------------------------------|
|-18---------(18)---20b22=======(20)-|-(20)r==========(20)-----(20)\-|
|------------------------------------|-------------------------------|
|-18---------(18)--------------------|-------------------------------|
|------------------------------------|-------------------------------|
|------------------------------------|-------------------------------|
|
| Gtrs I, II
|                           PM--|                          PM--|
|  S     S S   S  E  Q      E E   E      S  S S S E Q      E E   E
|------------------------------------|-------------------------------|
|------------------------------------|-------------------------------|
|--7-----7-7---7--7------------------|---5--5-5-5-5------------------|
|--7-----7-7---7--7--0---------------|---5--5-5-5-5-3----------------|
|--5-----5-5---5--5--0------0-0---0--|---3--3-3-3-3-3------3-3---3---|
|--------------------0------0-0---0--|--------------3------3-3---3---|


  Gtrs I, II
               PM--|                PM--|
  S S S S E Q  E E E   S S S S E Q  E E E
|--------------------|--------------------|
|--------------------|--------------------|
|-7-7-7-7-7----------|-5-5-5-5-5----------|
|-7-7-7-7-7-0--------|-5-5-5-5-5-3--------|
|-5-5-5-5-5-0--0-0-0-|-3-3-3-3-3-3--3-3-3-|
|-----------0--0-0-0-|-----------3--3-3-3-|


              PM----------|             PM----------|
    S S S S E E E S S E S S   S S S S E E E S S E S S
||--------------------------|--------------------------||
||o-------------------------|-------------------------o||
||--7-7-7-7-7---------------|-5-5-5-5-5----------------||
||--7-7-7-7-7---------------|-5-5-5-5-5----------------||
||o-5-5-5-5-5-0-0-0-0-0-0-0-|-3-3-3-3-3-3-3-3-3-3-3-3-o||
||------------0-0-0-0-0-0-0-|-----------3-3-3-3-3-3-3--||


                >                            <
  Q  Q  Q  Q    W           +W               W
|-------------|-----------:---------------|------------------||
|-------------|-----------:---------------|------------------||
|-------------|-----------:---------------|------------------||
|-0--3--5--6--|-0---------:-(0)-----------|--3---------------||
|-0--3--5--6--|-0---------:-(0)-----------|--3---------------||
|-0--3--5--6--|-0---------:-(0)-----------|--3---------------||
|
| Gtr III
|                    ~~~~~~~~~~~                        ~~
| W             H    H      +H     E E Q    +E  E E E E Q.
|-------------|-----------:---------------|------------------||
|-------------|-----------:---------------|------------------||
|-------------|-5s===3----:-(3)----5s7s5--|-(5)-----3h5p3----||
|-------------|-----------:---------------|-----3h5----------||
|-------------|-----------:---------------|------------------||
|-------------|-----------:---------------|------------------||


   Chorus
    Gtrs I, II
    Q    Q  E E  E E   Q    Q   E E  E E
||-------------------|-------------------|
||o------------------|-------------------|
||-------------------|-5----5---5-5--5-5-|
||--3----3--3-3--3-3-|-5----5---5-5--5-5-|
||o-3----3--3-3--3-3-|-3----3---3-3--3-3-|
||--3----3--3-3--3-3-|-------------------|
|
|   Gtr III
|   E E  Q  Q    Q     E E  Q   Q    Q
||-------------------|-------------------|
||o------------------|-------------------|
||--5-5S10--9---10---|-5-5S10---9---10---|
||--x-x--x--x----x---|-x-x--x---x----x---|
||o-3-3S=8--7----8---|-3-3S=8---7----8---|
||-------------------|-------------------|
|
|   Gtr IV
|   E E  Q  Q    Q     E E  Q   Q    Q
||-------------------|-------------------|
||o------------------|-------------------|
||--9-9S10--9---10---|-9-9S14--12----7---|
||--x-x--x--x----x---|-x-x--x---x----x---|
||o-7-7S=8--7----8---|-7-7S12--10----5---|
||-------------------|-------------------|


    Q     Q    E  E E  E    Q  Q  E E E E
|------------------------|-----------------|
|------------------------|-----------------|
|---7-----7----7--7-7--7-|--3--3--3-3-3-3--|
|---7-----7----7--7-7--7-|--3--3--3-3-3-3--|
|---5-----5----5--5-5--5-|--1--1--1-1-1-1--|
|------------------------|-----------------|
|
|  +E   Q    Q    Q    E    W
|------------------------|-----------------|
|------------------------|-----------------|
|-(10)S14---12---10----9S|=10--------------|
|-------x----x----x----x-|--x--------------|
|--(8)S12---10----8----7S|==8--------------|
|------------------------|-----------------|
|
|  +E   Q    Q    Q    E    W
|------------------------|-----------------|
|------------------------|-----------------|
|--(7)S10----9----7---12S|==7--------------|
|-------x----x----x----x-|--x--------------|
|--(5)S=8----7----5---10S|==5--------------|
|------------------------|-----------------|


  Q    Q   E E  E E   Q    Q   E E  E E
|-------------------|-------------------|
|-------------------|-------------------|
|-------------------|-5----5---5-5--5-5-|
|-3----3---3-3--3-3-|-5----5---5-5--5-5-|
|-3----3---3-3--3-3-|-3----3---3-3--3-3-|
|-3----3---3-3--3-3-|-------------------|
|
| E E  Q   Q    Q     E E  Q   Q    Q
|-------------------|-------------------|
|-------------------|-------------------|
|-5-5S10---9---10---|-5-5S10---9---10---|
|-x-x--x---x----x---|-x-x--x---x----x---|
|-3-3S=8---7----8---|-3-3S=8---7----8---|
|-------------------|-------------------|
|
| E E  Q   Q    Q     E E  Q   Q    Q
|-------------------|-------------------|
|-------------------|-------------------|
|-9-9S14--12----7---|-9-9S14--12---14---|
|-x-x--x---x----x---|-x-x--x---x----x---|
|-7-7S12--10----5---|-7-7S12--10---12---|
|-------------------|-------------------|


    Q     Q    E  E  E  E     Q      Q     E E E E
|-------------------------|-------------------------||
|-------------------------|------------------------o||
|---7-----7----7--7--7--7-|---3------3-----3-3-3-3--||
|---7-----7----7--7--7--7-|---3------3-----3-3-3-3--||
|---5-----5----5--5--5--5-|---1------1-----1-1-1-1-o||
|-------------------------|-------------------------||
|
|  +E   Q    Q    Q     E    +E   E  E  E  H
|-------------------------|-------------------------||
|-------------------------|------------------------o||
|-(10)S14---12---10----14-|-(14)-10s12-10--7--------||
|-------x----x----x-----x-|-------x-----x--x--------||
|--(8)S12---10----8----12-|-(12)--8s10--8--5-------o||
|-------------------------|-------------------------||
|
|  +E   Q    Q    E  E  E    +E   Q     E  H
|-------------------------|-------------------------||
|-------------------------|------------------------o||
|-(14)S10----9---14-14S17-|-(17)-14----12-10--------||
|-------x----x----x--x--x-|-------x-----x--x--------||
|-(12)S=8----7---12-12S15-|-(15)-12----10--8-------o||
|-------------------------|-------------------------||


    E  E E E E E E E     W            +W            +W            +W
|--------------------|-------------:-------------:-------------:---------*|
|--------------------|-------------:-------------:-------------:---------*|
|---3--3-3-3-3-3-3-3-|-------------:-------------:-------------:---------*|
|---3--3-3-3-3-3-3-3-|---0---------:--(0)--------:--(0)--------:--(0)----*|
|---1--1-1-1-1-1-1-1-|---0---------:--(0)--------:--(0)--------:--(0)----*|
|--------------------|---0---------:--(0)--------:--(0)--------:--(0)----*|
|
|                                      ~~~~~~~~~~~~~~~~~~~~~~~~~~~~~~~
|  +W                   +W            +W            +W            +W
|--------------------|-------------:-------------:-------------:---------*|
|--------------------|-------------:-------------:-------------:---------*|
|--(7)---------------|--(7)--------:--(7)--------:--(7)--------:--(7)----*|
|--------------------|-------------:-------------:-------------:---------*|
|--(5)---------------|--(5)--------:--(5)--------:--(5)--------:--(5)----*|
|--------------------|-------------:-------------:-------------:---------*|
|
|                                      ~~~~~~~~~~~~~~~~~~~~~~~~~~~~~~~
|  +W                   +W            +W            +W            +W
|--------------------|-------------:-------------:-------------:---------*|
|--------------------|-------------:-------------:-------------:---------*|
|-(10)---------------|-(10)--------:-(10)--------:-(10)--------:-(10)----*|
|--------------------|-------------:-------------:-------------:---------*|
|--(8)---------------|--(8)--------:--(8)--------:--(8)--------:--(8)----*|
|--------------------|-------------:-------------:-------------:---------*|

Duration Legend
---------------
W - whole; H - half; Q - quarter; E - 8th; S - 16th; T - 32nd; X - 64th; a - acciaccatura
+ - note tied to previous; . - note dotted; .. - note double dotted
Uncapitalized letters represent notes that are staccato (1/2 duration)
Irregular groupings are notated above the duration line
Duration letters will always appear directly above the note/fret number it represents the
duration for.  Duration letters with no fret number below them represent rests.  Multi-
bar rests are notated in the form Wxn, where n is the number of bars to rest for.  Low
melody durations appear below the staff

Tablature Legend
----------------
 h   - hammer-on
 p   - pull-off
 b   - bend
 pb  - pre-bend
 r   - bend release (if no number after the r, then release immediately)
 /\  - slide into or out of (from/to "nowhere")
 s   - legato slide
 S   - shift slide
 - natural harmonic
[n]  - artificial harmonic
n(n) - tapped harmonic
 ~   - vibrato
 tr  - trill
 T   - tap
 TP  - trem. picking
 PM  - palm muting
\n/  - tremolo bar dip; n = amount to dip
 \n  - tremolo bar down
 n/  - tremolo bar up
/n\  - tremolo bar inverted dip
 =   - hold bend; also acts as connecting device for hammers/pulls
 <> - volume swell (louder/softer)
 x   - on rhythm slash represents muted slash
 o   - on rhythm slash represents single note slash

Misc Legend
-----------
 |  - bar
||  - double bar
||o - repeat start
o|| - repeat end
*|  - double bar (ending)
 :  - bar (freetime)
 $  - Segno
 &  - Coda
Tempo markers -  = BPM(8/16=s8/s16), where s8 = swing 8ths, s16 = swing 16ths
comments
print report bad tab
8 comments total. Showing first comments.
0 reply
Bucketheadroolz wrote on July 17 2008, 02:54 pm

everything is off

0 reply
maninzil wrote on July 17 2008, 03:30 pm

Ya it looks pretty good but somethings i don't agree with like your third and fourth guitar on the chorus. I dn you probably know more than me it just doesn't feel right. Also its long and strenched out, which honestly makes a difference to me. Good job for trying

0 reply
fagelamusgtr wrote on July 17 2008, 11:22 pm

The solo is perfect from what I could play of it. Which wasnt much.... haha. But the verse didn't seem quite right.

I want to post or [tab]
guest
You may want to rate the tab now too:
select rating
Please do not post tabs as comments. Select "correction" instead!