Oops, an error
Loading. Please wait.

Afterlife Tab

122,412 views 103 this week
27 commentsread comments
1 2 3 4 5
accurate
x 28
Autoscroll
+/-
esc
set tempo
stop
Contributor
Tuning
Tabbers playing skills
D A D G B E
intermediate
Hey! There's an official Ultimate Guitar app which is ideal
for learning songs when you're away from computer. Get the app
WARNING: You are trying to view
                                    content from Ultimate-Guitar.com
                                    in an unauthorized application,
                                    which is prohibited.

                                    Please use an official Ultimate
                                    Guitar Tabs application for iPhone,
                                    iPad or Android to access legitimate
                                    chords, guitar, bass, and drum tabs
                                    from Ultimate-Guitar.com database.

                                    Type "ultimate guitar tabs" in Apple
                                    App Store's or Android Market's
                                    search to find the application.
  Avenged Sevenfold: Afterlife                                          Tabbed by sabun~

Tempo :110  (closest estimation)

  [INTRO]

  Guitar 1
     Q E   Q   E E E    Q E  H   E  E.E. H   E     E  E  Q  E  Q.
e|-------------------|------------|--------------|---------------------|
b|--/5-6--/10--6-5-6-|--5-6-/13~-6|-5-6-/15~(15)-|-13-15b16r15-17b~----|
g|-------------------|------------|--------------|---------------------|
d|-------------------|------------|--------------|---------------------|
a|-------------------|------------|--------------|---------------------|
d|-------------------|------------|--------------|---------------------|

  Guitar 2
     Q E   Q    E E E    Q  E  H   E   E.E.  H   E     E  E  Q  E  Q.
e|---------------------|-------------|---------------|------------------|
b|--/8-10-/13~-10-8-10-|-8-10-/15~-10|-8-10-/17~(17)-|-17-19b20r19-21b~-|
g|---------------------|-------------|---------------|------------------|
d|---------------------|-------------|---------------|------------------|
a|---------------------|-------------|---------------|------------------|
d|---------------------|-------------|---------------|------------------|

  Rhythm Guitar

   E. S E  S E. E  S S S S   E. S E  S E. E  S S S S   E. S E  S E. E  S S S S
e|-------------------------|-------------------------|-------------------------|
b|-------------------------|-------------------------|-------------------------|
g|-------------------------|-------------------------|-------------------------|
d|-0--0-0--0-0--0--0-0-0-0-|-8--8-8--8-8--8--8-8-8-8-|-5--5-5--5-5--5--5-5-5-5-|
a|-0--0-0--0-0--0--0-0-0-0-|-8--8-8--8-8--8--8-8-8-8-|-5--5-5--5-5--5--5-5-5-5-|
d|-0--0-0--0-0--0--0-0-0-0-|-8--8-8--8-8--8--8-8-8-8-|-5--5-5--5-5--5--5-5-5-5-|


   E. S E  S E. E  S S S S
e|-------------------------|
b|-------------------------|
g|-------------------------|
d|-1--1-1--1-1--1--1-1-1-1-|
a|-1--1-1--1-1--1--1-1-1-1-|
d|-1--1-1--1-1--1--1-1-1-1-|

  Guitar 1

    S  S  S  S  E  S  S  S  S  E  S  S  S  S   S  S  S  S E   S  S  S  S  E  S  S  S  S
e|--15-17-15-------15-17-15-------15-17-15---|-15-17-15-------15-17-15-------15-17-15----|
b|-----------18-15----------18-15----------18|----------18-15----------18-15----------18-|
g|-------------------------------------------|-------------------------------------------|
d|-------------------------------------------|-------------------------------------------|
a|-------------------------------------------|-------------------------------------------|
d|-------------------------------------------|-------------------------------------------|

   Guitar 2

    S  S  S  S  E  S  S  S  S  E  S  S  S  S   S  S  S  S  E  S  S  S  S  E  S  S  S  S
e|-------------------------------------------|--------------------------------------------|
b|--17-18-17-------17-18-17-------17-18-17---|-17-18-17-------17-18-17-------17-18-17-----|
g|-----------19-------------19-------------19|----------19-------------19-------------19--|
d|--------------19-------------19------------|-------------20-------------20--------------|
a|-------------------------------------------|--------------------------------------------|
d|-------------------------------------------|--------------------------------------------|

   Rhythm Guitar

   E. S E  S E. E  S S S S   E. S E  S E. E  S S S S
e|-------------------------|-------------------------|
b|-------------------------|-------------------------|
g|-------------------------|-------------------------|
d|-0--0-0--0-0--0--0-0-0-0-|-8--8-8--8-8--8--8-8-8-8-|
a|-0--0-0--0-0--0--0-0-0-0-|-8--8-8--8-8--8--8-8-8-8-|
d|-0--0-0--0-0--0--0-0-0-0-|-8--8-8--8-8--8--8-8-8-8-|

   Guitar 1

    S  S  S  S  E  S  S  S  S  E  S  S  S  S   S  S  S  S  E  S  S  S  S  E   Q
e|--20-22-20-------20-22-20-------20-22-20---|-20-22-20-------20-22-20--------22b----|
b|-----------23-20----------23-20----------23|----------23-20----------23-20---------|
g|-------------------------------------------|---------------------------------------|
d|-------------------------------------------|---------------------------------------|
a|-------------------------------------------|---------------------------------------|
d|-------------------------------------------|---------------------------------------|


   Guitar 2

    S  S  S  S  E  S  S  S  S  E  S  S  S  S   S  S  S  S  E  S  S  S  S  E   Q
e|--17-18-17-------17-18-17-------17-18-17---|-17-18-17-------17-18-17--------18b----|
b|-----------20-17----------20-17----------20|----------20-17----------20-17---------|
g|-------------------------------------------|---------------------------------------|
d|-------------------------------------------|---------------------------------------|
a|-------------------------------------------|---------------------------------------|
d|-------------------------------------------|---------------------------------------|

  Rhythm Guitar

   E. S E  S E. E  S S S S   E. S E  S E. E  S S S S
e|-------------------------|--------------------------|
e|-------------------------|--------------------------|
b|-------------------------|--------------------------|
g|-------------------------|--------------------------|
d|-5--5-5--5-5--5--5-5-5-5-|-1--1-1--1-1--1--1-1-1-1--|
a|-5--5-5--5-5--5--5-5-5-5-|-1--1-1--1-1--1--1-1-1-1--|
d|-5--5-5--5-5--5--5-5-5-5-|-1--1-1--1-1--1--1-1-1-1--|


  Lead Guitar

    |-3--||-3--||-3--|           |-3--||-3--||-3--|
    S S S S S S S S S    E  E E  S S S S S S S S S   E  E E   H
e|------------------------------------------|----------------------|
b|------------------------------------------|----------------------|
g|------------------------------------------|---------------(rest)-|
d|------------------------------------------|----------------------|
a|--5h8p5---5h8p5--------0--0-0--5h8p5---5h8|p5--------------------|
d|--------6-------6p0----0--0-0--------6----|---6p0--0--0-0--------|
                         +  + +                      +  + +

 Bass

    S E  S E  S S
g|---------------------|
d|---------------------|
a|---------------------|
d|--0-3--0-5--0-6------|

  [VERSE]

  Lead Guitar and Rhythm Guitar

  |-3--||-3--||-3--|        |-3--| |-3--| |-3--|
   S S S S S S S S S E  E  E S S S  S S S  S S S E  E  E  E. E. E
e|---------------------------------------|-------------------------------|
b|---------------------------------------|-------------------------------|
g|---------------------------------------|-------------------------------|
d|---------------------------------------|----------------3--5--6--------|
a|-5h8p5---5h8p5--------------5h8p5---5h8|p5--------------3--5--6--------|
d|-------6-------6p0-0--0--0--------6----|---6p0-0--0--0--3--5--6--------|

  |-3--||-3--||-3--|        |-3--| |-3--| |-3--|
   S S S S S S S S S E  E  E S S S  S S S  S S S E  E  E  E. E. E
e|---------------------------------------|-------------------------------|
b|---------------------------------------|-------------------------------|
g|---------------------------------------|-------------------------------|
d|---------------------------------------|----------------3--5--6--------|
a|-5h8p5---5h8p5--------------5h8p5---5h8|p5--------------3--5--6--------|
d|-------6-------6p0-0--0--0--------6----|---6p0-0--0--0--3--5--6--------|

  |-3--||-3--||-3--|        |-3--| |-3--| |-3--|
   S S S S S S S S S E  E  E S S S  S S S  S S S E  E  E  E. E. E
e|---------------------------------------|-------------------------------|
b|---------------------------------------|-------------------------------|
g|---------------------------------------|-------------------------------|
d|---------------------------------------|----------------3--5--6--------|
a|-5h8p5---5h8p5--------------5h8p5---5h8|p5--------------3--5--6--------|
d|-------6-------6p0-0--0--0--------6----|---6p0-0--0--0--3--5--6--------|

  |-3--||-3--||-3--|        |-3--| |-3--| |-3--|
   S S S S S S S S S E  E  E S S S  S S S  S S S E  E  E  E. E. E
e|---------------------------------------|-------------------------------|
b|---------------------------------------|-------------------------------|
g|---------------------------------------|-------------------------------|
d|---------------------------------------|----------------3--5--6--------|
a|-5h8p5---5h8p5--------------5h8p5---5h8|p5--------------3--5--6--------|
d|-------6-------6p0-0--0--0--------6----|---6p0-0--0--0--3--5--6--------|

  |-3--||-3--||-3--|        |-3--| |-3--| |-3--|
   S S S S S S S S S E  E  E S S S  S S S  S S S E  E  E  E. E. E
e|---------------------------------------|-------------------------------|
b|---------------------------------------|-------------------------------|
g|---------------------------------------|-------------------------------|
d|---------------------------------------|----------------3--5--6--------|
a|-5h8p5---5h8p5--------------5h8p5---5h8|p5--------------3--5--6--------|
d|-------6-------6p0-0--0--0--------6----|---6p0-0--0--0--3--5--6--------|

    E. E. E.  Q  E.
e|-------------------|
b|-------------------|
g|-------------------|
d|--6--5--3----------|
a|--6--5--3----------|
d|--6--5--3----------|


  RhythmGuitar

     W     E  E  S S S S  E  S S  E  E       W     E  E  S S S S  E  S S  E  E
e|-------|-------------------------------|-------|------------------------------|
b|-------|-------------------------------|-------|------------------------------|
g|-------|-------------------------------|-------|------------------------------|
d|-------|-5--5--5-5-5-5--5--5-5--5--5---|-------|-5--5--5-5-5-5--5--5-5--5--5--|
a|-------|-3--3--3-3-3-3--3--3-3--3--3---|-------|-3--3--3-3-3-3--3--3-3--3--3--|
d|-------|-------------------------------|-------|------------------------------|


 Lead Guitar

     W         H          S E  S  E   E      W         H          S  E   S  E   E
e|-------|-------------------------------|-------|---------------------------------|
b|-------|-------------------------------|-------|---------------------------------|
g|-------|----------------9-9-/10-10-/12-|-------|----------------12-12-/14-14-/15-|
d|-------|-------------------------------|-------|---------------------------------|
a|-------|----------------7-7-/8--8--/10-|-------|----------------10-10-/12-12-/13-|
d|-------|-------------------------------|-------|---------------------------------|


Rhythm and Lead Guitar

    S S S S S S S S S S S S S S S S
e|-----------------------------------|
b|-----------------------------------|
g|-----------------------------------|
d|-----------------------------------|
a|-----------------------------------|
d|--0-0-8-0-7-0-0-0-8-0-7-0-8-0-7-0--|

   E  E  S S S S  E  S S  E  E     E  E  S S S S  E  S S  E  E
e|-------------------------------|------------------------------|
b|-------------------------------|------------------------------|
g|-------------------------------|------------------------------|
d|-5--5--5-5-5-5--5--5-5--5--5---|-3--3--3-3-3-3--3--3-3--3--3--|
a|-3--3--3-3-3-3--3--3-3--3--3---|-1--1--1-1-1-1--1--1-1--1--1--|
d|-------------------------------|------------------------------|

    Q  Q  Q  Q
e|--------------|
b|--------------|
g|--------------|
d|--5--5--6--6--|
a|--3--3--4--4--|
d|--------------|

Lead and Rhythm

    E S S S S  E  S S  E  S S E   E S S S S E  S S  E   S S E
e|------------------------------|---------------------------------|
g|------------------------------|---------------------------------|
b|------------------------------|---------------------------9-----|
d|--0----------0-------3------3-|-8---------8-------10------9-----|
a|--0----------0-------3------3-|-8---------8-------10--7-7-7-----|
d|--0--0-0-0-0-0--0-0--3--3-3-3-|-8-8-8-8-8-8-10-10-10------------|
       + + + +    + +     + +       + + + +   +  +      + +

  [CHORUS]

Lead and Rhythm Guitar

    E E E E E E E E   E E E E E E E E   E E E E E E E E   E E E E E E E E
e|------------------|-----------------|-----------------|------------------|
g|------------------|-----------------|-----------------|------------------|
b|------------------|-5-5-5-5-5-5-5-5-|-7-7-7-7-7-7-7-7-|-3-3-3-3-3-3-3-3--|
d|--3-3-3-3-3-3-3-3-|-5-5-5-5-5-5-5-5-|-7-7-7-7-7-7-7-7-|-3-3-3-3-3-3-3-3--| 
a|--3-3-3-3-3-3-3-3-|-3-3-3-3-3-3-3-3-|-5-5-5-5-5-5-5-5-|-1-1-1-1-1-1-1-1--|
d|--3-3-3-3-3-3-3-3-|-----------------|-----------------|------------------|
This is how Syn plays it

    E E E E E E E E   E E E E E E E E   E E E E E E E E   E E E E E E E E
e|------------------|-----------------|-----------------|------------------|
g|------------------|-----------------|-----------------|------------------|
b|------------------|-5-5-5-5-5-5-5-5-|-7-7-7-7-7-7-7-7-|-3-3-3-3-3-3-3-3--|
d|--3-3-3-3-3-3-3-3-|-5-5-5-5-5-5-5-5-|-7-7-7-7-7-7-7-7-|-3-3-3-3-3-3-3-3--|
a|--3-3-3-3-3-3-3-3-|-3-3-3-3-3-3-3-3-|-5-5-5-5-5-5-5-5-|-1-1-1-1-1-1-1-1--|
d|--3-3-3-3-3-3-3-3-|-----------------|-----------------|------------------|

   E E E E   H
e|-----------------|
b|-----------------|
g|-3-3-3-3---------|
d|-3-3-3-3--(rest)-|
a|-1-1-1-1---------|
d|-----------------|


  [VERSE]

  Lead Guitar and Rhythm Guitar

  |-3--||-3--||-3--|        |-3--| |-3--| |-3--|
   S S S S S S S S S E  E  E S S S  S S S  S S S E  E  E  E. E. E
e|---------------------------------------|-------------------------------|
b|---------------------------------------|-------------------------------|
g|---------------------------------------|-------------------------------|
d|---------------------------------------|----------------3--5--6--------|
a|-5h8p5---5h8p5--------------5h8p5---5h8|p5--------------3--5--6--------|
d|-------6-------6p0-0--0--0--------6----|---6p0-0--0--0--3--5--6--------|

  |-3--||-3--||-3--|        |-3--| |-3--| |-3--|
   S S S S S S S S S E  E  E S S S  S S S  S S S E  E  E  E. E. E
e|---------------------------------------|-------------------------------|
b|---------------------------------------|-------------------------------|
g|---------------------------------------|-------------------------------|
d|---------------------------------------|----------------3--5--6--------|
a|-5h8p5---5h8p5--------------5h8p5---5h8|p5--------------3--5--6--------|
d|-------6-------6p0-0--0--0--------6----|---6p0-0--0--0--3--5--6--------|

  |-3--||-3--||-3--|        |-3--| |-3--| |-3--|
   S S S S S S S S S E  E  E S S S  S S S  S S S E  E  E  E. E. E
e|---------------------------------------|-------------------------------|
b|---------------------------------------|-------------------------------|
g|---------------------------------------|-------------------------------|
d|---------------------------------------|----------------3--5--6--------|
a|-5h8p5---5h8p5--------------5h8p5---5h8|p5--------------3--5--6--------|
d|-------6-------6p0-0--0--0--------6----|---6p0-0--0--0--3--5--6--------|

  |-3--||-3--||-3--|        |-3--| |-3--| |-3--|
   S S S S S S S S S E  E  E S S S  S S S  S S S E  E  E  E. E. E
e|---------------------------------------|-------------------------------|
b|---------------------------------------|-------------------------------|
g|---------------------------------------|-------------------------------|
d|---------------------------------------|----------------3--5--6--------|
a|-5h8p5---5h8p5--------------5h8p5---5h8|p5--------------3--5--6--------|
d|-------6-------6p0-0--0--0--------6----|---6p0-0--0--0--3--5--6--------|

  |-3--||-3--||-3--|        |-3--| |-3--| |-3--|
   S S S S S S S S S E  E  E S S S  S S S  S S S E  E  E  E. E. E
e|---------------------------------------|-------------------------------|
b|---------------------------------------|-------------------------------|
g|---------------------------------------|-------------------------------|
d|---------------------------------------|----------------3--5--6--------|
a|-5h8p5---5h8p5--------------5h8p5---5h8|p5--------------3--5--6--------|
d|-------6-------6p0-0--0--0--------6----|---6p0-0--0--0--3--5--6--------|

    E. E. E.  Q  E.
e|-------------------|
b|-------------------|
g|-------------------|
d|--6--5--3----------|
a|--6--5--3----------|
d|--6--5--3----------|


  RhythmGuitar

     W     E  E  S S S S  E  S S  E  E       W     E  E  S S S S  E  S S  E  E
e|-------|-------------------------------|-------|------------------------------|
b|-------|-------------------------------|-------|------------------------------|
g|-------|-------------------------------|-------|------------------------------|
d|-------|-5--5--5-5-5-5--5--5-5--5--5---|-------|-5--5--5-5-5-5--5--5-5--5--5--|
a|-------|-3--3--3-3-3-3--3--3-3--3--3---|-------|-3--3--3-3-3-3--3--3-3--3--3--|
d|-------|-------------------------------|-------|------------------------------|


 Lead Guitar

     W         H          S E  S  E   E      W         H          S  E   S  E   E
e|-------|-------------------------------|-------|---------------------------------|
b|-------|-------------------------------|-------|---------------------------------|
g|-------|----------------9-9-/10-10-/12-|-------|----------------12-12-/14-14-/15-|
d|-------|-------------------------------|-------|---------------------------------|
a|-------|----------------7-7-/8--8--/10-|-------|----------------10-10-/12-12-/13-|
d|-------|-------------------------------|-------|---------------------------------|


Rhythm and Lead Guitar

    S S S S S S S S S S S S S S S S
e|-----------------------------------|
b|-----------------------------------|
g|-----------------------------------|
d|-----------------------------------|
a|-----------------------------------|
d|--0-0-8-0-7-0-0-0-8-0-7-0-8-0-7-0--|

   E  E  S S S S  E  S S  E  E         E  E  S S S S  E  S S  E  E
e|-------------------------------|------------------------------|
b|-------------------------------|------------------------------|
g|-------------------------------|------------------------------|
d|-5--5--5-5-5-5--5--5-5--5--5---|-3--3--3-3-3-3--3--3-3--3--3--|
a|-3--3--3-3-3-3--3--3-3--3--3---|-1--1--1-1-1-1--1--1-1--1--1--|
d|-------------------------------|------------------------------|

    Q  Q  Q  Q
e|--------------|
b|--------------|
g|--------------|
d|--5--5--6--6--|
a|--3--3--4--4--|
d|--------------|

Lead and Rhythm

    E S S S S  E  S S  E  S S E   E S S S S E  S S  E   S S E
e|------------------------------|---------------------------------|
g|------------------------------|---------------------------------|
b|------------------------------|---------------------------9-----|
d|--0----------0-------3------3-|-8---------8-------10------9-----|
a|--0----------0-------3------3-|-8---------8-------10--7-7-7-----|
d|--0--0-0-0-0-0--0-0--3--3-3-3-|-8-8-8-8-8-8-10-10-10------------|
       + + + +    + +     + +       + + + +   +  +      + +

  [CHORUS]

  Lead and Rhythm Guitar

    E E E E E E E E   E E E E E E E E   E E E E E E E E   E E E E E E E E
e|------------------|-----------------|-----------------|------------------|
g|------------------|-----------------|-----------------|------------------|
b|------------------|-5-5-5-5-5-5-5-5-|-7-7-7-7-7-7-7-7-|-3-3-3-3-3-3-3-3--|
d|--3-3-3-3-3-3-3-3-|-5-5-5-5-5-5-5-5-|-7-7-7-7-7-7-7-7-|-3-3-3-3-3-3-3-3--|
a|--3-3-3-3-3-3-3-3-|-3-3-3-3-3-3-3-3-|-5-5-5-5-5-5-5-5-|-1-1-1-1-1-1-1-1--|
d|--3-3-3-3-3-3-3-3-|-----------------|-----------------|------------------|

    E E E E E E E E   E E E E E E E E   E E E E E E E E   E E E E E E E E
e|------------------|-----------------|-----------------|------------------|
g|------------------|-----------------|-----------------|------------------|
b|------------------|-5-5-5-5-5-5-5-5-|-7-7-7-7-7-7-7-7-|-3-3-3-3-3-3-3-3--|
d|--3-3-3-3-3-3-3-3-|-5-5-5-5-5-5-5-5-|-7-7-7-7-7-7-7-7-|-3-3-3-3-3-3-3-3--|
a|--3-3-3-3-3-3-3-3-|-3-3-3-3-3-3-3-3-|-5-5-5-5-5-5-5-5-|-1-1-1-1-1-1-1-1--|
d|--3-3-3-3-3-3-3-3-|-----------------|-----------------|------------------|

    E E E E E E E E   E E E E E E E E   E E E E E E E E   E E E E E E E E
e|------------------|-----------------|-----------------|------------------|
g|------------------|-----------------|-----------------|------------------|
b|------------------|-5-5-5-5-5-5-5-5-|-7-7-7-7-7-7-7-7-|-3-3-3-3-3-3-3-3--|
d|--3-3-3-3-3-3-3-3-|-5-5-5-5-5-5-5-5-|-7-7-7-7-7-7-7-7-|-3-3-3-3-3-3-3-3--|
a|--3-3-3-3-3-3-3-3-|-3-3-3-3-3-3-3-3-|-5-5-5-5-5-5-5-5-|-1-1-1-1-1-1-1-1--|
d|--3-3-3-3-3-3-3-3-|-----------------|-----------------|------------------|

    E E E E E E E E   E E E E E E E E   E E E E E E E E   E E E E E E E E
e|------------------|-----------------|-----------------|------------------|
g|------------------|-----------------|-----------------|------------------|
b|------------------|-5-5-5-5-5-5-5-5-|-7-7-7-7-7-7-7-7-|-3-3-3-3-3-3-3-3--|
d|--3-3-3-3-3-3-3-3-|-5-5-5-5-5-5-5-5-|-7-7-7-7-7-7-7-7-|-3-3-3-3-3-3-3-3--|
a|--3-3-3-3-3-3-3-3-|-3-3-3-3-3-3-3-3-|-5-5-5-5-5-5-5-5-|-1-1-1-1-1-1-1-1--|
d|--3-3-3-3-3-3-3-3-|-----------------|-----------------|------------------|


   E E E E E E E E
e|-----------------|
b|-----------------|
g|-3-3-3-3-3-3-3-3-|
d|-3-3-3-3-3-3-3-3-|
a|-1-1-1-1-1-1-1-1-|
d|-----------------|

  [BRIDGE]

 Lead and Rhythm Guitar

    S S S s S S S s S S S s S S S s S S S s S S S s S S S s S S S s
e|--------------------------------|-------------------------------|
g|--------------------------------|-------------------------------|
b|--------------------------------|-------------------------------|
d|--------------------------------|-------------------------------|
a|--0-0-0---0-0-0---0-0-0---0-0-0-|-8-8-8---8-8-8---8-8-8---8-8-8-|
d|--0-0-0---0-0-0---0-0-0---0-0-0-|-8-8-8---8-8-8---8-8-8---8-8-8-|
    + + +   + + +   + + +   + + +   + + +   + + +   + + +   + + +

    S S S s S S S s S S S s S S S s S S S s S S S s S S S s S S S
e|--------------------------------|-------------------------------|
b|--------------------------------|-------------------------------|
g|--------------------------------|-------------------------------|
d|--------------------------------|-------------------------------|
a|--5-5-5---5-5-5---5-5-5---5-5-5-|-1-1-1---1-1-1---1-1-1---1-1-1-|
d|--5-5-5---5-5-5---5-5-5---5-5-5-|-1-1-1---1-1-1---1-1-1---1-1-1-|
    + + +   + + +   + + +   + + +   + + +   + + +   + + +   + + +

    S S S s S S S s S S S s S S S s S S S s S S S s S S S s S S S s
e|--------------------------------|-------------------------------|
g|--------------------------------|-------------------------------|
b|--------------------------------|-------------------------------|
d|--------------------------------|-------------------------------|
a|--0-0-0---0-0-0---0-0-0---0-0-0-|-8-8-8---8-8-8---8-8-8---8-8-8-|
d|--0-0-0---0-0-0---0-0-0---0-0-0-|-8-8-8---8-8-8---8-8-8---8-8-8-|
    + + +   + + +   + + +   + + +   + + +   + + +   + + +   + + +

    S S S s S S S s S S S s S S S s S S S s S S S s S S S s S S S
e|--------------------------------|-------------------------------|
b|--------------------------------|-------------------------------|
g|--------------------------------|-------------------------------|
d|--------------------------------|-------------------------------|
a|--5-5-5---5-5-5---5-5-5---5-5-5-|-8-8-8---8-8-8---7-7-7---7-7-7-|
d|--5-5-5---5-5-5---5-5-5---5-5-5-|-8-8-8---8-8-8---7-7-7---7-7-7-|
    + + +   + + +   + + +   + + +   + + +   + + +   + + +   + + +

    Q  E Q  E E E    Q  E Q  E E E    Q  E Q  E E E    Q  E E Q  E E
e|----------------|----------------|----------------|-----------------|
g|----------------|----------------|----------------|-----------------|
b|----------------|----------------|----------------|-----------------| (4x)
d|--0--0-0--0-0-0-|--8--8-8--8-8-8-|--5--5-5--5-5-5-|--8--8-8-7--7-7--|
a|--0--0-0--0-0-0-|--8--8-8--8-8-8-|--5--5-5--5-5-5-|--8--8-8-7--7-7--|
d|--0--0-0--0-0-0-|--8--8-8--8-8-8-|--5--5-5--5-5-5-|--8--8-8-7--7-7--|


  [SOLO]

  Lead Guitar

           |-3-|   |-3-|                     |-3-|  |-3-|
   S S S S S S S S S S S  Q    E.    S S S S S S S S S S S  Q    E.
e|---------------------------------|---------------------------------|
b|---------5h6p5---5-6-8-/15~-(15)-|---------5h6p5---5-6-8-/17~-(17)-|
g|-------5-------7-----------------|-------5-------7-----------------|
d|-----5---------------------------|-----5---------------------------|
a|-5-7-----------------------------|-5-7-----------------------------|
d|---------------------------------|---------------------------------|
   + +                               + +

  Rhythm Guitar

    Q      E     Q        E  E  E     Q      E     Q        E  E  E
e|---------------------------------|---------------------------------|
g|---------------------------------|---------------------------------|
b|---------------------------------|---------------------------------|
d|--0------0-----0--------0--0--0--|--8------8-----8--------8--8--8--|
a|--0------0-----0--------0--0--0--|--8------8-----8--------8--8--8--|
d|--0------0-----0--------0--0--0--|--8------8-----8--------8--8--8--|


           |-3-|   |-3-|
   S S S S S S S S S S S  Q    E.     
e|---------------------------------|
b|---------5h6p5---5-6-8-/20~-(20)-|
g|-------5-------7-----------------|
d|-----5---------------------------|
a|-5-7-----------------------------|
d|---------------------------------|
   + +

e|----------------------------8----------------------------------------------------|
B|--5-8/16--\6-7-8-6-5--8-5-6---5\3h5h6-3\2---/9\5-3-2--------2-4bfull/6~\2h3/13br-|
G|------------------------------------------5----------4-3-2-4---------------------|
D|---------------------------------------------------------------------------------|
A|---------------------------------------------------------------------------------|
D|---------------------------------------------------------------------------------|

    Q      E     Q        E  E  E     Q      E  E  Q       E  E
e|---------------------------------|---------------------------------|
g|---------------------------------|---------------------------------|
b|---------------------------------|---------------------------------|
d|--5------5-----5--------5--5--5--|--8------8--8--7-------7--7------|
a|--5------5-----5--------5--5--5--|--8------8--8--7-------7--7------|
d|--5------5-----5--------5--5--5--|--8------8--8--7-------7--7------|

  Guitar 2

     Q E   Q   E E E    Q E  H   E  E.E. H   E     E  E  Q  E  Q.
e|-------------------|------------|--------------|---------------------|
b|--/5-6--/10--6-5-6-|--5-6-/13~-6|-5-6-/15~(15)-|-13-15b16r15-17b~----|
g|-------------------|------------|--------------|---------------------|
d|-------------------|------------|--------------|---------------------|
a|-------------------|------------|--------------|---------------------|
d|-------------------|------------|--------------|---------------------|

  Lead Guitar
     Q E   Q    E E E    Q  E  H   E   E.E.  H   E     E  E  Q  E  Q.
e|---------------------|-------------|---------------|------------------|
b|--/8-10-/13~-10-8-10-|-8-10-/15~-10|-8-10-/17~(17)-|-17-19b20r19-21b~-|
g|---------------------|-------------|---------------|------------------|
d|---------------------|-------------|---------------|------------------|
a|---------------------|-------------|---------------|------------------|
d|---------------------|-------------|---------------|------------------|

  Rhythm Guitar

    Q  E Q  E E E    Q  E Q  E E E    Q  E Q  E E E    Q  E E Q  E E
e|----------------|----------------|----------------|-----------------|
g|----------------|----------------|----------------|-----------------|
b|----------------|----------------|----------------|-----------------|
d|--0--0-0--0-0-0-|--8--8-8--8-8-8-|--5--5-5--5-5-5-|--8--8-8-7--7-7--|
a|--0--0-0--0-0-0-|--8--8-8--8-8-8-|--5--5-5--5-5-5-|--8--8-8-7--7-7--|
d|--0--0-0--0-0-0-|--8--8-8--8-8-8-|--5--5-5--5-5-5-|--8--8-8-7--7-7--|

 Lead  Guitar

    |--3--|  |--3---| |--3--------------------------------|
e|--18-17-15-18-17-15-18-17-15-17-----------------17~/----|
b|------------------------------------------15-17---------|
g|----------------------------------------15--------------|
d|--------------------------------------15----------------|
a|--------------------------------15-17-------------------|
d|--------------------------------------------------------|

e|-10-13-12-10-12-13-12-10-12-10---------------|
b|---------------------------------------------|
g|---------------------------------------------|
d|---------------------------------------------|
a|---------------------------------------------|
d|---------------------------------------------|


[After Solo]

   Lead and Rhythm Guitar

    S S S S  E Q  E E E   S S S S  E  Q  E E E
e|-----------------------|------------------------|
b|-----------------------|------------------------|
g|-----------7-----------|----------5-------------|
d|--7-7-7-7--7--0--------|-5-5-5-5--5--2----------|
a|--5-5-5-5--5--0--0-0-0-|-3-3-3-3--3--2--2-2-2---|
d|--------------0--0-0-0-|-------------2--2-2-2---|
    + + + +        + + +   + + + +        + + +

    S S S S  E Q  E E E   S S S S  E  Q  E E E
e|-----------------------|------------------------|
b|-----------------------|------------------------|
g|-----------7-----------|----------5-------------|
d|--7-7-7-7--7--0--------|-5-5-5-5--5--2----------|
a|--5-5-5-5--5--0--0-0-0-|-3-3-3-3--3--2--2-2-2---|
d|--------------0--0-0-0-|-------------2--2-2-2---|
    + + + +        + + +   + + + +        + + +

    S S S S  E S S S S E  S S E   S S S S  E S S S S E  S S E
e|------------------------------|-----------------------------|
b|------------------------------|-----------------------------|
g|-----------7------------------|-----------------------------|
d|--7-7-7-7--7------------------|-5-5-5-5--5------------------|
a|--5-5-5-5--5-0-0-0-0-0--0-0-0-|-3-3-3-3--3-2-2-2-2-2--2-2-2-|
d|-------------0-0-0-0-0--0-0-0-|------------2-2-2-2-2--2-2-2-|
    + + + +    + + + + +  + + +              + + + + +  + + +

    S S S S  E S S S S E  S S E   S S S S  E S S S S E  S S E
e|------------------------------|-----------------------------|
b|------------------------------|-----------------------------|
g|-----------7------------------|-----------------------------|
d|--7-7-7-7--7------------------|-5-5-5-5--5------------------|
a|--5-5-5-5--5-0-0-0-0-0--0-0-0-|-3-3-3-3--3-2-2-2-2-2--2-2-2-|
d|-------------0-0-0-0-0--0-0-0-|------------2-2-2-2-2--2-2-2-|
    + + + +    + + + + +  + + +              + + + + +  + + +

   Rhythm Guitar

    Q   Q   Q   Q     W
e|------------------|--------------------------|
b|------------------|--------------------------|
g|------------------|--------------------------|
d|--0---2---3---5---|-2------------------------|
a|--0---2---3---5---|-2------------------------|
d|--0---2---3---5---|-2------------------------|

   Lead Guitar

e|---------------------------------------------|
b|---------------------------------------------|
g|---------------------------------------------|
d|---------------------------------------------|
a|--7h8p7(4x)--5-8-7--3-5-7-/10-7~-------------|
d|---------------------------------------------|

  [CHORUS]

  Lead and Rhythm Guitar

    E E E E E E E E   E E E E E E E E   E E E E E E E E   E E E E E E E E
e|------------------|-----------------|-----------------|------------------|
g|------------------|-----------------|-----------------|------------------|
b|------------------|-5-5-5-5-5-5-5-5-|-7-7-7-7-7-7-7-7-|-3-3-3-3-3-3-3-3--| (3x)
d|--3-3-3-3-3-3-3-3-|-5-5-5-5-5-5-5-5-|-7-7-7-7-7-7-7-7-|-3-3-3-3-3-3-3-3--|
a|--3-3-3-3-3-3-3-3-|-3-3-3-3-3-3-3-3-|-5-5-5-5-5-5-5-5-|-1-1-1-1-1-1-1-1--|
d|--3-3-3-3-3-3-3-3-|-----------------|-----------------|------------------|

    E E E E E E E E   E E E E E E E E   E E E E E E E E   E E E E E E E E
e|------------------|-----------------|-----------------|------------------|
g|------------------|-----------------|-----------------|------------------|
b|------------------|-5-5-5-5-5-5-5-5-|-7-7-7-7-7-7-7-7-|-3-3-3-3-3-3-3-3--|
d|--3-3-3-3-3-3-3-3-|-5-5-5-5-5-5-5-5-|-7-7-7-7-7-7-7-7-|-3-3-3-3-3-3-3-3--|
a|--3-3-3-3-3-3-3-3-|-3-3-3-3-3-3-3-3-|-5-5-5-5-5-5-5-5-|-1-1-1-1-1-1-1-1--|
d|--3-3-3-3-3-3-3-3-|-----------------|-----------------|------------------|


   E E E E E E E E    E E E E E E E E    E E E E E E E E    E E E E E E E E
e|------------------|------------------|------------------|-----------------|
b|------------------|------------------|------------------|-----------------|
g|-3-3-3-3-3-3-3-3--|-3-3-3-3-3-3-3-3--|-3-3-3-3-3-3-3-3--|-3-3-3-3-3-3-3-3-|
d|-3-3-3-3-3-3-3-3--|-3-3-3-3-3-3-3-3--|-3-3-3-3-3-3-3-3--|-3-3-3-3-3-3-3-3-|
a|-1-1-1-1-1-1-1-1--|-1-1-1-1-1-1-1-1--|-1-1-1-1-1-1-1-1--|-1-1-1-1-1-1-1-1-|
d|------------------|------------------|------------------|-----------------|

 Lead Guitar


e|--------------|
b|--3/7~--------|
g|--------------|
d|--------------|
a|--------------|
d|--------------|

 Rhythm Guitar

    W
e|--------------|
b|--------------|
g|--------------|
d|--0-~---------|
a|--0-~---------|
d|--0-~---------|

      ==The SOLO is unfinished still cos its a hella of a thing to tab for a noob like me==

 The solo might be way off in some parts so thats why i need you, YES YOU, to help me tab it.
    Feel free to "comment" the part that u think is wrong and with its correction or e-mail me it
 at linkinpark_neon@yahoo.com  ~THNX~


Duration Legend
---------------
W - whole; H - half; Q - quarter; E - 8th; S - 16th; T - 32nd; X - 64th; a - acciaccatura
+ - note tied to previous; . - note dotted; .. - note double dotted
Irregular groupings are notated above the duration line
Duration letters will always appear directly above the note/fret number it represents the
duration for.  Duration letters with no fret number below them represent rests.  Multi-
bar rests are notated in the form Wxn, where n is the number of bars to rest for.  Low
melody durations appear below the staff

Tablature Legend
----------------
 h   - hammer-on
 p   - pull-off
 b   - bend
 pb  - pre-bend
 r   - bend release (if no number after the r, then release immediately)
 /\  - slide into or out of (from/to "nowhere")
 s   - legato slide
 S   - shift slide
  - natural harmonic
[n]  - artificial harmonic
n(n) - tapped harmonic
 ~   - vibrato
 tr  - trill
 T   - tap
 TP  - trem. picking
 PM  - palm muting
 <>  - volume swell (louder/softer)
 x   - on rhythm slash represents muted slash
 o   - on rhythm slash represents single note slash

Misc Legend
-----------
 |  - bar
||  - double bar
||o - repeat start
o|| - repeat end
*|  - double bar (ending)
 :  - bar (freetime)
 $  - Segno
 &  - Coda
Tempo markers -  = BPM(8/16=s8/s16), where s8 = swing 8ths, s16 = swing 16ths
comments
print report bad tab
27 comments total. Showing first comments.
0 reply
riggdaddy2k5 wrote on November 5 2007, 12:28 pm

good so far. just get the solo out there. its one hell of a solo. good luck.

+1 reply
starcaster13 wrote on November 5 2007, 03:12 pm

I really don't blame you for not tabbing the solo, it's insane.

0 reply
solopractice wrote on November 5 2007, 03:17 pm

Lol I'll do my best :)

I want to post or [tab]
guest
You may want to rate the tab now too:
select rating
Please do not post tabs as comments. Select "correction" instead!