Oops, an error
Loading. Please wait.

Almost Easy Tab

9,810 views 3 this week
2 commentsread comments
1 2 3 4 5
accurate
x 2
Autoscroll
+/-
esc
set tempo
stop
Contributor
Difficulty
Tuning
intermediate
C# G# C# F# A# D#
Hey! There's an official Ultimate Guitar app which is ideal
for learning songs when you're away from computer. Get the app
WARNING: You are trying to view
                                    content from Ultimate-Guitar.com
                                    in an unauthorized application,
                                    which is prohibited.

                                    Please use an official Ultimate
                                    Guitar Tabs application for iPhone,
                                    iPad or Android to access legitimate
                                    chords, guitar, bass, and drum tabs
                                    from Ultimate-Guitar.com database.

                                    Type "ultimate guitar tabs" in Apple
                                    App Store's or Android Market's
                                    search to find the application.
-------------------------------------------------------------------------------
                             Almost Easy - Avenged Sevenfold
-------------------------------------------------------------------------------
Tabbed by: Dom Nole             
Email: neversleeps84@verizon.net

Tuning: Drop C#

Notes:  I tried to space the notes out as best as possible {except the Bridge
(Part1)}, but you're better off listening to
        the song while looking at the tab.  Hope everyone enjoys this tab.


  Intro: Guitar 1
e|--/13--12--------------------/13--12----------16b17r-----------------------|
B|-----------13------13b15r13-----------13-----------------------------------|
G|---------------14-------------------------14-------------------------------|
D|---------------------------------------------------------------------------|
A|---------------------------------------------------------------------------|
E|---------------------------------------------------------------------------|

e|--/13--12---------------/13--12--12/18--17--17\----------------------------|
B|-----------13------13b-----------------------------------------------------|
G|---------------14----------------------------------------------------------|
D|---------------------------------------------------------------------------|
A|---------------------------------------------------------------------------|
E|---------------------------------------------------------------------------|


  Intro: Guitar 2
e|---------------------------------------------------------------------------|
B|---------------------------------------------------------------------------|
G|--7777--7-7-77---5555--5-5-55-------------------3333---5555----------------|
D|--7777--7-7-77---5555--5-5-55---5555--5-5--55---3333---5555----------------|
A|--5555--5-5-55---3333--3-3-33---5555--5-5--55---1111---3333----------------|
E|--------------------------------5555--5-5--55------------------------------|

e|---------------------------------------------------------------------------|
B|---------------------------------------------------------------------------|
G|--7777--7-7-77---5555--5-5-55-------------------3333---5555----------------|
D|--7777--7-7-77---5555--5-5-55---5555--5-5--55---3333---5555----------------|
A|--5555--5-5-55---3333--3-3-33---5555--5-5--55---1111---3333----------------|
E|--------------------------------5555--5-5--55------------------------------|


  Pre-verse: Gt.1 & Gt.2
e|---------------------------------------------------------------------------|
B|---------------------------------------------------------------------------|
G|--7---------7--6-----6--3-----6--7-----------------------------------------|
D|--7---------7--6-----6--3-----6--7-----------------------------------------|
A|--5--00000--5--4--0--4--1--0--4--5--000000---0000---------0000-------------|
E|-----00000--------0--------0--------000000---0000--7b8r7--0000--8b9r8------|
       xxxxx        x        x        xxxxxx   xxxx         xxxx

e|---------------------------------------------------------------------------|
B|---------------------------------------------------------------------------|
G|--7---------7--6-----6--3-----6--7-----------------------------------------|
D|--7---------7--6-----6--3-----6--7-----------------------------------------|
A|--5--00000--5--4--0--4--1--0--4--5--000000---00000000----------------------|
E|-----00000--------0--------0--------000000---00000000--5-6-5b--------------|
       xxxxx        x        x        xxxxxx   xxxxxxxx


  Verse 1: Gt.1 & Gt.2       
e|---------------------------------------------------------------------------|
B|---------------------------------------------------------------------------|
G|---------------------------------------------------------------------------|
D|--0----------0----------0--------------------------------------------------|
A|--0--000000--0--000000--0--000000----00000000------------------------------|
E|--0--000000--0--000000--0--000000----00000000--5-6-5b----------------------|
       xxxxxx     xxxxxx     xxxxxx    xxxxxxxx

e|---------------------------------------------------------------------------|
B|---------------------------------------------------------------------------|
G|---------------------------------------------------------------------------|
D|--0----------0----------0--------------------------------------------------|
A|--0--000000--0--000000--0--000000----00000000------------------------------|
E|--0--000000--0--000000--0--000000----00000000--5-6-5b----------------------|
       xxxxxx     xxxxxx     xxxxxx    xxxxxxxx

e|---------------------------------------------------------------------------|
B|---------------------------------------------------------------------------|
G|---------------------------------------------------------------------------|
D|--0-----------------0-----------------0------------------------------------|
A|--0--000--000--000--0--000--000--000--0--000--000--000---00000000----------|
E|--0--000--000--000--0--000--000--000--0--000--000--000---00000000--5-6-5~--|
       xxx  xxx  xxx     xxx  xxx  xxx     xxx  xxx  xxx   xxxxxxxx

e|---------------------------------------------------------------------------|
B|---------------------------------------------------------------------------|
G|---------------------------------------------------------------------------|
D|--0----------0----------0--------------------------------------------------|
A|--0--000000--0--000000--0--000000----00000000------------------------------|
E|--0--000000--0--000000--0--000000----00000000--5-6-5b----------------------|
       xxxxxx     xxxxxx     xxxxxx    xxxxxxxx


  Pre-Chorus: Gt.1
e|---------------------------------------------------------------------------|
B|---------------------------------------------------------------------------|
G|---------------------------------------------------------------------------|
D|--0-----7-----2-2-----5-------3-------0-0--0-0-------3-3--2-2--------------|
A|--0--0--5--0--3-3--3-----0-0--1--0-0--3/5--5-5--0-0--3-3--4-4--------------|
E|--0--0-----0-------------0-0-----0-0------------0-0------------------------|
       x     x             x x     x x            x x 

e|---------------------------------------------------------------------------|
B|---------------------------------------------------------------------------|
G|---------------------------------------------------------------------------|
D|--0-----7-----2-2-----5-------3-------0-0--0-0-------3--3--2---------------|
A|--0--0--5--0--3-3--3-----0-0--1--0-0--3/5--5-5--0-0--3--3--4---------------|
E|--0--0-----0-------------0-0-----0-0------------0-0--3--3------------------|
       x     x             x x     x x            x x 

  
 
  Pre-Chorus: Gt.2
e|---------------------------------------------------------------------------|
B|---------------------------------------------------------------------------|
G|---------------------------------------------------------------------------|
D|--0-----7-----2-------3-------3333-------3-3--2-2--------------------------|
A|--0--0--5--0--3--0-0--1--0-0--1111--0-0--3-3--4-4--------------------------|
E|--0--0-----0-----0-0-----0-0--------0-0------------------------------------|
       x     x     x x     x x        x x

e|---------------------------------------------------------------------------|
B|---------------------------------------------------------------------------|
G|---------------------------------------------------------------------------|
D|--0-----7-----2-------3-------3333-------3--3--2---------------------------|
A|--0--0--5--0--3--0-0--1--0-0--1111--0-0--3--3--4---------------------------|
E|--0--0-----0-----0-0-----0-0--------0-0--3--3------------------------------|
       x     x     x x     x x        x x




  Chorus 1: Gt.1 & Gt.2
e|---------------------------------------------------------------------------|
B|---------------------------------------------------------------------------|
G|---------------------------------------------------------------------------|
D|--3--3--3-333--3-3--3--3-333--3--0-0--0-000--0-0--0-0----------------------|
A|--3--3--3-333--3-3--3--3-333--3--0-0--0-000--0-0--0-0-00000000-------------|
E|--3--3--3-333--3-3--3--3-333--3--0-0--0-000--0-0--0-0-00000000--5-6-5~-----|
                                                        xxxxxxxx 


  Verse 2: Gt.1 & Gt.2       
e|---------------------------------------------------------------------------|
B|---------------------------------------------------------------------------|
G|---------------------------------------------------------------------------|
D|--0----------0----------0--------------------------------------------------|
A|--0--000000--0--000000--0--000000----00000000------------------------------|
E|--0--000000--0--000000--0--000000----00000000--5-6-5~----------------------|
       xxxxxx     xxxxxx     xxxxxx    xxxxxxxx

e|---------------------------------------------------------------------------|
B|---------------------------------------------------------------------------|
G|---------------------------------------------------------------------------|
D|--0----------0----------0--------------------------------------------------|
A|--0--000000--0--000000--0--000000----00000000------------------------------|
E|--0--000000--0--000000--0--000000----00000000--5-6-5~----------------------|
       xxxxxx     xxxxxx     xxxxxx    xxxxxxxx

e|---------------------------------------------------------------------------|
B|---------------------------------------------------------------------------|
G|---------------------------------------------------------------------------|
D|--0-----------------0-----------------0------------------------------------|
A|--0--000--000--000--0--000--000--000--0--000--000--000---00000000----------|
E|--0--000--000--000--0--000--000--000--0--000--000--000---00000000--5-6-5~--|
       xxx  xxx  xxx     xxx  xxx  xxx     xxx  xxx  xxx   xxxxxxxx

e|---------------------------------------------------------------------------|
B|---------------------------------------------------------------------------|
G|---------------------------------------------------------------------------|
D|--0----------0----------0--------------------------------------------------|
A|--0--000000--0--000000--0--000000----0000000-------------------------------|
E|--0--000000--0--000000--0--000000----00000000--5-6-5~----------------------|
       xxxxxx     xxxxxx     xxxxxx    xxxxxxxx


  Pre-Chorus: Gt.1
e|---------------------------------------------------------------------------|
B|---------------------------------------------------------------------------|
G|---------------------------------------------------------------------------|
D|--0-----7-----2-2-----5-------3-------0-0--0-0-------3-3--2-2--------------|
A|--0--0--5--0--3-3--3-----0-0--1--0-0--3/5--5-5--0-0--3-3--4-4--------------|
E|--0--0-----0-------------0-0-----0-0------------0-0------------------------|
       x     x             x x     x x            x x 

e|---------------------------------------------------------------------------|
B|---------------------------------------------------------------------------|
G|---------------------------------------------------------------------------|
D|--0-----7-----2-2-----5-------3-------0-0--0-0-------3--3--2---------------|
A|--0--0--5--0--3-3--3-----0-0--1--0-0--3/5--5-5--0-0--3--3--4---------------|
E|--0--0-----0-------------0-0-----0-0------------0-0--3--3------------------|
       x     x             x x     x x            x x 


  Pre-Chorus: Gt.2
e|---------------------------------------------------------------------------|
B|---------------------------------------------------------------------------|
G|---------------------------------------------------------------------------|
D|--0-----7-----2-------3-------3333-------3-3--2-2--------------------------|
A|--0--0--5--0--3--0-0--1--0-0--1111--0-0--3-3--4-4--------------------------|
E|--0--0-----0-----0-0-----0-0--------0-0------------------------------------|
       x     x     x x     x x        x x

e|---------------------------------------------------------------------------|
B|---------------------------------------------------------------------------|
G|---------------------------------------------------------------------------|
D|--0-----7-----2-------3-------3333-------3--3--2---------------------------|
A|--0--0--5--0--3--0-0--1--0-0--1111--0-0--3--3--4---------------------------|
E|--0--0-----0-----0-0-----0-0--------0-0--3--3------------------------------|
       x     x     x x     x x        x x


  Chorus 2: Gt.1 & Gt.2
e|---------------------------------------------------------------------------|
B|---------------------------------------------------------------------------|
G|---------------------------------------------------------------------------|
D|--3--3--3-333--3-3--3--3-333--3--0-0--0-000--0-0--0-0-0--------------------|
A|--3--3--3-333--3-3--3--3-333--3--0-0--0-000--0-0--0-0-0--------------------|
E|--3--3--3-333--3-3--3--3-333--3--0-0--0-000--0-0--0-0-0--------------------|

e|---------------------------------------------------------------------------|
B|---------------------------------------------------------------------------|
G|---------------------------------------------------------------------------|
D|--3--3--3-333--3-3--3--3-333--3--0-0--0-000--0-0--0-0----------------------|
A|--3--3--3-333--3-3--3--3-333--3--0-0--0-000--0-0--0-0-00000000-------------|
E|--3--3--3-333--3-3--3--3-333--3--0-0--0-000--0-0--0-0-00000000--5-6-5~-----|
                                                        xxxxxxxx 


  Pre-verse: Gt.1 & Gt.2
e|---------------------------------------------------------------------------|
B|---------------------------------------------------------------------------|
G|--7\---------7--6-----6--3-----6--7----------------------------------------|
D|--7\---------7--6-----6--3-----6--7----------------------------------------|
A|--5\--00000--5--4--0--4--1--0--4--5--000000---0000---------0000------------|
E|------00000--------0--------0--------000000---0000--7b8r7--0000--8b9r8-----|
        xxxxx        x        x        xxxxxx   xxxx         xxxx

e|---------------------------------------------------------------------------|
B|---------------------------------------------------------------------------|
G|--7\---------7--6-----6--3-----6--7----------------------------------------|
D|--7\---------7--6-----6--3-----6--7----------------------------------------|
A|--5\--00000--5--4--0--4--1--0--4--5--000000---00000000---------------------|
E|------00000--------0--------0--------000000---00000000--5-6-5~-------------|
        xxxxx        x        x        xxxxxx   xxxxxxxx



  Solo (Part 1): Gt. 1 
e|---------------------------16b~--------------13--16b18r--------------------|
B|--13b--13~--13p12p10----------------------15-------------------------------|
G|----------------------12b--------------14----------------------------------|
D|------------------------------------15-------------------------------------|
A|---------------------------------17----------------------------------------|
E|---------------------------------------------------------------------------|

e|--22--22--17---------------------17-18-17----------------------------------|
B|-------------18---------------------------18-------18b---------------------|
G|----------------19---------------------------19----------------------------|
D|-------------------20--17--20b~-----------------19-------------------------|
A|---------------------------------------------------------------------------|
E|---------------------------------------------------------------------------|

e|--12-13-12--------------------17-------------------------------------------|
B|-----------13-------15b-15b------18-17-------------------------------------|
G|--------------14-----------------------17-14h17----------------------------|
D|-----------------15-----------------------------16b~-----------------------|
A|---------------------------------------------------------------------------|
E|---------------------------------------------------------------------------|

e|-----------------13-16b18--------------------------------------------------|
B|--------------15-----------------------------------------------------------|
G|-----------14--------------------------------------------------------------|
D|--------15-----------------------------------------------------------------|
A|--15-17--------------------------------------------------------------------|
E|---------------------------------------------------------------------------|


  Solo (Part 1): Gt.2
e|---------------------------------------------------------------------------|
B|---------------------------------------------------------------------------|
G|---------------------------------------------------------------------------|
D|--0------0--------0------0---------3--5--6---3--5--6-----------------------|
A|--0-0000-0-000000-0-0000-0-000000--3--5--6---3--5--6-----------------------|
E|--0-0000-0-000000-0-0000-0-000000--3--5--6---3--5--6-----------------------|
      xxxx   xxxxxx   xxxx   xxxxxx

e|---------------------------------------------------------------------------|
B|---------------------------------------------------------------------------|
G|---------------------------------------------------------------------------|
D|--0------0--------0------0---------3--5--6---3--5--6-----------------------|
A|--0-0000-0-000000-0-0000-0-000000--3--5--6---3--5--6-----------------------|
E|--0-0000-0-000000-0-0000-0-000000--3--5--6---3--5--6-----------------------|
      xxxx   xxxxxx   xxxx   xxxxxx



  Solo (Part 2): Gt.1
e|------------------------------------------16b18~---------------------------|
B|---------------------------------------------------------------------------|
G|-------0------------------------0--7--14-----------------------------------|
D|--12~-----12/14\12--12/20--19~---------------------------------------------|
A|---------------------------------------------------------------------------|
E|---------------------------------------------------------------------------|

e|---------------------------------------------------------------------------|
B|-----10b11r10----------10b11r10--------------------------------------------|
G|--7------------7~----------------7~--------------------------7/14----------|
D|--------------------7-----------------0--12/14\12--12/20~\5----------------|
A|---------------------------------------------------------------------------|
E|---------------------------------------------------------------------------|

e|--18--17--------18-17-15----------17-----------20p17------------------------------------------|
B|----------15~------------18-17-15----18-17-15--------20-18h20p18------------------------------|
G|-----------------------------------------------------------------19-17------------------------|
D|-----------------------------------------------------------------------19-------19b20r19\17-15|
A|------------------------------------------------------------------------------------------17--|
E|----------------------------------------------------------------------------------------------|



  Solo (Part 2): Gt. 2
e|---------------------------------------------------------------------------|
B|---------------------------------------------------------------------------|
G|--7777-7-7-7-7--5555-5-5-5-5-----------------------------------------------|
D|--7777-7-7-7-7--5555-5-5-5-5--5555-5-5-5-5--8888--10--10-------------------|
A|--5555-5-5-5-5--3333-3-3-3-3--5555-5-5-5-5--8888--10--10-------------------|
E|------------------------------5555-5-5-5-5--8888--10--10-------------------|

e|---------------------------------------------------------------------------|
B|---------------------------------------------------------------------------|
G|--7777-7-7-7-7--5555-5-5-5-5-----------------------------------------------|
D|--7777-7-7-7-7--5555-5-5-5-5--5555-5-5-5-5--888--8-10-10-10----------------|
A|--5555-5-5-5-5--3333-3-3-3-3--5555-5-5-5-5--888--8-10-10-10----------------|
E|------------------------------5555-5-5-5-5--888--8-10-10-10----------------|



  Bridge (Part 1): Gt.1 & Gt.2
e|---------------------------------------------------------------------------|
B|---------------------------------------------------------------------------|
G|--------5------------5-----------------------------------------------------|
D|--0--3--5--7--8---3--5--7--8-----------------------------------------------|
A|--0--3--3--7--8---3--3--7--8-----------------------------------------------|
E|--0--3-----7--8---3-----7--8-----------------------------------------------|



  Bridge (Part 2): Gt.1
e|---------------------------------------------------------------------------|
B|---------------------------------------------------------------------------|
G|---------------------------------------------------------------------------|
D|--0-----7-----2-2-----5-------3-------0-0--0-0-------3-3--2-2--------------|
A|--0--0--5--0--3-3--3-----0-0--1--0-0--3/5--5-5--0-0--3-3--4-4--------------|
E|--0--0-----0-------------0-0-----0-0------------0-0------------------------|
       x     x             x x     x x            x x 

e|---------------------------------------------------------------------------|
B|---------------------------------------------------------------------------|
G|---------------------------------------------------------------------------|
D|--0-----7-----2-2-----5-------3-------0-0--0-0-------3--3--2---------------|
A|--0--0--5--0--3-3--3-----0-0--1--0-0--3/5--5-5--0-0--3--3--4---------------|
E|--0--0-----0-------------0-0-----0-0------------0-0--3--3------------------|
       x     x             x x     x x            x x 


  Bridge (Part 2): Gt.2
e|---------------------------------------------------------------------------|
B|---------------------------------------------------------------------------|
G|---------------------------------------------------------------------------|
D|--0------------------------3-3-2-------------------------------------------|
A|--0---000000------000000---3-3-4-------------------------------------------|
E|--0---000000------000000---------------------------------------------------|
        xxxxxx      xxxxxx 

  Chorus 3: Gt.1 & Gt.2
e|---------------------------------------------------------------------------|
B|---------------------------------------------------------------------------|
G|---------------------------------------------------------------------------|
D|--3--3--3-333--3-3--3--3-333--3--0-0--0-000--0-0--0-0-0--------------------|
A|--3--3--3-333--3-3--3--3-333--3--0-0--0-000--0-0--0-0-0--------------------|
E|--3--3--3-333--3-3--3--3-333--3--0-0--0-000--0-0--0-0-0--------------------|

e|---------------------------------------------------------------------------|
B|---------------------------------------------------------------------------|
G|---------------------------------------------------------------------------|
D|--3--3--3-333--3-3--3--3-333--3--0-0--0-000--0-0--0-0----------------------|
A|--3--3--3-333--3-3--3--3-333--3--0-0--0-000--0-0--0-0-00000000-------------|
E|--3--3--3-333--3-3--3--3-333--3--0-0--0-000--0-0--0-0-00000000--5-6-5~-----|
                                                        xxxxxxxx 

  Outro: Gt.1 & Gt.2
e|---------------------------------------------------------------------------|
B|---------------------------------------------------------------------------|
G|--7\---------7--6-----6--3-----6--7----------------------------------------|
D|--7\---------7--6-----6--3-----6--7----------------------------------------|
A|--5\--00000--5--4--0--4--1--0--4--5--000000---0000---------0000------------|
E|------00000--------0--------0--------000000---0000--7b8r7--0000--8b9r8-----|
        xxxxx        x        x        xxxxxx   xxxx         xxxx

e|---------------------------------------------------------------------------|
B|---------------------------------------------------------------------------|
G|--7\---------7--6-----6--3-----6--7----------------------------------------|
D|--7\---------7--6-----6--3-----6--7----------------------------------------|
A|--5\--00000--5--4--0--4--1--0--4--5--000000---00000000---------------------|
E|------00000--------0--------0--------000000---00000000--5-6-5~-------------|
        xxxxx        x        x        xxxxxx   xxxxxxxx


| /  slide up
| \  slide down
| h  hammer-on
| p  pull-off
| ~  vibrato
| +  harmonic
| x  Mute note
===============================================================================
comments
We did not receive enough feedback on this tab! Please rate:
print report bad tab
1 2 3 4 5
2 comments total.
+1 reply
tst1189 wrote on March 17 2008, 09:02 am

during the preverse the second D power chord should actually be an Eb

0 reply
slash.r0cks wrote on April 5 2010, 02:21 am

This is extremely close, I'd say about 98% right. Great job! 5*

I want to post or [tab]
guest
You may want to rate the tab now too:
select rating
Please do not post tabs as comments. Select "correction" instead!