Oops, an error
Loading. Please wait.

Almost Easy Tab

ver6
ver6
More versions @911Tabs.com
4,452 views 9 this week
5 commentsread comments
1 2 3 4 5
worth learning
x 6
Autoscroll
+/-
esc
set tempo
stop
Contributor
WARNING: You are trying to view
                                    content from Ultimate-Guitar.com
                                    in an unauthorized application,
                                    which is prohibited.

                                    Please use an official Ultimate
                                    Guitar Tabs application for iPhone,
                                    iPad or Android to access legitimate
                                    chords, guitar, bass, and drum tabs
                                    from Ultimate-Guitar.com database.

                                    Type "ultimate guitar tabs" in Apple
                                    App Store's or Android Market's
                                    search to find the application.
Avenged Sevenfold 
Almost Easy


 intro
 gtr.1       
|-------------------------------------|--8/13---12b~~~~--------------------|
|-------------------------------------|------------------13----\10--10-----|
|-------------------------------------|------------------------------------|
|-------------------------------------|------------------------------------|
|-------------------------------------|------------------------------------|
|-------------------------------------|------------------------------------|
|
| gtr.2
|-------------------------------------|------------------------------------|
|-------------------------------------|------------------------------------|
|-------------------------------------|------------------------------------|
|-----7-7-7-7--7-7--7-7--7-7--7-------|--5-5-5-5--5-5--5----5-5--5---------|
|-----5-5-5-5--5-5--5-5--5-5--5-------|--3-3-3-3--3-3--3----3-3--3---------|
|-------------------------------------|------------------------------------|
 
          \ w.bar/
 gtr.1     \-1/2/  
|-----------------------------------|--6/13---12~~~~--------------------|
|--10/15^---15^15^-----^15~~~~~\----|----------------13----\10----10\---|
|-----------------------------------|-----------------------------------|
|-----------------------------------|-----------------------------------|
|-----------------------------------|-----------------------------------|
|-----------------------------------|-----------------------------------|
|
| gtr.2
|-----------------------------------|-----------------------------------|
|-----------------------------------|-----------------------------------|
|-----------------------------------|-----------------------------------|
|-----------------------------------|-----------------------------------|
|--5-5-5-5--5-5--5---5-----5/-------|--8---8-8-8-8---10---10-10-10------|
|--5-5-5-5--5-5--5---5-----5/-------|--8---8-8-8-8---10---10-10-10------|


      \w.bar /
 gtr.1 \-1/2/
|-8/17^(17)^(17)^(17)^(17\ 6/13\12~---------------|-8/13--12-\9-12/18-17\|  
|----------------------------------13\10-10/15b-\-|----------------------|  
|-------------------------------------------------|----------------------|  
|-------------------------------------------------|----------------------|  
|-------------------------------------------------|----------------------|  
|-------------------------------------------------|----------------------| 
|
| gtr.2
|------------------------------------------|-------------------------------|
|------------------------------------------|-------------------------------|
|------------------------------------------|-------------------------------|
|-----7-7-7-7---7-7---7-7---7-7--7---------|--5-5-5-5--5-5--5----5-5--5----|
|-----5-5-5-5---5-5---5-5---5-5--5---------|--3-3-3-3--3-3--3----3-3--3----|
|------------------------------------------|-------------------------------|

                          gtr.1+2
 gtr.1    p.m........]       ....      ....
|--15/17\----------------|----------------------|-------------------|
|------------------------|----------------------|-------------------|
|------------------------|----------------------|-------------------|
|-----7\---------------8-|-6-------6-3-------6--|-7\----------------|
|-----5\----0-0-0-0-0--6-|-4--0-0--4-1--0-0--4--|-5\--0-0-0-0-0-0---|
|-----------0-0-0-0-0----|----0-0-------0-0-----|-----0-0-0-0-0-0---|
|
| gtr. 2 p.m........
|-----------------------|
|-----------------------|
|-----------------------|
|---------------------8-|
|---12\----0-0-0-0-0--6-|
|---12\----0-0-0-0-0----|

 gtr.1+2        
 p.m.....      ........          ................           ..............  
|-------------------------------|--------------------------|---------------|
|-------------------------------|--------------------------|---------------|
|-------------------------------|--------------------------|---------------|
|-------------------------------|--------------------------|---------------|
|-------------------------------|--------------------------|-0-0-0-0-0-0-0-|
|-0-0-0-0-7h8p7-0-0-0-0-8h10p8--|-0-0-0-0-0-0-0-0--5--6--5~|-0-0-0-0-0-0-0-|


 gtr.1+2
p.m............   ...............  ................
|----------------|----------------|---------------------------------|
|----------------|----------------|---------------------------------|
|----------------|----------------|---------------------------------|
|----------------|----------------|---------------------------------|
|-0-0-0-0-0-0-0--|-0-0-0-0-0-0-0--|---------------------------------|
|-0-0-0-0-0-0-0--|-0-0-0-0-0-0-0--|-0-0-0-0-0-0-0-0--5---6--5~~~~~--|

 gtr.1+2
p.m............  ..............  ............... ................
|---------------|---------------|---------------|--------------------------|
|---------------|---------------|---------------|--------------------------|
|---------------|---------------|---------------|--------------------------|
|---------------|---------------|---------------|--------------------------|
|-0-0-0-0-0-0-0-|-0-0-0-0-0-0-0-|-0-0-0-0-0-0-0-|--------------------------|
|-0-0-0-0-0-0-0-|-0-0-0-0-0-0-0-|-0-0-0-0-0-0-0-|-0-0-0-0-0-0-0-0--5--6--5~|


 gtr.1+2
p.m...................       ................
|------------------------|  |-------------------------------|
|------------------------|  |-------------------------------|
|------------------------|X3|-------------------------------|
|------------------------|  |-------------------------------|
|-0----------------------|  |-------------------------------|
|-0-0-0-0-0-0-0-0-0-0----|  |-0-0-0-0-0-0-0-0--5---6--5~~~~~|


 gtr.1+2
p.m.............    .................
|----------------|  |-------------------------------|
|----------------|  |-------------------------------|
|----------------|X3|-------------------------------|
|----------------|  |-------------------------------|
|-0-0-0-0-0-0-0--|  |-------------------------------|
|-0-0-0-0-0-0-0--|  |-0-0-0-0-0-0-0-0--5---6--5~~~~~|

 pre-chorus
 gtr.1+2
p.m..     .....        .....    .....             .....
|------------------|------------------|--------------------|---------------|
|------------------|------------------|--------------------|---------------|
|------------------|------------------|--------------------|---------------|
|-------7--------2~|-5--------3-------|--------------------|---------------|
|-0--0--5--0--0--3~|-3--0--0--1--0--0-|-10--10--10------8--|-8--8--8----7-\|
|-0--0-----0--0----|----0--0-----0--0-|-8---8---8--0--0-10-|-10-10-10-0-11\|

 chorus
 gtr.1
|-----------------|------------------|-----------|----------------|
|-----------------|------------------|-----------|----------------|
|-----------------|------------------|-----------|----------------|
|-3---3-3-3-3-3---|-3-3-3-3-3---3-3--|-5-5--5-3--|-3-3--3-3--3-3--|
|-3---3-3-3-3-3---|-3-3-3-3-3---3-3--|-3-3--3-3--|-3-3--3-3--3-3--|
|-3---3-3-3-3-3---|-3-3-3-3-3---3-3--|-3-3--3-3--|-3-3--3-3--3-3--|


 gtr.1
p.m.                                        .................
|--------------|---------------|------------|-----------------------------|
|--------------|---------------|------------|-----------------------------|
|--------------|---------------|------------|-----------------------------|
|-0-0--0-0--0--|-0-0--0-0---0--|-0--0-0--0--|-----------------------------|
|-0-0--0-0--0--|-0-0--0-0---0--|-0--0-0--0--|-----------------------------|
|-0-0--0-0--0--|-0-0--0-0---0--|-0--0-0--0--|-0-0-0-0-0-0-0-0--5---6--5~~~|


 gtr.1
|---------------|-----------------|--------------|--------------|
|---------------|-----------------|--------------|--------------|
|---------------|-----------------|--------------|--------------|
|-0-0---3/5--5--|-3--3-3--3-3-3-3-|-3-3--3-3-3-3-|-5--5-5-5-5--3|
|-0-0---3/5--5--|-3--3-3--3-3-3-3-|-3-3--3-3-3-3-|-3--3-3-3-3--3|
|-0-0---3/5--5--|-3--3-3--3-3-3-3-|-3-3--3-3-3-3-|-3--3-3-3-3--3|


 gtr.1
|---------------|----------------|------------------|----------------|
|---------------|----------------|------------------|----------------|
|---------------|----------------|------------------|----------------|
|-3-3-3--3-3-3--|-0--0-0-0-0--0--|-0-0-0-0--0-0--0--|-0--0-0-0-0--0--|
|-3-3-3--3-3-3--|-0--0-0-0-0--0--|-0-0-0-0--0-0--0--|-0--0-0-0-0--0--|
|-3-3-3--3-3-3--|-0--0-0-0-0--0--|-0-0-0-0--0-0--0--|-0--0-0-0-0--0--|


 gtr.1
p.m..............                  ...........        ....       ....
|-----------------------------|-------------------|----------------------|
|-----------------------------|-------------------|----------------------|
|-----------------------------|-------------------|----------------------|
|-----------------------------|-7\-------------8--|-6-------6--3-------6-|
|-----------------------------|-5\--0-0--0-0-0-6--|-4--0-0--4--1--0-0--4-|
|-0-0-0-0-0-0-0-0--5---6--5~~~|-----0-0--0-0-0----|----0-0--------0-0----|


 gtr.1
p.m. .....................       ........         ...............
|-----------------|------------------------------|-------------------------|
|-----------------|------------------------------|-------------------------|
|-----------------|------------------------------|-------------------------|
|-7\--------------|------------------------------|-------------------------|
|-5\-0-0--0-0-0-0-|------------------------------|-------------------------|
|----0-0--0-0-0-0-|-0-0-0-0-7h8p7-0-0-0-0-8h10p8-|-0-0-0-0-0-0-0-0--5--6-5~|

 solo
 gtr.1
|----------------|-------------|--------13-16-17b/22-22-17-----------------|
|-13b~~~~~~~10---|-------------|------15------------------18---------------|
|----------------|-12b~~~~x-x--|----14----------------------19-------------|
|----------------|-------------|--15--------------------------19-18-19b~~~-|
|----------------|-------------|17-----------------------------------------|
|----------------|-------------|-------------------------------------------|
|
| gtr.2
|------------------------------|--------------------|----------------------|
|------------------------------|--------------------|----------------------|
|------------------------------|--------------------|----------------------|
|------------------------------|-3---5-----6--6--6--|-3---5-----6--6--6----|
|-0----0-----------0----0---0--|-3---5-----6--6--6--|-3---5-----6--6--6----|
|-000000-00000-0-0-000000-0-0--|-3---5-----6--6--6--|-3---5-----6--6--6----|


 gtr.1                                                  ....
|-17-18-17-13--------------------|----------------------------|
|-------------15----18b---(18)~~~|-17-18-17-13-------15b----\-|
|----------------14--------------|-------------14-------------|
|--------------------------------|----------------15----------|
|--------------------------------|----------------------------|
|--------------------------------|----------------------------|


 gtr.1
|-17-13---------------------------|-----------10-12/17---(17)~~~18--|
|-------17-13\10-13---------------|---------10----------------------|
|-------------------10b---(10)~~~~|-------9-------------------------|
|---------------------------------|----12---------------------------|
|---------------------------------|-13------------------------------|
|---------------------------------|---------------------------------|


 gtr.1
|---17------------(17)\-----------|-------------------------------------|
|---------------------------------|--------------------15/22~~~\---10b--|
|-5h7----(7)\---------------------|------------0--7/14-----------7------|
|--------------5h7-------7/14\12--|-12/19~~~~\--------------------------|
|---------------------------------|-------------------------------------|
|---------------------------------|-------------------------------------|
|
| gtr.2
|---------------------------------|--------------------------------|
|---------------------------------|--------------------------------|
|---------------------------------|--------------------------------|
|-7-7-7-7--7-7--7-7--7-7--7---7---|-7-7-7-7--7-7--7-7--7-7--7---7--|
|-5-5-5-5--5-5--5-5--5-5--5---5---|-5-5-5-5--5-5--5-5--5-5--5---5--|
|---------------------------------|--------------------------------|


 gtr.1
|---------------------------------------------|-------------------------|
|--------------10b----------------------------|-------------------------|
|-7~~~~~~\------------7~~~~~~~\---------------|----------------0--7/14--|
|---------5/7------------------5/7--9/14--12--|-12/19--22~~~~~\---------|
|---------------------------------------------|-------------------------|
|---------------------------------------------|-------------------------|


 gtr.1
|---------------------|-18-17-15--------17-13-----20-17-------------------|
|-15/23-23-22~~-------|---------18-17-15-----17-15-----20-17-20-18-17\15--|
|--------------19~~\--|---------------------------------------------------|
|---------------------|---------------------------------------------------|
|---------------------|---------------------------------------------------|
|---------------------|---------------------------------------------------|


 gtr.1
|-----------------------------------|
|-----------------------------------|
|-17-15-14-15p14--------------------|
|---------------17-15p14\-----------|
|-------------------------12~~~~~~\-|
|-----------------------------------|
|
| gtr.2
|----------------------------|------------------------|--------------------|
|----------------------------|------------------------|--------------------|
|----------------------------|------------------------|--------------------|
|-0---0-0-0-0---0---0-0---0--|-3--3-3-3-3--3--3-3--3--|-5--5-5-5-5--5-5--5-|
|-0---0-0-0-0---0---0-0---0--|-3--3-3-3-3--3--3-3--3--|-3--3-3-3-3--3-3--3-|
|-0---0-0-0-0---0---0-0---0--|-3--3-3-3-3--3--3-3--3--|--------------------|


 gtr.1+2
|----------------------|-------------------------|-------------------------|
|----------------------|-------------------------|-------------------------|
|----------------------|-------------------------|-------------------------|
|-2--2-2-2-2-2-2--2-2--|-3--3-3-3-3--3--3-3-3-3--|-3--3-3-3-3--3--3-3-3-3--|
|-0--0-0-0-0-0-0--0-0--|-1--1-1-1-1--1--1-1-1-1--|-3--3-3-3-3--3--3-3-3-3--|
|----------------------|-------------------------|-3--3-3-3-3--3--3-3-3-3--|


 gtr.1+2
|-------------------------|-------------------------|--------------------|
|-------------------------|-------------------------|--------------------|
|-------------------------|-------------------------|--------------------|
|-5--5-5-5-5--5--5-5-5-5--|-2-2-2--2---2---2-2-2-2--|-2--2-2-2--2-2-2-2--|
|-3--3-3-3-3--3--3-3-3-3--|-0-0-0--0---0---0-0-0-0--|-0--0-0-0--0-0-0-0--|
|-------------------------|-------------------------|--------------------|


 gtr.1+2
|---------------------|-----------------------|
|---------------------|-----------------------|
|---------------------|-----------------------|
|-3-3-3---3--3-3-3-3--|-3-3-3-3----3-3-3---5--|
|-1-1-1---1--1-1-1-1--|-1-1-1-1----1-1-1---3--|
|---------------------|-----------------------|


 gtr.
|----------------|--------------------|------------------|-----------------|
|----------------|--------------------|------------------|-----------------|
|----------------|--------------------|------------------|-----------------|
|-------7--2--2--|-2--5---3--3--------|------------------|-----------------|
|-0--0--5--3--3--|-3--3---1--1--------|-10-10-10------8--|-8--8-----7--7-\-|
|-0--0-----------|--------------0--0--|-8--8--8----x--10-|-10-10-11-11-11\-|


 gtr.1
|----------------|
|----------------|
|----------------|X4
|-------7--2--2--|
|-0--0--5--3--3--|
|-0--0-----------|
|
| gtr.2 p.m.....              ...................
|----------------|-----------|-------------------------|------------------|
|----------------|-----------|-------------------------|------------------|
|----------------|-----------|-------------------------|------------------|
|----------------|-----------|-------------------------|------------------|
|----------------|-----------|---------0--0--0--0--8---|-8--8------7------|
|-0-0-0-0--0--0--|-----------|-0-0-0-0-0--0--0--0--10--|-10-10--0--11-11\-|


 gtr.1+2
p.m............        .....       .......        .................
|------------------|-------------------------|----------------------|
|------------------|-------------------------|----------------------|
|------------------|-------------------------|----------------------|
|-7\------------8--|-6--------6--3--------6--|-7\-------------------|
|-5\-0-0-0-0-0--6--|-4--0--0--4--1--0--0--4--|-5\-0--0--0--0--0--0--|
|----0-0-0-0-0-----|----0--0--------0--0-----|----0--0--0--0--0--0--|
5 comments total. Showing first comments.
0 reply
keifizel wrote on April 12 2008, 08:04 pm

not too be mean or anything but you copied this from guitar world mag, which is ok, but you have the tuning wrong, cuz its drop Db, not drop D

0 reply
[travis] wrote on April 23 2008, 08:26 pm

This is from Guitar World, but that's alright, cuz most people tab straight out of magazines or official tab books, on this site.

0 reply
Synyster Skinz wrote on May 27 2008, 02:41 pm

from guitar world but overall ok exept the tuning

I want to post or [tab]
guest
You may want to rate the tab now too:
select rating
Please do not post tabs as comments. Select "correction" instead!