Oops, an error
Loading. Please wait.

And All Things Will End Tab

ver1
ver1

Intro

Solo

Whole song

More versions @911Tabs.com
9,214 views 9 this week
3 commentsread comments
1 2 3 4 5
excellent!
x 4
Autoscroll
+/-
esc
set tempo
stop
Contributor
Difficulty
advanced
WARNING: You are trying to view
                                    content from Ultimate-Guitar.com
                                    in an unauthorized application,
                                    which is prohibited.

                                    Please use an official Ultimate
                                    Guitar Tabs application for iPhone,
                                    iPad or Android to access legitimate
                                    chords, guitar, bass, and drum tabs
                                    from Ultimate-Guitar.com database.

                                    Type "ultimate guitar tabs" in Apple
                                    App Store's or Android Market's
                                    search to find the application.
avenged sevenfold
and all things will end solo
tips: practice... alot!

 Q.    S  S  H       Q    S  S  S  S  S     +S   S  S  S     +S   S  S
|--------------------|----------------------------------------------------|
|--------------------|----------------------------------------------------|
|--------------------|---------------12-14b15r(14)-14----15b16r(15)-15----|
|--------------15----|-15---------15------------------15---------------15-|
|-/17----15h17-------|------15h17-----------------------------------------|
|--------------------|----------------------------------------------------|
|
| Gtrs II, III
|   ~~~~        ~~
|   Q.    S  S  H       Q.         S  S  E          E     Q
|--------------------|----------------------------------------------------|
|--/3--------3--6----|----------------------------------------------------|
|---------5-----3----|--5----------3--5--3----------2-----0---------------|
|--/5-----3--5-------|-------------3--3--3----------3-----1---------------|
|--------------------|--3-------------------------------------------------|
|--------------------|----------------------------------------------------|


  Eb5                                                       D5
                                |--3--|  |--3--|  |--3--|
   E     +E   S  S  S  S  S  S  S  S  S  S  S  S  S  S  S    S  S  S  S  +S   S  S  S  S
S  S  S  S  S  S  S
|---------------------------------------------------------|-14p11------------------------------------------------|
|------------------------------------------------16h17h19-|-------15p13-(13)-------------------------------------|
|---------------------14h15h17p15-17h19p15-17h19----------|------------------15p14h15----------------------------|
|-17b18r(17)-17h19h20-------------------------------------|---------------------------12p10h12-------------------|
|---------------------------------------------------------|------------------------------------13p12p10----------|
|---------------------------------------------------------|---------------------------------------------11h12----|
|
|  E      E   E     E     E     E        E        E          E     E      E      E     E
   E     E     E
|---------------------------------------------------------|----------------------------------------3-----2-------|
|-------------------------3-------------------------------|----------------------1-----3-----4-----4-----3-------|
|--0------3---2-----3-----3-----3--------2--------3-------|--0-----2------3------2-----3-----5-------------------|
|--1------5---3-----5-----------5--------3--------5-------|--0-----3------5--------------------------------------|
|---------------------------------------------------------|------------------------------------------------------|
|---------------------------------------------------------|------------------------------------------------------|


  G5               Bb5                 F5                 Eb5
   ~~~              ~~                                     ~~
   Q    S  S  S  S  Q   +S   S  S  S    Q    +S   S  S  S  Q    E.  T  T
|------------------------------18----|-17---(17)----20----18---18--18p17-|
|---------------13-15--(15)-15----15-|-----------15----15----------------|
|------12-14-15----------------------|-----------------------------------|
|------------------------------------|-----------------------------------|
|-13---------------------------------|-----------------------------------|
|------------------------------------|-----------------------------------|
|
|  ~~~              ~~
|  Q.         S  S  H                   Q.           S  S  E E  Q
|------------------------------------|-----------------------------------|
|-/3-------------3--6----------------|-----------------------------------|
|-------------5-----3----------------|--5------------3--5--3-2--0--------|
|-/5----------3--5-------------------|---------------3--3--3-3--1--------|
|------------------------------------|--3--------------------------------|
|------------------------------------|-----------------------------------|


                                        ~~
   Q    +S   S  S     S  S  S  S  S  S  S  E
|-15---(15)----------------------------------|
|--------------15b16-------------------------|
|-----------15-------15-14-12-14-15-14----14-|
|--------------------------------------12----|
|--------------------------------------------|
|--------------------------------------------|
|
|  E E   E      E        E     E     E     E
|--------------------------------------------|
|------------------------3-------------------|
|--0-3---2------3--------3-----3-----2-----3-|
|--1-5---3------5--------------5-----3-----5-|
|--------------------------------------------|
|--------------------------------------------|


  D5
   |--3--|   |--3---|                                                            |--3--|
|--3--|
   S  S  S  +S   S  S  T  T  T  T  T  T  T  T   S  T  T  T  T  T  T  T  T  T  T  T  T  T
T  T  T
|---------------------------------------------/10-------------------------------------12-14-15-17-|
|----------------------------------------------------------------------------13-15-17-------------|
|---------------------14-12-11----------11-12-----12-13-12----------12-14-16----------------------|
|-16-14-12-(12)-14-16----------14-12-14--------------------12-14-16-------------------------------|
|-------------------------------------------------------------------------------------------------|
|-------------------------------------------------------------------------------------------------|
|
|  E         E         E           E            E        E           E           E
|--------------------------------------------------------------------3-----------2----------------|
|----------------------------------1------------3--------4-----------4-----------3----------------|
|--0---------2---------3-----------2------------3--------5----------------------------------------|
|--0---------3---------5--------------------------------------------------------------------------|
|-------------------------------------------------------------------------------------------------|
|-------------------------------------------------------------------------------------------------|


  G5                           Bb5
   ~~~~~~~~~                    ~~~~~~
   Q    +S   S       S  S       H
|-18---(18)---------18---------22----|
|-----------15b15.5----15b15.5-------|
|------------------------------------|
|------------------------------------|
|------------------------------------|
|------------------------------------|
|
|  ~~~                          ~~
|  Q.                S  S       H
|------------------------------------|
|-/3--------------------3-------6----|
|--------------------5----------3----|
|-/5-----------------3--5------------|
|------------------------------------|
|------------------------------------|


  F5                                        Eb5
 ~~~~~~~~~~~~~~~~~~~~~~~~~~~~~~~                ~~~~~~~
   S   +S      +S   +S      +S   S  T  T  S  S  S  +Q.
|-17--(17)b19r(17)-(17)b19r(17)----------13-13-15-(15)----|
|-------------------------------------15------------------|
|-------------------------------14-15---------------------|
|---------------------------------------------------------|
|---------------------------------------------------------|
|---------------------------------------------------------|
|
|  Q.                               S     S  E      E  Q
|---------------------------------------------------------|
|---------------------------------------------------------|
|--5--------------------------------3-----5--3------2--0--|
|-----------------------------------3-----3--3------3--1--|
|--3------------------------------------------------------|
|---------------------------------------------------------|


  Eb5
                        ~~~~~~~~~~~~~~~~~
   |--3--|  |--3--|  |--3--|  |--3--|  |--3--|  |--3--|  |--3--|  |--3--|
   S  S  S  S  S  S  S  S  S  S  S  S  S  S  S  S  S  S  S  S  S  S  S  S
|-15-------------------------------------------------------11-13-11-------|
|----15-15-15S13-13-13-------------------------------13-15----------15-13-|
|----------------------15-15-15S14-15-12----12-14-15----------------------|
|----------------------------------------15-------------------------------|
|-------------------------------------------------------------------------|
|-------------------------------------------------------------------------|
|
|  E        E        E        E        E        E        E        E
|-------------------------------------------------------------------------|
|--------------------------------------3----------------------------------|
|--0--------3--------2--------3--------3--------3--------2--------3-------|
|--1--------5--------3--------5-----------------5--------3--------5-------|
|-------------------------------------------------------------------------|
|-------------------------------------------------------------------------|


  D5
   |--3--|  |-----3------|  |-----3-----|  |--3--|  |--3--|  |--3--|
   S  S  S  S         S  S  S        S  S  S  S  S  S  S  S  S  S  S  T  T  T  T  T  T  TT
|-17-14-14-14pb14.5\---------------------------------------------------------------------------|
|--------------------15-15-15b15.5\------------------------------------------------------------|
|-----------------------------------15-15-15-12-12-12-------------------------------------11---|
|-----------------------------------------------------12-12-12-------------------------12------|
|--------------------------------------------------------------13-13----------10-12-13---------|
|--------------------------------------------------------------------12-14-15------------------|
|
|  E        E               E              E        E        E        E           E
|---------------------------------------------------------------------3-----------2------------|
|------------------------------------------1--------3--------4--------4-----------3------------|
|--0--------2---------------3--------------2--------3--------5---------------------------------|
|--0--------3---------------5------------------------------------------------------------------|
|----------------------------------------------------------------------------------------------|
|----------------------------------------------------------------------------------------------|


  G5                           Bb5              F5              Eb5
                                                                                \0.25   /
                                ~~~
                                                                 |--3--|  |--3--|
   Q    +S   S       S  S       Q.    +E      a  Q       Q       S  S  S  S  S  S       Q
|------------------------------15----(15)\-|-17S18b19===18r-----18-17-15-------------------|
|------------------------------------------|-----------------------------15-13-------------|
|-12---(12)---------12---------------------|-----------------------------------12-----/15--|
|-----------12b12.5----12b12.5-------------|-----------------------------------------------|
|------------------------------------------|-----------------------------------------------|
|------------------------------------------|-----------------------------------------------|
|
|  ~~~                          ~~~
|  Q.                S  S       H                Q.         S S  E        E             Q
|------------------------------------------|-----------------------------------------------|
|-/3--------------------3-------6----------|-----------------------------------------------|
|--------------------5----------3----------|-----5----------3-5--3--------2-------------0--|
|-/5-----------------3--5------------------|----------------3-3--3--------3-------------1--|
|------------------------------------------|-----3-----------------------------------------|
|------------------------------------------|-----------------------------------------------|


                                           D5
   E     +E   +Q     a  E     +E   +Q        E      +E   +Q     S  +S      +S   +S      Q
|-17b18-(17)-(17)---20-19b20-(19)-(19)---|-[18]b19-(18)-(18)---17-(17)b19-(17)-(17)b19------|
|----------------------------------------|---------------------------------------------15---|
|----------------------------------------|--------------------------------------------------|
|----------------------------------------|--------------------------------------------------|
|----------------------------------------|--------------------------------------------------|
|----------------------------------------|--------------------------------------------------|
|
|  E      E    E  E     E      E    E  E     E       E    E  E  E           E           EE
|----------------------------------------|----------------------------------------------3-2-|
|-----------------------3----------------|-------------------1--3-----------4-----------4-3-|
|--0------3----2--3-----3------3----2--3-|---0-------2----3--2--3-----------5---------------|
|--1------5----3--5------------5----3--5-|---0-------3----5---------------------------------|
|----------------------------------------|--------------------------------------------------|
|----------------------------------------|--------------------------------------------------|


  G5                                                 Bb5
   \0.25____________________________________\0.75/
                                            ~~~~~~~
   T       T  T  T  T  T  T  T  T  T  T  T  Q           T  T  T  T  T  T  T  T   E
|-15------18-15----------------------------13--------------------------------------|
|---------------15-13----------------------------------13h15p13----13----------/13-|
|---------------------15-17-15-14-15-14-------------------------15----15-12-15-----|
|---------------------------------------17-----------------------------------------|
|----------------------------------------------------------------------------------|
|----------------------------------------------------------------------------------|
|
|  \0.25____________________________________________________________________________
|  ~~~~~~~                                           ~
|  Q.                                       S      S H
|----------------------------------------------------------------------------------|
|-/3-----------------------------------------------3-6-----------------------------|
|-------------------------------------------5--------3-----------------------------|
|-/5----------------------------------------3------5-------------------------------|
|----------------------------------------------------------------------------------|
|----------------------------------------------------------------------------------|


  F5                                              Eb5
                                                                   ~~~
   T   T  T  T  T  T  T  S  S  S    +S        +Q       +E      T   E
|--------------11-13h15-15-17-18---(18)b20---(18)-----(18)\------/18--|
|-----12-13-15------------------------------------------------15------|
|-15------------------------------------------------------------------|
|---------------------------------------------------------------------|
|---------------------------------------------------------------------|
|---------------------------------------------------------------------|
|
|  Q.                            S         S      E E       Q
|---------------------------------------------------------------------|
|---------------------------------------------------------------------|
|--5-----------------------------3---------5------3-2-------0---------|
|--------------------------------3---------3------3-3-------1---------|
|--3------------------------------------------------------------------|
|---------------------------------------------------------------------|


  Eb5
   T  T  T  T  T  T  T  T  T  T  T  T   T  T  T  T  T  T  T  T  T  T  T  T  T  T  T  T  TT  T  T
|-18-15-18p15-13----------20-18h20-17\----------------12h14h15h18p17h18p17p15p13-------------------|
|----------------15-13--------------------------13-15----------------------------15p13-------------|
|----------------------15--------------12-14-15----------------------------------------15-14-12----|
|-----------------------------------------------------------------------------------------------15-|
|--------------------------------------------------------------------------------------------------|
|--------------------------------------------------------------------------------------------------|
|
|  E           E           E            E           E           E           E           E
|--------------------------------------------------------------------------------------------------|
|---------------------------------------------------3----------------------------------------------|
|--0-----------3-----------2------------3-----------3-----------3-----------2-----------3----------|
|--1-----------5-----------3------------5-----------------------5-----------3-----------5----------|
|--------------------------------------------------------------------------------------------------|
|--------------------------------------------------------------------------------------------------|


  D5
   |---------------6----------------|  |---------------6------------------|
 |----------6-------------------------------------------------------------|
   T  T  T  T  T  T  T  T  T  T  T  T  T  T  T  T  T  T  T  T  T  T  T  T  T  T  T  T  T
T  T  T  T  T  T  T  T  T  T  T  T  E.      T
|-------------------------------------------------------------------------------------12-14-15-15-17-17-15-15-14-12-----------------------|
|-------------------------------11-13-15-15-15-15-10-10-10-11-11-13-13-15-15-13-13-15-------------------------------14-12-----------------|
|----------------------11-12-14-------------------------------------------------------------------------------------------14-13b15r==13---|
|-12-12-11-11-12-12-14--------------------------------------------------------------------------------------------------------------------|
|-----------------------------------------------------------------------------------------------------------------------------------------|
|-----------------------------------------------------------------------------------------------------------------------------------------|
|
|  E                 E                 E                 E                 E
   E                 E                   E
|--------------------------------------------------------------------------------------------------------------3-------------------2------|
|--------------------------------------------------------1-----------------3-----------------4-----------------4-------------------3------|
|--0-----------------2-----------------3-----------------2-----------------3-----------------5--------------------------------------------|
|--0-----------------3-----------------5--------------------------------------------------------------------------------------------------|
|-----------------------------------------------------------------------------------------------------------------------------------------|
|-----------------------------------------------------------------------------------------------------------------------------------------|


  H.=H
  G5                             Bb5
    \0.5_______________________________________________
                                  ~~~~~~~~~
    Q       T T  T  T T  T  T  T  Q.        T  T  T T
|---------------------9-10-12-13-14pb15.5r============|
|-------------9-10-12---------------------------------|
|-/11------11---------------------------------------9-|
|-------------------------------------------9-11-12---|
|-----------------------------------------------------|
|-----------------------------------------------------|
|
|   \0.5_______________________________________________
|   ~~~~~~~                       ~~~~~~~~~
|   Q.                S     S     H
|-----------------------------------------------------|
|--/3-----------------------3-----6-------------------|
|---------------------5-----------3-------------------|
|--/5-----------------3-----5-------------------------|
|-----------------------------------------------------|
|-----------------------------------------------------|


  F5                                                     Eb5
                                                                ~~~~~~
   T   T     T  T  T     T  T  T  T  T  T  T  T  T  T  T  S  S  E     T  T  T  T  T  T  TT
|-----20b22-------18b20----------18-20-18-17-------------------------------------------------|
|-14-----------------------------------------20-18-17----------------------------------------|
|-----------18-18-------18-18-18----------------------19-17----15b16r==================10-12-|
|-----------------------------------------------------------17----------------10-12-13-------|
|--------------------------------------------------------------------10-12-13----------------|
|--------------------------------------------------------------------------------------------|
|
|  Q.                                         S     S     E     E     Q
|--------------------------------------------------------------------------------------------|
|--------------------------------------------------------------------------------------------|
|--5------------------------------------------3-----5-----3-----2-----0----------------------|
|---------------------------------------------3-----3-----3-----3-----1----------------------|
|--3-----------------------------------------------------------------------------------------|
|--------------------------------------------------------------------------------------------|


  Eb5
                                                                             |--3--|
   T T T T T T  T T T T T T  T T T T T T  T    T T T T  T  T  T  T  T  S     T  T  T
|------------------------------------------------------------------13-15b16----------|
|------------------------------------------------------------10-13----------13-15-11-|
|--------7------------7------------7---------------7-8-10-12-------------------------|
|----7-8---8-7----7-8---8-7----7-8---8-7-------7-8-----------------------------------|
|-10-----------10-----------10-----------10b12---------------------------------------|
|------------------------------------------------------------------------------------|
|
|  E       E        E        E       E           E         E           E
|------------------------------------------------------------------------------------|
|------------------------------------3-----------------------------------------------|
|--0-------3--------2--------3-------3-----------3---------2-----------3-------------|
|--1-------5--------3--------5-------------------5---------3-----------5-------------|
|------------------------------------------------------------------------------------|
|------------------------------------------------------------------------------------|


  D5
   T  T  T  T       T  T  T  T  T  T  T  T  T  T  T  T         T  T  T  T  T  T  T  T  T
T  T  T  S  S
|----------11pb11.5---------------------11h13p11-------------/17-15----18-15----18-17-15------------------|
|-11-13-15------------------10-11h13p11----------11-13b13.5r/-------17-------17----------18-16-15---------|
|-------------------9-10-12-----------------------------------------------------------------------17-15\--|
|---------------------------------------------------------------------------------------------------------|
|---------------------------------------------------------------------------------------------------------|
|---------------------------------------------------------------------------------------------------------|
|
|  E                E           E           E                  E           E           E
         E
|--------------------------------------------------------------------------------------3-----------2------|
|-------------------------------------------1------------------3-----------4-----------4-----------3------|
|--0----------------2-----------3-----------2------------------3-----------5------------------------------|
|--0----------------3-----------5-------------------------------------------------------------------------|
|---------------------------------------------------------------------------------------------------------|
|---------------------------------------------------------------------------------------------------------|


  G5                                Bb5
    \0.75______________________________________________________________
             ~~~~~~~~~~~~~~                                        ~~~
    Q        T  T  T  T  T  T  T  T  T  T  T  T  T  T  T  T  T  T  E.
|-----------------------------------------------------------10h11-11--|
|-----------------------------------------------\8-10-11-13-----------|
|-----------------------------------/8-10-12-10-----------------------|
|-/10b12r============12-10----10-12-----------------------------------|
|-----------10-12-13-------13-----------------------------------------|
|---------------------------------------------------------------------|
|
|   \0.75______________________________________________________________
|   ~~~~~~~~                         ~~
|   Q.                   S     S     H
|---------------------------------------------------------------------|
|--/3--------------------------3-----6--------------------------------|
|------------------------5-----------3--------------------------------|
|--/5--------------------3-----5--------------------------------------|
|---------------------------------------------------------------------|
|---------------------------------------------------------------------|


  F5                                               Eb5
          ~~~~~~~~~~~~~~~~~~~~~
   T   T  T  T  T  T  T  T  T  T  T  T  T  T  T  T  T  T  T  T  T  T  S  +E   T  T  T  T
|--------------------------15h18-------18h19---------------------------------------------|
|-----------------11h13h15-------16p15-------16-15-13------------------------------------|
|--------11s13h15-------------------------------------13----------13-15-(15)-------------|
|-13--15-------------------------------------------------13-15h17------------------12h13-|
|----------------------------------------------------------------------------13h15-------|
|----------------------------------------------------------------------------------------|
|
|  Q.                                   S     S     E           E         Q
|----------------------------------------------------------------------------------------|
|----------------------------------------------------------------------------------------|
|--5------------------------------------3-----5-----3-----------2---------0--------------|
|---------------------------------------3-----3-----3-----------3---------1--------------|
|--3-------------------------------------------------------------------------------------|
|----------------------------------------------------------------------------------------|


  Eb5
   |-------6-------|  |------6-------|  |------6-------|  |------6-------|               |--3--||--3--|
   T   T  T  T  T  T  T  T  T  T  T  T  T  T  T  T  T  T  T  T  T  T  T  T  E.    +S     SS  S  S  S  S
|--------------15-16-18p16p15h18p15----15----------------------------15h18h22----(22)\---------------------|
|-16h=18p16-15----------------------17----18-16-15----------15-16h18-----------------------------13p12h15--|
|--------------------------------------------------15p13h15----------------------------/13p12h15-----------|
|----------------------------------------------------------------------------------------------------------|
|----------------------------------------------------------------------------------------------------------|
|----------------------------------------------------------------------------------------------------------|
|
|  \1_______________________________________________________________________________________________________
|  E                  E                 E                 E                 E  E         E      E
|----------------------------------------------------------------------------------------------------------|
|---------------------------------------------------------------------------3------------------------------|
|--0------------------3-----------------2-----------------3-----------------3--3---------2--------3--------|
|--1------------------5-----------------3-----------------5--------------------5---------3--------5--------|
|----------------------------------------------------------------------------------------------------------|
|----------------------------------------------------------------------------------------------------------|


  D5
    ~~~~
                         |--3--|         |------6-------|  |------6-------|  |------6-------|
    E.    S  T  T  T  T  S  S  S   S  S  T  T  T  T  T  T  T  T  T  T  T  T  T  T  T  T  TT
|-/18----20h22---------------------------------------------------------------------------------|
|--------------19h21p17h19-----------------------------------------------------------13p11h13--|
|--------------------------18-20\-15----------------------12----12-13p12h13-15-13h15-----------|
|------------------------------------15p13p12h13h15-13-15----15--------------------------------|
|----------------------------------------------------------------------------------------------|
|----------------------------------------------------------------------------------------------|
|
|   E  E     E           E         E     E                 E                 E
|----------------------------------------------------------3-----------------2-----------------|
|------------------------1---------3-----4-----------------4-----------------3-----------------|
|---0--2-----3-----------2---------3-----5-----------------------------------------------------|
|---0--3-----5---------------------------------------------------------------------------------|
|----------------------------------------------------------------------------------------------|
|----------------------------------------------------------------------------------------------|


  G5                            Bb5
                      |---3---|     |------6-------|  |------6-------|
   E     +E      +E   S  S    S  S  T  T  T  T  T  T  T  T  T  T  T  T  S     +E
|-------------------------------------------------------------------12h15b17-(15)-|
|-------------------------------------------12----12-12h14h15p14h15---------------|
|-------------------------------13-13p12h13----13---------------------------------|
|-10b11r(10)b11r(10)-10h12---12---------------------------------------------------|
|---------------------------------------------------------------------------------|
|---------------------------------------------------------------------------------|
|
|  >
|  \1.5____________________________________________________________________________
|  ~~~~~~                        ~~
|  Q.                 S    S     H
|---------------------------------------------------------------------------------|
|-/3-----------------------3-----6------------------------------------------------|
|---------------------5----------3------------------------------------------------|
|-/5------------------3----5------------------------------------------------------|
|---------------------------------------------------------------------------------|
|---------------------------------------------------------------------------------|


  F5                                                           Eb5
          ~~                                                    ~~
   |-------6-------|  |------6-------|  |------6-------|
   T   T  T  T  T  T  T  T  T  T  T  T  T  T  T  T  T  T  E     H
|-15h=16p15----------------------------------------------------------|
|--------------------------------------------------------------------|
|-----------------------------------------------------15-------------|
|-----------15p13----------------------------12h13h15----------------|
|-----------------17p15p13-------------13h15-------------------------|
|--------------------------17p15p13p12-------------------12b13r12----|
|
comments
print report bad tab
3 comments total.
0 reply
Jenniferr<3 wrote on September 28 2007, 09:20 pm

uhm. bud
you stole my friends tab.
thats pretty god damn gay.

0 reply
a7x-GoD wrote on February 8 2011, 08:11 pm

^^^^ lol agreed

0 reply
sebuzahn wrote on October 27 2011, 10:36 am

nice tab, whoever did it...

just one question: what do the letters above the tabs stand for?
thanks

I want to post or [tab]
guest
You may want to rate the tab now too:
select rating
Please do not post tabs as comments. Select "correction" instead!