Oops, an error
Loading. Please wait.

And All Things Will End Tab

ver2
ver2

Intro

Solo

Whole song

Interactive

More versions @911Tabs.com
44,311 views 96 this week
11 commentsread comments
1 2 3 4 5
excellent!
x 23
Autoscroll
+/-
esc
set tempo
stop
Contributor
Hey! There's an official Ultimate Guitar app which is ideal
for learning songs when you're away from computer. Get the app
WARNING: You are trying to view
                                    content from Ultimate-Guitar.com
                                    in an unauthorized application,
                                    which is prohibited.

                                    Please use an official Ultimate
                                    Guitar Tabs application for iPhone,
                                    iPad or Android to access legitimate
                                    chords, guitar, bass, and drum tabs
                                    from Ultimate-Guitar.com database.

                                    Type "ultimate guitar tabs" in Apple
                                    App Store's or Android Market's
                                    search to find the application.
...AND ALL THINGS WILL END
As recorded by Avenged Sevenfold
(From the 2003 Album WAKING THE FALLEN)
Words and Music by Avenged Sevenfold
Arranged by Avenged Sevenfold

Gtr I (D A D G B E) - 'Untitled'
Gtr II (D A D G B E) - 'Untitled'
Gtr III (D A D G B E) - 'Untitled'
Gtr IV (D A D G B E) - 'Untitled'
Gtr V (D A D G B E) - 'Untitled'

 Intro
  Slowly Q=83
  N.C.                                                              Bb°/A
 4/4
  Gtr I
|-----------------|-------------------|-------------------|---------------||
|-----------------|-------------------|-------------------|---------^2----||
|-------2-0---^2--|-----0-0h2-0-------|-------0-0h2-0---0-|-----3---^3----||
|---2-3-----3-^3--|---2---------2---2-|---2-3---------3---|---2---2-^2----||
|-5---------------|-3-------------3---|-1-----------------|-0-------^0----||
|-----------------|-------------------|-------------------|---------------||


 Pre-Verse
  Faster Q=165
  D5                     N.C.    D5                           N.C.    D5
  Gtr II
     PM----------------|                  PM----------------|
|----------------|-----------------|------------------|-------------------|
|----------------|-----------------|------------------|-------------------|
|----------------|-------6h7-6-----|------------------|-------6h7-6-------|
|-0--------------|---------------0-|-(0)--------------|---------------0---|
|-0--0-0-0-0-0-0-|-0-0-0---------0-|-(0)--0-0-0-0-0-0-|-0-0-0---------0---|
|-0--0-0-0-0-0-0-|-0-0-0---------0-|-(0)--0-0-0-0-0-0-|-0-0-0---------0---|
|
| Gtr III
|    PM----------------|                  PM----------------|
|----------------|-----------------|------------------|-------------------|
|----------------|-------5h6-5-----|------------------|-------5h6-5-------|
|----------------|-----------------|------------------|-------------------|
|-0--------------|---------------0-|-(0)--------------|---------------0---|
|-0--0-0-0-0-0-0-|-0-0-0---------0-|-(0)--0-0-0-0-0-0-|-0-0-0---------0---|
|-0--0-0-0-0-0-0-|-0-0-0---------0-|-(0)--0-0-0-0-0-0-|-0-0-0---------0---|


  D5                       N.C.
  Gtr II
       PM----------------|
|------------------|----------------------------------------------|
|------------------|----------------------------------------------|
|------------------|-------6h7---6--------------------------------|
|-(0)--------------|-------------------------------------/8-------|
|-(0)--0-0-0-0-0-0-|-0-0-0----------------------------------------|
|-(0)--0-0-0-0-0-0-|-0-0-0----------------------------------------|
|
| Gtr III
|      PM----------------|
|------------------|----------------------------------------------|
|------------------|-------5h6---5--------------------------------|
|------------------|-------------------------------------/7-------|
|-(0)--------------|----------------------------------------------|
|-(0)--0-0-0-0-0-0-|-0-0-0----------------------------------------|
|-(0)--0-0-0-0-0-0-|-0-0-0----------------------------------------|
|
| Gtr IV
|------------------|----------------------------------------------|
|------------------|-----------5-8-5-6-5-8-5-6-5-8-5-6-5--8-5-6-5-|
|------------------|----------------------------------------------|
|------------------|----------------------------------------------|
|------------------|----------------------------------------------|
|------------------|----------------------------------------------|


  N.C.
|---------------------------------------------------------------------|
|---------------------------------------------------------------------|
|---------------------------------------------------------------------|
|-(8)-------7-------5-------7-------(7)-------5-----------------------|
|-----------------------------------------------------8-------7-------|
|---------------------------------------------------------------------|
|
|---------------------------------------------------------------------|
|---------------------------------------------------------------------|
|-(7)-------5---------------5-------(5)-------------------------------|
|-------------------8-------------------------8-------7-------5-------|
|---------------------------------------------------------------------|
|---------------------------------------------------------------------|
|
|---------------------------------------------------------------------|
|--8--5-6-5-8-5-6-5-8-5-6-5-8-5-6-5--8--5-6-5-8-5-6-5-8-5-6-5-8-5-6-5-|
|---------------------------------------------------------------------|
|---------------------------------------------------------------------|
|---------------------------------------------------------------------|
|---------------------------------------------------------------------|


                                                          D5
|-------------------------------------------------------------|
|-------------------------------------------------------------|
|-----------------------------------------7-------6-----------|
|-------------------------5-------7-----------------------0---|
|-5-------7-------8---------------------------------------0---|
|---------------------------------------------------------0---|
|
|-------------------------------------------------------------|
|-----------------------------------------6-------5-----------|
|---------------------------------5---------------------------|
|---------5-------7-------8-------------------------------0---|
|-8-------------------------------------------------------0---|
|---------------------------------------------------------0---|
|
|-------------------------------------------------------------|
|-8-5-6-5-8-5-6-5-8-5-6-5-8-5-6-5-8-5-6-5-8-5-6-5-8-5-6-5-----|
|-------------------------------------------------------------|
|-------------------------------------------------------------|
|-------------------------------------------------------------|
|-------------------------------------------------------------|


  D5                       N.C.          D5
       PM----------------|
|------------------|-----------------------|
|------------------|-----------------------|
|------------------|--------6h==7---6------|
|-(0)--------------|---------------------0-|
|-(0)--0-0-0-0-0-0-|-0-0-0---------------0-|
|-(0)--0-0-0-0-0-0-|-0-0-0---------------0-|
|
|      PM----------------|
|------------------|-----------------------|
|------------------|--------5h==6---5------|
|------------------|-----------------------|
|-(0)--------------|---------------------0-|
|-(0)--0-0-0-0-0-0-|-0-0-0---------------0-|
|-(0)--0-0-0-0-0-0-|-0-0-0---------------0-|
|
|------------------|-------(5)h(6)-(5)-----|
|------------------|-----------------------|
|------------------|-----------------------|
|------------------|-----------------------|
|------------------|-----------------------|
|------------------|-----------------------|


                           N.C.          D5
       PM----------------|
|------------------|-------------------------|
|------------------|-------------------------|
|------------------|--------6h==7---6--------|
|-(0)--------------|---------------------0---|
|-(0)--0-0-0-0-0-0-|-0-0-0---------------0---|
|-(0)--0-0-0-0-0-0-|-0-0-0---------------0---|
|
|      PM----------------|
|------------------|-------------------------|
|------------------|--------5h==6---5--------|
|------------------|-------------------------|
|-(0)--------------|---------------------0---|
|-(0)--0-0-0-0-0-0-|-0-0-0---------------0---|
|-(0)--0-0-0-0-0-0-|-0-0-0---------------0---|
|
|------------------|-------(5)h(6)-(5)-------|
|------------------|-------------------------|
|------------------|-------------------------|
|------------------|-------------------------|
|------------------|-------------------------|
|------------------|-------------------------|


  D5                       N.C.
  Gtr II
       PM----------------|
|------------------|--------------------------------------------------|
|------------------|--------------------------------------------------|
|------------------|-------6h7-------6--------------------------------|
|-(0)--------------|-----------------------------------------/8-------|
|-(0)--0-0-0-0-0-0-|-0-0-0--------------------------------------------|
|-(0)--0-0-0-0-0-0-|-0-0-0--------------------------------------------|
|
| Gtr III
|      PM----------------|
|------------------|--------------------------------------------------|
|------------------|-------5h6-------5--------------------------------|
|------------------|-----------------------------------------/7-------|
|-(0)--------------|--------------------------------------------------|
|-(0)--0-0-0-0-0-0-|-0-0-0--------------------------------------------|
|-(0)--0-0-0-0-0-0-|-0-0-0--------------------------------------------|
|
| Gtr IV
|------------------|--------------------------------------------------|
|------------------|-----------5-6-5-8-5-6-5-8-5-6-5-8-5-6-5--8-5-6-5-|
|------------------|--------------------------------------------------|
|------------------|--------------------------------------------------|
|------------------|--------------------------------------------------|
|------------------|--------------------------------------------------|


  N.C.
|---------------------------------------------------------------------|
|---------------------------------------------------------------------|
|---------------------------------------------------------------------|
|-(8)-------7-------5-------7-------(7)-------5-----------------------|
|-----------------------------------------------------8-------7-------|
|---------------------------------------------------------------------|
|
|---------------------------------------------------------------------|
|---------------------------------------------------------------------|
|-(7)-------5---------------5-------(5)-------------------------------|
|-------------------8-------------------------8-------7-------5-------|
|---------------------------------------------------------------------|
|---------------------------------------------------------------------|
|
|---------------------------------------------------------------------|
|--8--5-6-5-8-5-6-5-8-5-6-5-8-5-6-5--8--5-6-5-8-5-6-5-8-5-6-5-8-5-6-5-|
|---------------------------------------------------------------------|
|---------------------------------------------------------------------|
|---------------------------------------------------------------------|
|---------------------------------------------------------------------|


                                                          D5                      N.C.
|---------------------------------------------------------------|-------------------||
|---------------------------------------------------------------|-------------------||
|-----------------------------------------7-------6-------------|-------------------||
|-------------------------5-------7-----------------------0-----|-(0)--------0------||
|-5-------7-------8---------------------------------------0-----|-(0)--------0------||
|---------------------------------------------------------0-----|-(0)--------0------||
|
|---------------------------------------------------------------|-------------------||
|-----------------------------------------6-------5-------------|-------------------||
|---------------------------------5-----------------------------|-------------------||
|---------5-------7-------8-------------------------------0-----|-(0)--------0------||
|-8-------------------------------------------------------0-----|-(0)--------0------||
|---------------------------------------------------------0-----|-(0)--------0------||
|
|---------------------------------------------------------------|-------------------||
|-8-5-6-5-8-5-6-5-8-5-6-5-8-5-6-5-8-5-6-5-8-5-6-5-8-5-6-5-8b10==|=(8)--(8)--(8)r----||
|---------------------------------------------------------------|-------------------||
|---------------------------------------------------------------|-------------------||
|---------------------------------------------------------------|-------------------||
|---------------------------------------------------------------|-------------------||


 Verse
  $
  D5                             F5                                   G5
  Gtrs II, III
     PM------------------------|          PM------------------------|
|----------------|-----------------|------------------|-----------------|
|----------------|-----------------|------------------|-----------------|
|----------------|-----------------|------------------|-----------------|
|-0--------------|---------------3-|-(3)--------------|---------------5-|
|-0--0-0-0-0-0-0-|-0-0-0-0-0-0-0-3-|-(3)--3-3-3-3-3-3-|-3-3-3-3-3-3-3-5-|
|-0--0-0-0-0-0-0-|-0-0-0-0-0-0-0-3-|-(3)--3-3-3-3-3-3-|-3-3-3-3-3-3-3-5-|


  G5             Ab5          G5Ab5D5                             F5G5 D5
       PM------|          PM|               PM------------------|
|------------------|-----------------|------------------|----------------|
|------------------|-----------------|------------------|----------------|
|------------------|-----------------|------------------|----------------|
|-(5)------------6-|-(6)------5h6--0-|-(0)--------------|---------3h5--0-|
|-(5)--5-5-5-5-5-6-|-(6)--6-6-5h6--0-|-(0)--0-0-0-0-0-0-|-0-0-0-0-3h5--0-|
|-(5)--5-5-5-5-5-6-|-(6)--6-6-5h6--0-|-(0)--0-0-0-0-0-0-|-0-0-0-0-3h5--0-|


  D5                               F5                                   G5
       PM------------------------|          PM------------------------|
|------------------|-----------------|------------------|-----------------|
|------------------|-----------------|------------------|-----------------|
|------------------|-----------------|------------------|-----------------|
|-(0)--------------|---------------3-|-(3)--------------|---------------5-|
|-(0)--0-0-0-0-0-0-|-0-0-0-0-0-0-0-3-|-(3)--3-3-3-3-3-3-|-3-3-3-3-3-3-3-5-|
|-(0)--0-0-0-0-0-0-|-0-0-0-0-0-0-0-3-|-(3)--3-3-3-3-3-3-|-3-3-3-3-3-3-3-5-|


                                                                 To Coda
  G5             Ab5          G5Ab5D5                             F5G5A5Bb5
       PM------|          PM|               PM------------------|
|------------------|-----------------|------------------|-----------------||
|------------------|-----------------|------------------|-----------------||
|------------------|-----------------|------------------|-----------------||
|-(5)------------6-|-(6)------5h6--0-|-(0)--------------|---------3h5-7-8-||
|-(5)--5-5-5-5-5-6-|-(6)--6-6-5h6--0-|-(0)--0-0-0-0-0-0-|-0-0-0-0-3h5-7-8-||
|-(5)--5-5-5-5-5-6-|-(6)--6-6-5h6--0-|-(0)--0-0-0-0-0-0-|-0-0-0-0-3h5-7-8-||


 Chorus
  Bb5                          F5                  G5           D5
  Gtrs II, III
|---------------------------------|-------------------------------------|
|---------------------------------|-------------------------------------|
|---------------------------------|-------------------------------------|
|-(8)--8--8-----8---8-------8---3-|-(3)--3-3-----3h==5------------0-----|
|-(8)--8--8-----8---8-------8---3-|-(3)--3-3-----3h==5------------0-----|
|-(8)--8--8-----8---8-------8---3-|-(3)--3-3-----3h==5------------0-----|
|
| Gtr IV
|-13-----------17-(17)b18r(17)-13-|-------------12-(12)b13r(12)-(12)b13-|
|-----13----10--------------------|-13----------------------------------|
|--------12-----------------------|-----12-9-10-------------------------|
|---------------------------------|-------------------------------------|
|---------------------------------|-------------------------------------|
|---------------------------------|-------------------------------------|


                                                                 Bb5
        PM-----------------------------------------------------|
|-----------------------------------|----------------------------------|
|-----------------------------------|----------------------------------|
|-----------------------------------|----------------------------------|
|--(0)------------------------------|-----------------------------8----|
|--(0)--0--0--0--0-------0----0---0-|--0--0--0-------0----0--0-0--8----|
|--(0)--0--0--0--0-------0----0---0-|--0--0--0-------0----0--0-0--8----|
|
|-(12)----13----12b13==(12)r(12)----|-13----12b13==(12)r(12)-----13p12-|
|------10----10------------------10-|----10----------------------------|
|-----------------------------------|----------------------------------|
|-----------------------------------|----------------------------------|
|-----------------------------------|----------------------------------|
|-----------------------------------|----------------------------------|


  Bb5                          F5         G5 D5
  Gtr II
|---------------------------------|------------||
|---------------------------------|------------||
|---------------------------------|------------||
|-(8)--8--8-----8---8-------8---3-|-----3h5--0-||
|-(8)--8--8-----8---8-------8---3-|-----3h5--0-||
|-(8)--8--8-----8---8-------8---3-|-----3h5--0-||
|
| Gtr III
|---------------------------------|------------||
|---------------------------------|------------||
|---------------------------------|------------||
|-(8)--8--8-----8---8-------8---3-|-----3h5--0-||
|-(8)--8--8-----8---8-------8---3-|-----3h5--0-||
|-(8)--8--8-----8---8-------8---3-|-----3h5--0-||
|
| Gtr IV
|-13-----------17-(17)b18r(17)----|------------||
|-----13----10-----------------13-|------------||
|--------12-----------------------|------------||
|---------------------------------|------------||
|---------------------------------|------------||
|---------------------------------|------------||


 Pre-Verse
  D5                       N.C.    D5                           N.C.    D5
       PM----------------|                  PM----------------|
|------------------|-----------------|------------------|-------------------|
|------------------|-----------------|------------------|-------------------|
|------------------|-------6h7-6-----|------------------|-------6h7-6-------|
|-(0)--------------|---------------0-|-(0)--------------|---------------0---|
|-(0)--0-0-0-0-0-0-|-0-0-0---------0-|-(0)--0-0-0-0-0-0-|-0-0-0---------0---|
|-(0)--0-0-0-0-0-0-|-0-0-0---------0-|-(0)--0-0-0-0-0-0-|-0-0-0---------0---|
|
|      PM----------------|                  PM----------------|
|------------------|-----------------|------------------|-------------------|
|------------------|-------5h6-5-----|------------------|-------5h6-5-------|
|------------------|-----------------|------------------|-------------------|
|-(0)--------------|---------------0-|-(0)--------------|---------------0---|
|-(0)--0-0-0-0-0-0-|-0-0-0---------0-|-(0)--0-0-0-0-0-0-|-0-0-0---------0---|
|-(0)--0-0-0-0-0-0-|-0-0-0---------0-|-(0)--0-0-0-0-0-0-|-0-0-0---------0---|


  D5                       N.C.
       PM----------------|
|------------------|------------------|
|------------------|------------------|
|------------------|-------6h7-6------|
|-(0)--------------|---------------/8-|
|-(0)--0-0-0-0-0-0-|-0-0-0------------|
|-(0)--0-0-0-0-0-0-|-0-0-0------------|
|
|      PM----------------|
|------------------|------------------|
|------------------|-------5h6-5------|
|------------------|---------------/7-|
|-(0)--------------|------------------|
|-(0)--0-0-0-0-0-0-|-0-0-0------------|
|-(0)--0-0-0-0-0-0-|-0-0-0------------|


                                        D.S. al Coda
  N.C.                                D5            N.C.
|---------------------|-----------------|-------------||
|---------------------|-----------------|-------------||
|---------------------|-----------7-6---|-------------||
|-(8)-7-5-7-(7)-5-----|-------5-7-----0-|-(0)----0----||
|-----------------8-7-|-5-7-8---------0-|-(0)----0----||
|---------------------|---------------0-|-(0)----0----||
|
|---------------------|-----------------|-------------||
|---------------------|-----------6-5---|-------------||
|-(7)-5---5-(5)-------|---------5-------|-------------||
|-------8-------8-7-5-|---5-7-8-------0-|-(0)----0----||
|---------------------|-8-------------0-|-(0)----0----||
|---------------------|---------------0-|-(0)----0----||


 Chorus
  $$
  &
  Bb5                          F5                  G5           D5
  Gtrs II, III
|---------------------------------|-------------------------------------|
|---------------------------------|-------------------------------------|
|---------------------------------|-------------------------------------|
|-(8)--8--8-----8---8-------8---3-|-(3)--3-3-----3h==5------------0-----|
|-(8)--8--8-----8---8-------8---3-|-(3)--3-3-----3h==5------------0-----|
|-(8)--8--8-----8---8-------8---3-|-(3)--3-3-----3h==5------------0-----|
|
| Gtr IV
|-13-----------17-(17)b18r(17)-13-|-------------12-(12)b13r(12)-(12)b13-|
|-----13----10--------------------|-13----------------------------------|
|--------12-----------------------|-----12-9-10-------------------------|
|---------------------------------|-------------------------------------|
|---------------------------------|-------------------------------------|
|---------------------------------|-------------------------------------|


                                                                 Bb5
        PM-----------------------------------------------------|
|-----------------------------------|----------------------------------|
|-----------------------------------|----------------------------------|
|-----------------------------------|----------------------------------|
|--(0)------------------------------|-----------------------------8----|
|--(0)--0--0--0--0-------0----0---0-|--0--0--0-------0----0--0-0--8----|
|--(0)--0--0--0--0-------0----0---0-|--0--0--0-------0----0--0-0--8----|
|
|-(12)----13----12b13==(12)r(12)----|-13----12b13==(12)r(12)-----13p12-|
|------10----10------------------10-|----10----------------------------|
|-----------------------------------|----------------------------------|
|-----------------------------------|----------------------------------|
|-----------------------------------|----------------------------------|
|-----------------------------------|----------------------------------|


    Bb5                          F5                  G5           D5
||----------------------------------|-------------------------------------|
||o---------------------------------|-------------------------------------|
||----------------------------------|-------------------------------------|
||--(8)--8--8-----8---8-------8---3-|-(3)--3-3-----3h==5------------0-----|
||o-(8)--8--8-----8---8-------8---3-|-(3)--3-3-----3h==5------------0-----|
||--(8)--8--8-----8---8-------8---3-|-(3)--3-3-----3h==5------------0-----|
|
||--13-----------17-(17)b18r(17)-13-|-------------12-(12)b13r(12)-(12)b13-|
||o-----13----10--------------------|-13----------------------------------|
||---------12-----------------------|-----12-9-10-------------------------|
||----------------------------------|-------------------------------------|
||o---------------------------------|-------------------------------------|
||----------------------------------|-------------------------------------|


                                                                 Bb5
        PM-----------------------------------------------------|
|-----------------------------------|-----------------------------------||
|-----------------------------------|----------------------------------o||
|-----------------------------------|-----------------------------------||
|--(0)------------------------------|-----------------------------8-----||
|--(0)--0--0--0--0-------0----0---0-|--0--0--0-------0----0--0-0--8----o||
|--(0)--0--0--0--0-------0----0---0-|--0--0--0-------0----0--0-0--8-----||
|
|-(12)----13----12b13==(12)r(12)----|-13----12b13==(12)r(12)-----13p12--||
|------10----10------------------10-|----10----------------------------o||
|-----------------------------------|-----------------------------------||
|-----------------------------------|-----------------------------------||
|-----------------------------------|----------------------------------o||
|-----------------------------------|-----------------------------------||


                                                 a Tempo Q=82
                   To Dbl. Coda
  Bb5                          F5         G5 D5
|---------------------------------|------------|--------||
|---------------------------------|------------|--------||
|---------------------------------|------------|--------||
|-(8)--8--8-----8---8-------8---3-|-----3h5--0-|-(0)----||
|-(8)--8--8-----8---8-------8---3-|-----3h5--0-|-(0)----||
|-(8)--8--8-----8---8-------8---3-|-----3h5--0-|-(0)----||
|
|-13-----------17-(17)b18r(17)----|------------|--------||
|-----13----10-----------------13-|------------|--------||
|--------12-----------------------|------------|--------||
|---------------------------------|------------|--------||
|---------------------------------|------------|--------||
|---------------------------------|------------|--------||


 Bridge
  N.C.
  Gtrs II, III
   >
|-------------------|---------------------|
|-------------------|---------------------|
|-------------------|---------------------|
|-(0)---------------|-(0)-----------------|
|-(0)---------------|-(0)-----------------|
|-(0)---------------|-(0)-----------------|
|
| Gtr I
|-------------------|---------------------|
|-------------------|---------------------|
|---------2-0---^2--|-------0-0h2-0-------|
|-----2-3-----3-^3--|-----2---------2---2-|
|--5----------------|--3--------------3---|
|-------------------|---------------------|


|-------------------|-------------------------|
|-------------------|-------------------------|
|-------------------|-------------------------|
|-(0)---------------|-------------------------|
|-(0)---------------|-------------------------|
|-(0)---------------|-------------------------|
|
|-------------------|-------------------------|
|-------------------|-6---5---8-5h6---6-(6)\--|
|---------------6---|-------------------------|
|-----5-8---7-------|---7---7-------7---------|
|-/7------7---7---7-|-------------------------|
|-------------------|-------------------------|


  N.C.                                                              Bb°/A
  Gtr I
|-----------------|-------------------|-------------------|---------------||
|-------1---------|-------------------|-------------------|---------^2----||
|-----3---3-------|-----------7-------|-----2-2h3-2-------|-----2-3-^3----||
|---0-------0---0-|-----5-5h6---6-5---|---2---------2---2-|---2-----^2----||
|-1-----------1---|---5-------------5-|-0-------------0---|-0-------^0----||
|-----------------|-5-----------------|-------------------|---------------||


    N.C.
||-------------------------|----------------------------|
||o------------------------|----------------------------|
||-----------14-12----^14--|-------12-12h14-12----------|
||-----14-15-------15-^15--|----14-------------14----14-|
||o-17---------------------|-15-------------------15----|
||-------------------------|----------------------------|


|--------------------------|----------------------------------|
|--------------------------|-18----17----20-17h18----18-(18)\-|
|--------------------18----|----------------------------------|
|-----17-20----19----------|----19----19----------19----------|
|-/19-------19----19----19-|----------------------------------|
|--------------------------|----------------------------------|


  N.C.
|-------------------------|----------------------------|
|----------13-------------|----------------------------|
|-------15----15----------|----------------19----------|
|----12----------12----12-|-------17-17h18----18-17----|
|-13----------------13----|----17-------------------17-|
|-------------------------|-17-------------------------|


                                           Bb°/A
|----------------------------|---------------------||
|----------------------------|-------------^14----o||
|-------14-14h15-14----------|-------14-15-^15-----||
|----14-------------14----14-|----14-------^14-----||
|-12-------------------12----|-12----------^12----o||
|----------------------------|---------------------||


 Interlude
  N.C.
  Gtr I
|------------------------------|--------------------------------|
|------------------------------|--------------------------------|
|-----------14-12----^14-------|--------12-12h14----12----------|
|-----14-15-------15-^15-------|-----14----------------14----14-|
|--17--------------------------|--15----------------------15----|
|------------------------------|--------------------------------|
|
| Gtr IV
|--/5------------------------5-|--/8-----------8s10--5----------|
|-------------------------8----|--------------------------------|
|------------------------------|--------------------------------|
|------------------------------|--------------------------------|
|------------------------------|--------------------------------|
|------------------------------|--------------------------------|
|
| Gtr V
|------------------------------|-/12----------12-13-------------|
|-/13--------------------10-13-|--------------------13----------|
|------------------------------|--------------------------------|
|------------------------------|--------------------------------|
|------------------------------|--------------------------------|
|------------------------------|--------------------------------|


|-----------------------------|---------------------------------------|
|-----------------------------|-18----17----20-17h18-------18-(18)\---|
|--------------------18-------|---------------------------------------|
|-----17-20----19-------------|----19----19----------19---------------|
|-/19-------19----19----19----|---------------------------------------|
|-----------------------------|---------------------------------------|
|
|-----------------------------|---------------------------------------|
|--/5-----------------------5-|--------6-----6--------8p=6--5---------|
|------------------------7----|--7------------------------------------|
|-----------------------------|---------------------------------------|
|-----------------------------|---------------------------------------|
|-----------------------------|---------------------------------------|
|
|-----------------------------|---------------------------------------|
|-----------------------------|-------10----10-------11p10------------|
|-/12-------------------10-12-|-10-------------------------12---------|
|-----------------------------|---------------------------------------|
|-----------------------------|---------------------------------------|
|-----------------------------|---------------------------------------|


  N.C.
|-----------------------------|-------------------------------|
|-----------13----------------|-------------------------------|
|--------15----15-------------|-------------------19----------|
|-----12----------12----12----|--------17---17h18----18-17----|
|--13----------------13-------|----17----------------------17-|
|-----------------------------|-17----------------------------|
|
|--/6--------------------6--5-|-------------------------------|
|-----------------------------|--8-----(8)\-------/5-----6----|
|-----------------------------|-------------------------------|
|-----------------------------|-------------------------------|
|-----------------------------|-------------------------------|
|-----------------------------|-------------------------------|
|
|-/10-------------------10----|-------------------------------|
|--------------------------13-|-11----(11)\-------------------|
|-----------------------------|--------------------9----10----|
|-----------------------------|-------------------------------|
|-----------------------------|-------------------------------|
|-----------------------------|-------------------------------|


                                           Bb°/A
|----------------------------|--------------------||
|----------------------------|-------------^14----||
|-------14-14h15-14----------|-------14-15-^15----||
|----14-------------14----14-|----14-------^14----||
|-12-------------------12----|-12----------^12----||
|----------------------------|--------------------||
|
|-/5-------------------------|-/9-----------------||
|----------------------------|--------------------||
|----------------------------|--------------------||
|----------------------------|--------------------||
|----------------------------|--------------------||
|----------------------------|--------------------||
|
|--9-------------------------|-12-----------------||
|----------------------------|--------------------||
|----------------------------|--------------------||
|----------------------------|--------------------||
|----------------------------|--------------------||
|----------------------------|--------------------||


   Breakdown
    D5                                  N.C.
    Gtrs IV, V
            ~          ~            ~
||-------------------------|-----------------------------------||
||o------------------------|-----------------8---10---8-(8)\--o||
||-------------------------|------------/6-9---9----9----------||
||--0-0-------0--0-------0-|--0--------------5----7---5-(5)\---||
||o-0-0--/5---0--0--/7---0-|--0--/8-----/4-7---7----7---------o||
||--0-0-----6-0--0-----6-0-|--0-----7-0------------------------||


  D5                                       N.C.
  Gtrs IV, V
           ~            ~              ~
|---------------------------|---------------------------------------|
|---------------------------|----------------------8---10----8-(8)\-|
|---------------------------|--------------/6----9---9-----9--------|
|--0-0-------0----0-------0-|----0-----------------5----7----5-(5)\-|
|--0-0--/5---0----0--/7---0-|----0--/8-----/4----7---7-----7--------|
|--0-0-----6-0----0-----6-0-|----0-----7-0--------------------------|
|
| Gtr II
|  ~~~~~~~~~~~~~~~~~~~~~~~~~~~~~~~~~~~~~~~~~~~~~~~~~~~~~~~~
|-13-----------12-----------|-10------------8b9--------(8)----------|
|---------------------------|---------------------------------------|
|---------------------------|---------------------------------------|
|---------------------------|---------------------------------------|
|---------------------------|---------------------------------------|
|---------------------------|---------------------------------------|
|
| Gtr III
|  ~~~~~~~~~~~~~~~~~~~~~~~~~~~~~~~~~~~~~~~~~~~~~~~~~~~~~~~~
|-10------------9-----------|---------------------------------------|
|---------------------------|-11------------9b10-------(9)----------|
|---------------------------|---------------------------------------|
|---------------------------|---------------------------------------|
|---------------------------|---------------------------------------|
|---------------------------|---------------------------------------|


  D5                                       N.C.
           ~            ~              ~
|---------------------------|------------------------------------------|
|---------------------------|------------------------8----10----8-(8)\-|
|---------------------------|--------------/6------9---9------9--------|
|--0-0-------0----0-------0-|----0-------------------5-----7----5-(5)\-|
|--0-0--/5---0----0--/7---0-|----0--/8-----/4------7---7------7--------|
|--0-0-----6-0----0-----6-0-|----0-----7-0-----------------------------|
|
|  ~~~~~~~~~~~~~~~~~~~~~~~~~~~~~~~~~~~~~~~~~~~~~~~~~~~~~~~~~~~
|-13-----------12-----------|-10-----------20b21.5-------(20)----------|
|---------------------------|------------------------------------------|
|---------------------------|------------------------------------------|
|---------------------------|------------------------------------------|
|---------------------------|------------------------------------------|
|---------------------------|------------------------------------------|
|
|  ~~~~~~~~~~~~~~~~~~~~~~~~~~~~~~~~~~~~~~~~~~~~~~~~~~~~~~~~~~~
|-10------------9-----------|------------------------------------------|
|---------------------------|-11-----------21b22---------(21)----------|
|---------------------------|------------------------------------------|
|---------------------------|------------------------------------------|
|---------------------------|------------------------------------------|
|---------------------------|------------------------------------------|


  a Tempo Q=165
  D5                     N.C.
  Gtr II
|----------------|------------------|---------------------|-----------------||
|----------------|------------------|---------------------|-----------------||
|----------------|------------------|---------------------|-----------7-6-0-||
|----------------|---------------/8-|-(8)-7-5-7-(7)-5-----|-------5-7-------||
|----------------|------------------|-----------------8-7-|-5-7-8-----------||
|----------------|------------------|---------------------|-----------------||
|
| Gtr III
|    PM----------------|
|----------------|------------------|---------------------|-----------------||
|----------------|------------------|---------------------|-----------6-5-0-||
|----------------|-------6h7-6---/7-|-(7)-5---5-(5)-------|---------5-------||
|-0--------------|------------------|-------8-------8-7-5-|---5-7-8---------||
|-0--0-0-0-0-0-0-|-0-0-0------------|---------------------|-8---------------||
|-0--0-0-0-0-0-0-|-0-0-0------------|---------------------|-----------------||


   Breakdown
    N.C.
    TP TP TP TP   TP TP TP TP   TP TP TP TP   TP TP TP TP
||--------------|-------------|-------------|---------------||
||o-------------|-------------|-------------|--------------o||
||--------------|-------5-----|-------------|---------------||
||-----7--5--7--|----7-----7--|----5--3--2--|----3-----2----||
||o-5-----------|-8-----------|-3-----------|-1-----0------o||
||--------------|-------------|-------------|---------------||
|
|   TP TP TP TP   TP TP TP TP   TP TP TP TP   TP TP TP TP
||--------------|-------------|-------------|---------------||
||o-------------|-------6-----|-------------|--------------o||
||-----5--3--5--|----5-----5--|----3--2--0--|---------------||
||--3-----------|-7-----------|-2-----------|----7-----5----||
||o-------------|-------------|-------------|-5-----4------o||
||--------------|-------------|-------------|---------------||


                      D.S.S. al Dbl. Coda
  D5              N.C.                   Bb5
  PM----|     PM|
|--------------------|---------------------||
|--------------------|---------------------||
|--------------------|---------------------||
|---------0-------/8-|-(8)-7-5-----------8-||
|-0-0-0-0-0---0-0----|---------8-(8)-7-4-8-||
|-0-0-0-0-0---0-0----|-------------------8-||
|
| PM----|     PM|
|--------------------|---------------------||
|--------------------|---------------------||
|-----------------/7-|-(7)-5---------------||
|---------0----------|-------8-7-(7)-5---8-||
|-0-0-0-0-0---0-0----|-----------------7-8-||
|-0-0-0-0-0---0-0----|-------------------8-||


  &&
  N.C.F5 G5           D5
  Gtrs II, III
|----------------------------|
|----------------------------|
|----------------------------|
|------3h==5-----------0-----|
|------3h==5-----------0-----|
|------3h==5-----------0-----|
|
| Gtr IV
|-----17-(17)b18-(17)--------|
|---------------------17b18==|
|----------------------------|
|----------------------------|
|----------------------------|
|----------------------------|


                                                           Bb5
       PM--------------------------------------------|
|--------------------------------|----------------------------||
|--------------------------------|----------------------------||
|--------------------------------|----------------------------||
|--(0)---------------------------|--------------------------8-||
|--(0)-0---0--0-0-0---0----0-----|---0--0---0--0-0-0---0----8-||
|--(0)-0---0--0-0-0---0----0-----|---0--0---0--0-0-0---0----8-||
|
|--------------------------------|-------------------------12-||
|-(17)---(17)-------(17)r--------|----------------------------||
|-------------------------17b19==|=(17)---(17)-------(17)r----||
|--------------------------------|----------------------------||
|--------------------------------|----------------------------||
|--------------------------------|----------------------------||


   Breakdown Chorus
    Bb5                          F5                  G5           D5
||----------------------------------|-------------------------------------|
||o---------------------------------|-------------------------------------|
||----------------------------------|-------------------------------------|
||--(8)--8--8--8--8---8-------8---3-|-(3)--3-3--3--3h==5------(5)---0-----|
||o-(8)--8--8--8--8---8-------8---3-|-(3)--3-3--3--3h==5------(5)---0-----|
||--(8)--8--8--8--8---8-------8---3-|-(3)--3-3--3--3h==5------(5)---0-----|
|
||--13-----------17-(17)b18r(17)-13-|-------------12-(12)b13r(12)-(12)b13-|
||o-----13----10--------------------|-13----------------------------------|
||---------12-----------------------|-----12-9-10-------------------------|
||----------------------------------|-------------------------------------|
||o---------------------------------|-------------------------------------|
||----------------------------------|-------------------------------------|


                                                                 Bb5
                                                                        3x
|-----------------------------------|-----------------------------------||
|-----------------------------------|----------------------------------o||
|-----------------------------------|-----------------------------------||
|--(0)--0--0--0--0-------0----0---0-|--0--0--0-------0----0--0-0--8-----||
|--(0)--0--0--0--0-------0----0---0-|--0--0--0-------0----0--0-0--8----o||
|--(0)--0--0--0--0-------0----0---0-|--0--0--0-------0----0--0-0--8-----||
|
|                                                                       3x
|-(12)----13----12b13==(12)r(12)----|-13----12b13==(12)r(12)-----13p12--||
|------10----10------------------10-|----10----------------------------o||
|-----------------------------------|-----------------------------------||
|-----------------------------------|-----------------------------------||
|-----------------------------------|----------------------------------o||
|-----------------------------------|-----------------------------------||


  Bb5                          F5              G5           D5
|---------------------------------|--------------------------------|
|---------------------------------|--------------------------------|
|---------------------------------|--------------------------------|
|-(8)--8--8--8--8---8-------8---3-|----------3h==5-----------0-----|
|-(8)--8--8--8--8---8-------8---3-|----------3h==5-----------0-----|
|-(8)--8--8--8--8---8-------8---3-|----------3h==5-----------0-----|
|
|-13-----------17-(17)b18r(17)-13-|-(13)----17-(17)b18-(17)--------|
|-----13----10--------------------|-------------------------17b18==|
|--------12-----------------------|--------------------------------|
|---------------------------------|--------------------------------|
|---------------------------------|--------------------------------|
|---------------------------------|--------------------------------|


|-----------------|-------------------||
|-----------------|-------------------||
|-----------------|-------------------||
|--(0)------------|--(0)--------------||
|--(0)------------|--(0)--------------||
|--(0)------------|--(0)--------------||
|
|         ~~~~~~~~~~~~~~~
|-----------------|-------------------||
|-(17)--(17)------|-(17)------(17)r\--||
|-----------------|-------------------||
|-----------------|-------------------||
|-----------------|-------------------||
|-----------------|-------------------||


   Interlude
    G5      F5G5  Bb5         F5       D5  Eb5
    Gtr IV
                                              PM
||--------------|-----------|------------|------------|
||o-------------|-----------|------------|------------|
||--------------|-----------|------------|------------|
||--/5------3-5-|-/8--------|-3------3-0-|-1-----1----|
||o-/5------3-5-|-/8--------|-3------3-0-|-1--1--1----|
||--/5------3-5-|-/8--------|-3------3-0-|-1--1--1----|
|
|   Gtrs II, III
||--------------|-----------|------------|------------|
||o-/3------1-3-|-/6--------|-1----------|------------|
||--/3------2-3-|-/7--------|-2------3-2-|-3--2--0----|
||--------------|-----------|--------5-4-|-5--4--1----|
||o-------------|-----------|------------|------------|
||--------------|-----------|------------|------------|


  Eb5                          D5
      PM--------------------------------------------|
|--------------|-------------|-------------|-----------------||
|--------------|-------------|-------------|----------------o||
|--------------|-------------|-------------|-----------------||
|-1------------|-------------|-------------|------------0----||
|-1---1--1--1--|-1--1--1--1--|-0--0--0--0--|--0--0---0--0---o||
|-1---1--1--1--|-1--1--1--1--|-0--0--0--0--|--0--0---0--0----||
|
|--------------|-------------|-------------|--------/3--2----||
|--------------|-3-----------|-------------|-/4--3--/4--3---o||
|-0---3--2--3--|-3--3--2--0--|----0--2--3--|-/3--2-----------||
|-1--/5--4--5--|----5--4--1--|-4--1--4--5--|-----------------||
|--------------|-------------|-5-----------|----------------o||
|--------------|-------------|-------------|-----------------||


 Guitar Solo/Outro
  G5      F5G5  Bb5             F5              D5
  Gtr IV
|-------------|---------------|--------------------|
|-------------|---------------|--------------------|
|-------------|---------------|--------------------|
|-/5------3-5-|-/8------------|--3------------3--0-|
|-/5------3-5-|-/8------------|--3------------3--0-|
|-/5------3-5-|-/8------------|--3------------3--0-|
|
| Gtrs II, III
|-------------|---------------|--------------------|
|-/3------1-3-|-/6------------|--1-----------------|
|-/3------2-3-|-/7------------|--2------------3--2-|
|-------------|---------------|---------------5--4-|
|-------------|---------------|--------------------|
|-------------|---------------|--------------------|
|
| Gtr V
|-------------|---------------|--------------------|
|-------------|---------------|--------------------|
|--7------5-7s|=10------10----|-10----(10)\--12-10-|
|-------------|------------12-|--------------------|
|-------------|---------------|--------------------|
|-------------|---------------|--------------------|


  Eb5
            PM
|--------------------------------------------|
|--------------------------------------------|
|--------------------------------------------|
|--1--------------------1--------------------|
|--1--------1-----------1--------------------|
|--1--------1-----------1--------------------|
|
|--------------------------------------------|
|--------------------------------------------|
|--3--------2-----------0--------------------|
|--5--------4-----------1--------------------|
|--------------------------------------------|
|--------------------------------------------|
|
|--------------------------------------------|
|--------------------------------------------|
|-12b14===(12)-(12)r10-12b15===(12)-(12)r10--|
|--------------------------------------------|
|--------------------------------------------|
|--------------------------------------------|


  Eb5
        PM-------------------------------------------------------
|-------------------------|-------------------------------------|
|-------------------------|-------------------------------------|
|-------------------------|-------------------------------------|
|--1----------------------|-------------------------------------|
|--1----1------1-----1----|--1-----1-----------1--------1-------|
|--1----1------1-----1----|--1-----1-----------1--------1-------|
|
|-------------------------|-------------------------------------|
|-------------------------|--3----------------------------------|
|--0----3------2-----3----|--3-----3-----------2--------0-------|
|--1---/5------4-----5----|--------5-----------4--------1-------|
|-------------------------|-------------------------------------|
|-------------------------|-------------------------------------|
|
|-------------------------|----------------------------10-11-13-|
|-------------------10-11-|-10----10-11-10-11p10-11-13----------|
|-12--(12)\--/12-12-------|----12-------------------------------|
|-------------------------|-------------------------------------|
|-------------------------|-------------------------------------|
|-------------------------|-------------------------------------|


  D5
 ---------------------------------------|
|-------------------------|---------------------------|
|-------------------------|---------------------------|
|-------------------------|---------------------------|
|-------------------------|--------------------0------|
|--0-----0-----0-----0----|--0-----0-----0-----0------|
|--0-----0-----0-----0----|--0-----0-----0-----0------|
|
|-------------------------|-------------/3-----2------|
|-------------------------|-/4-----3----/4-----3------|
|--------0-----2-----3----|-/3-----2------------------|
|--4-----1-----4-----5----|---------------------------|
|--5----------------------|---------------------------|
|-------------------------|---------------------------|
|
|                            PM    PM    PM------|
|-14-11-------------------|---------------------------|
|-------13-10-11-10----10-|---------------------------|
|-------------------11----|---------------------------|
|-------------------------|-12p10-12p10----10---------|
|-------------------------|-------------13----13-12---|
|-------------------------|---------------------------|


  G5                F5 G5   Bb5
|-------------------------|-----------------------|
|-------------------------|-----------------------|
|-------------------------|-----------------------|
|-/5-----------------3--5-|-/8--------------------|
|-/5-----------------3--5-|-/8--------------------|
|-/5-----------------3--5-|-/8--------------------|
|
|-------------------------|-----------------------|
|-/3-----------------1--3-|-/6--------------------|
|-/3-----------------2--3-|-/7--------------------|
|-------------------------|-----------------------|
|-------------------------|-----------------------|
|-------------------------|-----------------------|
|
|                            ~~
|-------------------------|-----------------18----|
|----------------10-11-13s|=15----(15)\-/15----15-|
|------------/12----------|-----------------------|
|-------------------------|-----------------------|
|-13--(13)\---------------|-----------------------|
|-------------------------|-----------------------|


  F5                 D5   Eb5
                              PM
|-----------------------|-----------------------------|
|-----------------------|-----------------------------|
|-----------------------|-----------------------------|
|--3---------------3--0-|--1------1-------------------|
|--3---------------3--0-|--1--1---1-------------------|
|--3---------------3--0-|--1--1---1-------------------|
|
|-----------------------|-----------------------------|
|--1--------------------|-----------------------------|
|--2---------------3--2-|--3--2---0-------------------|
|------------------5--4-|--5--4---1-------------------|
|-----------------------|-----------------------------|
|-----------------------|-----------------------------|
|
|  ~~
|-17----(17)\-----20----|-18-----17b18===(17)r(17)-15-|
|-------------/16----16-|-----------------------------|
|-----------------------|-----------------------------|
|-----------------------|-----------------------------|
|-----------------------|-----------------------------|
|-----------------------|-----------------------------|


  Eb5
            PM-----------------------------------------------
|------------------------------|----------------------------|
|------------------------------|----------------------------|
|------------------------------|----------------------------|
|--1---------------------------|----------------------------|
|--1--------1-----1-------1----|--1-----1-----1--------1----|
|--1--------1-----1-------1----|--1-----1-----1--------1----|
|
|------------------------------|----------------------------|
|------------------------------|--3-------------------------|
|--0--------3-----2-------3----|--3-----3-----2--------0----|
|--1-------/5-----4-------5----|--------5-----4--------1----|
|------------------------------|----------------------------|
|------------------------------|----------------------------|
|
|           ~~~~
|------------------------------|----------------------------|
|-18b20===(18)--(18)r\--/18-15-|----------------------------|
|------------------------------|-15-14-12-15-14-(14)\-------|
|------------------------------|-------------------------15-|
|------------------------------|----------------------17----|
|------------------------------|----------------------------|


  D5
 ------------------------------------------------------------------|
|----------------------------------------|---------------------------------------------------|
|----------------------------------------|---------------------------------------------------|
|----------------------------------------|---------------------------------------------------|
|----------------------------------------|--------------------------------------0------------|
|--0--------0--------0-----------0-------|--0-----------0-----------0-----------0------------|
|--0--------0--------0-----------0-------|--0-----------0-----------0-----------0------------|
|
|----------------------------------------|-------------------------/3-----------2------------|
|----------------------------------------|-/4-----------3----------/4-----------3------------|
|-----------0--------2-----------3-------|-/3-----------2------------------------------------|
|--4--------1--------4-----------5-------|---------------------------------------------------|
|--5-------------------------------------|---------------------------------------------------|
|----------------------------------------|---------------------------------------------------|
|
|----------------------------------------|-------------------------------------------15-17---|
|----------------------------------------|----------------------------------15-16-18---------|
|-------------------14-15-14----14-15-17s|=20----------14-15-17-12-14-15s17------------------|
|-16-15----15-16-17----------17----------|----13-15-17---------------------------------------|
|-------17-------------------------------|---------------------------------------------------|
|----------------------------------------|---------------------------------------------------|


  G5              F5 G5   Bb5
|-----------------------|--------------------|
|-----------------------|--------------------|
|-----------------------|--------------------|
|-/5---------------3--5-|-/8-----------------|
|-/5---------------3--5-|-/8-----------------|
|-/5---------------3--5-|-/8-----------------|
|
|-----------------------|--------------------|
|-/3---------------1--3-|-/6-----------------|
|-/3---------------2--3-|-/7-----------------|
|-----------------------|--------------------|
|-----------------------|--------------------|
|-----------------------|--------------------|
|
|  ~~
|-18----(18)\-----18----|-20b22===(20)r------|
|-------------/18----18-|--------------------|
|-----------------------|--------------------|
|-----------------------|--------------------|
|-----------------------|--------------------|
|-----------------------|--------------------|


  F5                                     D5     Eb5
                                                         PM
|---------------------------------------------|-------------------|
|---------------------------------------------|-------------------|
|---------------------------------------------|-------------------|
|--3--------------------------------3----0----|--1-----------1----|
|--3--------------------------------3----0----|--1-------1---1----|
|--3--------------------------------3----0----|--1-------1---1----|
|
|---------------------------------------------|-------------------|
|--1------------------------------------------|-------------------|
|--2--------------------------------3----2----|--3-------2---0----|
|-----------------------------------5----4----|--5-------4---1----|
|---------------------------------------------|-------------------|
|---------------------------------------------|-------------------|
|
|-17-(17)b18-(17)-(17)b18-(17)----------------|-------------------|
|---------------------------------------------|-18b20--(18)-------|
|-------------------------------------14---15-|-------------------|
|----------------------------------15---------|-------------------|
|------------------------------/17------------|-------------------|
|---------------------------------------------|-------------------|


  Eb5
            PM--------------------------------------------------------
|-------------------------------|------------------------------------|
|-------------------------------|------------------------------------|
|-------------------------------|------------------------------------|
|--1----------------------------|------------------------------------|
|--1--------1------1------1-----|-1--------1--------1--------1-------|
|--1--------1------1------1-----|-1--------1--------1--------1-------|
|
|-------------------------------|------------------------------------|
|-------------------------------|-3----------------------------------|
|--0--------3------2------3-----|-3--------3--------2--------0-------|
|--1-------/5------4------5-----|----------5--------4--------1-------|
|-------------------------------|------------------------------------|
|-------------------------------|------------------------------------|
|
|-15p10----10s8----8----8s6---6-|---------------11-13-11-10----------|
|-------------------------------|------13----13-------------13-11-10-|
|-------12------10---10-----7---|-8s10----10-------------------------|
|-------------------------------|------------------------------------|
|-------------------------------|------------------------------------|
|-------------------------------|------------------------------------|


  D5
 ---------------------------------------------------------|
|-------------------------------------|----------------------------------------|
|-------------------------------------|----------------------------------------|
|-------------------------------------|----------------------------------------|
|-------------------------------------|-----------------------------0----------|
|--0--------0--------0--------0-------|--0--------0--------0--------0----------|
|--0--------0--------0--------0-------|--0--------0--------0--------0----------|
|
|-------------------------------------|-------------------/3--------2----------|
|-------------------------------------|-/4--------3-------/4--------3----------|
|-----------0--------2--------3-------|-/3--------2----------------------------|
|--4--------1--------4--------5-------|----------------------------------------|
|--5----------------------------------|----------------------------------------|
|-------------------------------------|----------------------------------------|
|
|-17p14----14s10----10----------10-14-|----------------------------------------|
|-------------------------------------|-10-11----------------------------------|
|-------15-------11----11-11-11-------|-------11-12----------------------14----|
|-------------------------------------|-------------11-12-------12-15-16-------|
|-------------------------------------|-------------------12-13----------------|
|-------------------------------------|----------------------------------------|


  G5              F5 G5   Bb5
|-----------------------|--------------------|
|-----------------------|--------------------|
|-----------------------|--------------------|
|-/5---------------3--5-|-/8-----------------|
|-/5---------------3--5-|-/8-----------------|
|-/5---------------3--5-|-/8-----------------|
|
|-----------------------|--------------------|
|-/3---------------1--3-|-/6-----------------|
|-/3---------------2--3-|-/7-----------------|
|-----------------------|--------------------|
|-----------------------|--------------------|
|-----------------------|--------------------|
|
|  ~~
|-----------------------|--------------------|
|-----------------------|-18b20--(18)--------|
|-----------------15----|-----------------17-|
|-17----(17)\-/17----17-|--------------------|
|-----------------------|--------------------|
|-----------------------|--------------------|


  F5                         D5    Eb5
                                             PM
|--------------------------------|-------------------------------|
|--------------------------------|-------------------------------|
|--------------------------------|-------------------------------|
|--3---------------------3-----0-|--1-----------------1----------|
|--3---------------------3-----0-|--1--------1--------1----------|
|--3---------------------3-----0-|--1--------1--------1----------|
|
|--------------------------------|-------------------------------|
|--1-----------------------------|-------------------------------|
|--2---------------------3-----2-|--3--------2--------0----------|
|------------------------5-----4-|--5--------4--------1----------|
|--------------------------------|-------------------------------|
|--------------------------------|-------------------------------|
|
|                  ~~~~                               ~~
|-17b18===(17)r--(17)--(17)\-/17-|-18p17-------------------------|
|--------------------------------|-------18----------------------|
|--------------------------------|----------17-15-14-15--(15)\---|
|--------------------------------|-------------------------------|
|--------------------------------|-------------------------------|
|--------------------------------|-------------------------------|


  Eb5
            PM------------------------------------------
|----------------------|-------------------------------|
|----------------------|-------------------------------|
|----------------------|-------------------------------|
|--1-------------------|-------------------------------|
|--1--------1----1--1--|--1------1-------1--1----------|
|--1--------1----1--1--|--1------1-------1--1----------|
|
|----------------------|-------------------------------|
|----------------------|--3----------------------------|
|--0--------3----2--3--|--3------3-------2--0----------|
|--1-------/5----4--5--|---------5-------4--1----------|
|----------------------|-------------------------------|
|----------------------|-------------------------------|
|
|-17b18===(17)r--------|-18b20=====(18)r------[20]pb22r|
|----------------------|-------------------------------|
|----------------------|-------------------------------|
|----------------------|-------------------------------|
|----------------------|-------------------------------|
|----------------------|-------------------------------|


  D5
 --------------------------------------------------|
|------------------------|----------------------------------------|
|------------------------|----------------------------------------|
|------------------------|----------------------------------------|
|------------------------|-----------------------------------0----|
|---0-------0----0----0--|--0-----------0------------0-------0----|
|---0-------0----0----0--|--0-----------0------------0-------0----|
|
|------------------------|--------------------------/3-------2----|
|------------------------|-/4-----------3-----------/4-------3----|
|-----------0----2----3--|-/3-----------2-------------------------|
|---4-------1----4----5--|----------------------------------------|
|---5--------------------|----------------------------------------|
|------------------------|----------------------------------------|
|
|-(20)b22======(20)r-----|-17-(17)b18-(17)-(17)b18-(17)-----------|
|------------------------|------------------------------15-(15)---|
|------------------------|----------------------------------------|
|------------------------|----------------------------------------|
|------------------------|----------------------------------------|
|------------------------|----------------------------------------|


  H.=H
  G5                              F5    G5     Bb5
   \0.25___________________________________________________________________
|--------------------------------------------|----------------------------|
|--------------------------------------------|----------------------------|
|--------------------------------------------|----------------------------|
|-/5-------------------------------3----5----|--/8------------------------|
|-/5-------------------------------3----5----|--/8------------------------|
|-/5-------------------------------3----5----|--/8------------------------|
|
|  \0.25___________________________________________________________________
|--------------------------------------------|----------------------------|
|-/3-------------------------------1----3----|--/6------------------------|
|-/3-------------------------------2----3----|--/7------------------------|
|--------------------------------------------|----------------------------|
|--------------------------------------------|----------------------------|
|--------------------------------------------|----------------------------|
|
|  \0.25___________________________________________________________________
|-15------18-15----18-15---------------------|----------------------------|
|---------------18-------18-15------------18-|-(18)----/16-16-15----------|
|------------------------------17-15-17------|-------------------17-15-17-|
|--------------------------------------------|----------------------------|
|--------------------------------------------|----------------------------|
|--------------------------------------------|----------------------------|


  F5                             D5       Eb5
                                                     PM
|---------------------------------------|----------------------------------|
|---------------------------------------|----------------------------------|
|---------------------------------------|----------------------------------|
|---3-----------------------3-----0-----|---1------------1-----------------|
|---3-----------------------3-----0-----|---1--------1---1-----------------|
|---3-----------------------3-----0-----|---1--------1---1-----------------|
|
|---------------------------------------|----------------------------------|
|---1-----------------------------------|----------------------------------|
|---2-----------------------3-----2-----|---3--------2---0-----------------|
|---------------------------5-----4-----|---5--------4---1-----------------|
|---------------------------------------|----------------------------------|
|---------------------------------------|----------------------------------|
|
|--------------------------15-17-18b20==|=(18)r-18-(18)-----(18)-/18-15----|
|-----------------15-16-18--------------|----------------------------------|
|-(17)---14-15-17-----------------------|----------------------------------|
|---------------------------------------|----------------------------------|
|---------------------------------------|----------------------------------|
|---------------------------------------|----------------------------------|


  Eb5
               PM----------------------------------
|-------------------------------------------------|
|-------------------------------------------------|
|-------------------------------------------------|
|--1----------------------------------------------|
|--1-----------1-----------1-----------1----------|
|--1-----------1-----------1-----------1----------|
|
|-------------------------------------------------|
|-------------------------------------------------|
|--0-----------3-----------2-----------3----------|
|--1----------/5-----------4-----------5----------|
|-------------------------------------------------|
|-------------------------------------------------|
|
|-18-15----18-18-15-------------------------------|
|-------18----------18-15----15-18-15-------------|
|-------------------------17----------18-17-15----|
|----------------------------------------------17-|
|-------------------------------------------------|
|-------------------------------------------------|


                                                    D5
                                                                             |
 ------------------------------------------------------------------------|
|-------------------------------------------------|-------------|-----------------|
|-------------------------------------------------|-------------|-----------------|
|-------------------------------------------------|-------------|-----------------|
|-------------------------------------------------|-------------|------------0----|
|--1-----------1-----------1-----------1----------|-0--0--0--0--|--0--0---0--0----|
|--1-----------1-----------1-----------1----------|-0--0--0--0--|--0--0---0--0----|
|
|                                                                            |
|-------------------------------------------------|-------------|--------/3--2----|
|--3----------------------------------------------|-------------|-/4--3--/4--3----|
|--3-----------3-----------2-----------0----------|----0--2--3--|-/3--2-----------|
|--------------5-----------4-----------1----------|-4--1--4--5--|-----------------|
|-------------------------------------------------|-5-----------|-----------------|
|-------------------------------------------------|-------------|-----------------|
|
|-20-15-20-15-------------------------------------|-------------|-----------------|
|-------------18-15----15-18-15-------------------|-------------|-----------------|
|-------------------17----------18-17-15----15-17-|-------------|-----------------|
|----------------------------------------17-------|-------------|-----------------|
|-------------------------------------------------|-------------|-----------------|
|-------------------------------------------------|-------------|-----------------|


  G5          F5G5  Bb5         F5       D5  Eb5
  Gtr IV
   \0.5__________________________________________________
                                                PM
|-----------------|-----------|------------|------------|
|-----------------|-----------|------------|------------|
|-----------------|-----------|------------|------------|
|-/5----------3-5-|-/8--------|-3------3-0-|-1-----1----|
|-/5----------3-5-|-/8--------|-3------3-0-|-1--1--1----|
|-/5----------3-5-|-/8--------|-3------3-0-|-1--1--1----|
|
| Gtrs II, III
|  \0.5__________________________________________________
|-----------------|-----------|------------|------------|
|-/3----------1-3-|-/6--------|-1----------|------------|
|-/3----------2-3-|-/7--------|-2------3-2-|-3--2--0----|
|-----------------|-----------|--------5-4-|-5--4--1----|
|-----------------|-----------|------------|------------|
|-----------------|-----------|------------|------------|


  Eb5                          D5
                                                        |
      PM--------------------------------------------|
|--------------|-------------|-------------|----------------|
|--------------|-------------|-------------|----------------|
|--------------|-------------|-------------|----------------|
|-1------------|-------------|-------------|------------0---|
|-1---1--1--1--|-1--1--1--1--|-0--0--0--0--|--0--0---0--0---|
|-1---1--1--1--|-1--1--1--1--|-0--0--0--0--|--0--0---0--0---|
|
|                                                       |
|--------------|-------------|-------------|--------/3--2---|
|--------------|-3-----------|-------------|-/4--3--/4--3---|
|-0---3--2--3--|-3--3--2--0--|----0--2--3--|-/3--2----------|
|-1--/5--4--5--|----5--4--1--|-4--1--4--5--|----------------|
|--------------|-------------|-5-----------|----------------|
|--------------|-------------|-------------|----------------|


  G5        F5G5  Bb5         F5       D5  Eb5
   \1__________________________________________________
                                              PM
|---------------|-----------|------------|------------|
|---------------|-----------|------------|------------|
|---------------|-----------|------------|------------|
|-/5--------3-5-|-/8--------|-3------3-0-|-1-----1----|
|-/5--------3-5-|-/8--------|-3------3-0-|-1--1--1----|
|-/5--------3-5-|-/8--------|-3------3-0-|-1--1--1----|
|
|  \1__________________________________________________
|---------------|-----------|------------|------------|
|-/3--------1-3-|-/6--------|-1----------|------------|
|-/3--------2-3-|-/7--------|-2------3-2-|-3--2--0----|
|---------------|-----------|--------5-4-|-5--4--1----|
|---------------|-----------|------------|------------|
|---------------|-----------|------------|------------|


  Eb5                          D5
                                                        |
      PM--------------------------------------------|
|--------------|-------------|-------------|----------------*|
|--------------|-------------|-------------|----------------*|
|--------------|-------------|-------------|----------------*|
|-1------------|-------------|-------------|------------0---*|
|-1---1--1--1--|-1--1--1--1--|-0--0--0--0--|--0--0---0--0---*|
|-1---1--1--1--|-1--1--1--1--|-0--0--0--0--|--0--0---0--0---*|
|
|                                                       |
|--------------|-------------|-------------|--------/3--2---*|
|--------------|-3-----------|-------------|-/4--3--/4--3---*|
|-0---3--2--3--|-3--3--2--0--|----0--2--3--|-/3--2----------*|
|-1--/5--4--5--|----5--4--1--|-4--1--4--5--|----------------*|
|--------------|-------------|-5-----------|----------------*|
|--------------|-------------|-------------|----------------*|



Tablature Legend
----------------
 h   - hammer-on
 p   - pull-off
 b   - bend
 pb  - pre-bend
 r   - bend release (if no number after the r, then release immediately)
 /\  - slide into or out of (from/to "nowhere")
 s   - legato slide
 S   - shift slide
 - natural harmonic
[n]  - artificial harmonic
n(n) - tapped harmonic
 ~   - vibrato
 tr  - trill
 T   - tap
 TP  - trem. picking
 PM  - palm muting
\n/  - tremolo bar dip; n = amount to dip
 \n  - tremolo bar down
 n/  - tremolo bar up
/n\  - tremolo bar inverted dip
 =   - hold bend; also acts as connecting device for hammers/pulls
 <> - volume swell (louder/softer)
 x   - on rhythm slash represents muted slash
 o   - on rhythm slash represents single note slash
comments
print report bad tab
11 comments total. Showing first comments.
0 reply
funeralforafrie wrote on May 26 2005, 12:00 am

***ing long. ***ing good.

0 reply
xxswooshxx wrote on February 7 2006, 12:00 pm

great tab especially the solo at the end of the song, i bet that was hard to tab.

0 reply
pHaKe wrote on February 17 2006, 05:51 pm

you didn't finish the ending solo, it just kinda ... goes away... it's a weird ending though...

I want to post or [tab]
guest
You may want to rate the tab now too:
select rating
Please do not post tabs as comments. Select "correction" instead!