Oops, an error
Loading. Please wait.

And All Things Will End Tab

ver3
ver3

Intro

Solo

Whole song

Interactive

More versions @911Tabs.com
5,601 views 18 this week
4 commentsread comments
1 2 3 4 5
excellent!
x 11
add to favorites launch autoscroll
font size
0
reset
Autoscroll
+/-
esc
set tempo
stop
Contributor
Difficulty
Tuning
advanced
D A D G B E
WARNING: You are trying to view
                                    content from Ultimate-Guitar.com
                                    in an unauthorized application,
                                    which is prohibited.

                                    Please use an official Ultimate
                                    Guitar Tabs application for iPhone,
                                    iPad or Android to access legitimate
                                    chords, guitar, bass, and drum tabs
                                    from Ultimate-Guitar.com database.

                                    Type "ultimate guitar tabs" in Apple
                                    App Store's or Android Market's
                                    search to find the application.
And All Things Will End
Avenged Sevenfold
Tabbed By Seth Sanders
Tips: Uhmm Tackle The Solo Last.

Guitar One: Clean Lead
Guitar Two: Lead Distortion
Guitar Three: Rhythm Distortion
Guitar Four: Lead Overdub/Solo guitar
Guitar Five: Clean Rhythm

Start Off at about 80 Bpm =) Enjoy.

  Gtr I
  E E E E E E  Q     E E E a E E E E E   E E E E a E E E E   E E E E  H
|------------------|-------------------|-------------------|---------------|
|------------------|-------------------|-------------------|---------^2----|
|-------2p0---^2---|-----0-0h2-0-------|-------0-0h2-0---0-|-----3---^3----|
|---2-3-----3-^3---|---2---------2---2-|---2-3---------3---|---2---2-^2----|
|-5----------------|-3-------------3---|-1-----------------|-0-------^0----|
|------------------|-------------------|-------------------|---------------|


  D5                  N.C.   D5                        N.C.   D5
  Gtr II
    PM--------------|     ~~         PM--------------|     ~~
  E S S S S S S S S S T T E. S   +E  S S S S S S S S S T T E. S
|------------------------------|--------------------------------|
|---------------------2h3p2----|-----------------------2h3p2----|
|------------------------------|--------------------------------|
|-0--------------------------0-|-(0)--------------------------0-|
|-0-0-0-0-0-0-0-0-0-0--------0-|-(0)-0-0-0-0-0-0-0-0-0--------0-|
|-0-0-0-0-0-0-0-0-0-0--------0-|-(0)-0-0-0-0-0-0-0-0-0--------0-|
|
| Gtr III
|   PM--------------|     ~~         PM--------------|     ~~
| E S S S S S S S S S T T E. S   +E  S S S S S S S S S T T E. S
|------------------------------|--------------------------------|
|---------------------5h6p5----|-----------------------5h6p5----|
|------------------------------|--------------------------------|
|-0--------------------------0-|-(0)--------------------------0-|
|-0-0-0-0-0-0-0-0-0-0--------0-|-(0)-0-0-0-0-0-0-0-0-0--------0-|
|-0-0-0-0-0-0-0-0-0-0--------0-|-(0)-0-0-0-0-0-0-0-0-0--------0-|


                        N.C.
      PM--------------|     ~~
  +E  S S S S S S S S S T T E.           S
|--------------------------------------------|
|-----------------------2h3p2------------3---|
|--------------------------------------------|
|-(0)----------------------------------------|
|-(0)-0-0-0-0-0-0-0-0-0----------------------|
|-(0)-0-0-0-0-0-0-0-0-0----------------------|
|
|     PM--------------|     ~~
| +E  S S S S S S S S S T T E.           S
|--------------------------------------------|
|-----------------------5h6p5----------------|
|----------------------------------------3---|
|-(0)----------------------------------------|
|-(0)-0-0-0-0-0-0-0-0-0----------------------|
|-(0)-0-0-0-0-0-0-0-0-0----------------------|
|
| Gtr IV
|                     T T T T  T T T T T T T
|  H              E   S T T T  T T T T T T T
|-----------------------5-6-3--5-6-5-3-6-5-3-|
|--------------------------------------------|
|--------------------------------------------|
|--------------------------------------------|
|--------------------------------------------|
|--------------------------------------------|


                                                                D5
  +S    S   S   E       S   S   S   S   S   S   S   S   S   S   S
|-------------------------------------------------------1---0-------|
|-(3)---1-------1-----------------------------------1---------------|
|-----------2-----------3---2---0-------0---2---3-------------------|
|-----------------------------------3---------------------------0---|
|---------------------------------------------------------------0---|
|---------------------------------------------------------------0---|
|
| +S    S   S   E       S   S   S   S   S   S   S   S   S   S   S
|-------------------------------------------------------------------|
|-------------------------------------------------------3---2-------|
|-(3)---2-------2-------0-----------------------0---2---------------|
|-----------3---------------3---2---0---2---3-------------------0---|
|---------------------------------------------------------------0---|
|---------------------------------------------------------------0---|
|
|  T  T T T T T T T T T T T T T T T T T T T T T T T T T T T T T
|  T  T T T T T T T T T T T T T T T T T T T T T T T T T T T T T S
|--6--5-3-6-5-3-6-5-3-6-5-3-6-5-3-6-5-3-6-5-3-6-5-3-6-5-3-6-5-3-----|
|-------------------------------------------------------------------|
|-------------------------------------------------------------------|
|---------------------------------------------------------------0---|
|---------------------------------------------------------------0---|
|---------------------------------------------------------------0---|


                        N.C.   D5                        N.C.   D5
      PM--------------|     ~~         PM--------------|     ~~
  +E  S S S S S S S S S T T E. S   +E  S S S S S S S S S T T E. S
|--------------------------------|--------------------------------|
|-----------------------2h3p2----|-----------------------2h3p2----|
|--------------------------------|--------------------------------|
|-(0)--------------------------0-|-(0)--------------------------0-|
|-(0)-0-0-0-0-0-0-0-0-0--------0-|-(0)-0-0-0-0-0-0-0-0-0--------0-|
|-(0)-0-0-0-0-0-0-0-0-0--------0-|-(0)-0-0-0-0-0-0-0-0-0--------0-|
|
|     PM--------------|     ~~         PM--------------|     ~~
| +E  S S S S S S S S S T T E. S   +E  S S S S S S S S S T T E. S
|--------------------------------|--------------------------------|
|-----------------------5h6p5----|-----------------------5h6p5----|
|--------------------------------|--------------------------------|
|-(0)--------------------------0-|-(0)--------------------------0-|
|-(0)-0-0-0-0-0-0-0-0-0--------0-|-(0)-0-0-0-0-0-0-0-0-0--------0-|
|-(0)-0-0-0-0-0-0-0-0-0--------0-|-(0)-0-0-0-0-0-0-0-0-0--------0-|
|
|     PM--------------|     ~~         PM--------------|     ~~
| +E  S S S S S S S S S T T E. S   +E  S S S S S S S S S T T E. S
|-----------------------6h7p6----|-----------------------6h7p6----|
|--------------------------------|--------------------------------|
|--------------------------------|--------------------------------|
|-(0)--------------------------0-|-(0)--------------------------0-|
|-(0)-0-0-0-0-0-0-0-0-0--------0-|-(0)-0-0-0-0-0-0-0-0-0--------0-|
|-(0)-0-0-0-0-0-0-0-0-0--------0-|-(0)-0-0-0-0-0-0-0-0-0--------0-|


                          N.C.
      PM--------------|       ~~
  +E  S S S S S S S S S   T T E.          S
|---------------------------------------------|
|-------------------------2h3p2-----------3---|
|---------------------------------------------|
|-(0)-----------------------------------------|
|-(0)-0-0-0-0-0-0-0-0-0-----------------------|
|-(0)-0-0-0-0-0-0-0-0-0-----------------------|
|
|     PM--------------|       ~~
| +E  S S S S S S S S S   T T E.          S
|---------------------------------------------|
|-------------------------5h6p5---------------|
|-----------------------------------------3---|
|-(0)-----------------------------------------|
|-(0)-0-0-0-0-0-0-0-0-0-----------------------|
|-(0)-0-0-0-0-0-0-0-0-0-----------------------|
|
|     PM------------|
| +E  S S S S S S S S T T T T T T T T T T T T
|---------------------5h6p3h5h6p5p3h6p5p3h6p5p|
|---------------------------------------------|
|---------------------------------------------|
|-(0)-----------------------------------------|
|-(0)-0-0-0-0-0-0-0-0-------------------------|
|-(0)-0-0-0-0-0-0-0-0-------------------------|


                                                                 D5
                                                                       2/4
  +S    S   S   E       S   S   S   S   S   S   S   S   S    S   S      +Q   E  E
|-------------------------------------------------------1----0--------|--------------|
|-(3)p==1-------1-----------------------------------1-----------------|--------------|
|-----------2-----------3---2---0-------0---2h==3---------------------|--------------|
|-----------------------------------3----------------------------0----|-(0)--0-------|
|----------------------------------------------------------------0----|-(0)--0-------|
|----------------------------------------------------------------0----|-(0)--0-------|
|
| +S    S   S   E       S   S   S   S   S   S   S   S   S    S   S      +Q   E  E
|---------------------------------------------------------------------|--------------|
|-------------------------------------------------------3----2--------|--------------|
|-(3)p==2-------2-------0-----------------------0h==2-----------------|--------------|
|-----------3---------------3---2---0---2---3--------------------0----|-(0)--0-------|
|----------------------------------------------------------------0----|-(0)--0-------|
|----------------------------------------------------------------0----|-(0)--0-------|
|
|  T  T T T T T T T T T T T T T T T T T T T T T T T T T T T  T T S       Q   E  E
|--3h=6p5p3h6p5p3h6p5p3h6p5p3h6p5p3h6p5p3h6p5p3h6p5p3h6p5p3\-3p1h4b5==|==4---4r------|
|---------------------------------------------------------------------|--------------|
|---------------------------------------------------------------------|--------------|
|---------------------------------------------------------------------|--------------|
|---------------------------------------------------------------------|--------------|
|---------------------------------------------------------------------|--------------|

"Lived through You..."
   Verse
    D5                          F5                                G5
   4/4
    Gtrs II, III
      PM----------------------|         PM----------------------|
    E S S S S S S S S S S S S S S   +E  S S S S S S S S S S S S S S
||--------------------------------|---------------------------------|
||o-------------------------------|---------------------------------|
||--------------------------------|---------------------------------|
||--0---------------------------3-|-(3)---------------------------5-|
||o-0-0-0-0-0-0-0-0-0-0-0-0-0-0-3-|-(3)-3-3-3-3-3-3-3-3-3-3-3-3-3-5-|
||--0-0-0-0-0-0-0-0-0-0-0-0-0-0-3-|-(3)-3-3-3-3-3-3-3-3-3-3-3-3-3-5-|


                G#5           Bb5D5
      PM------|       PM|
  +E  S S S S S S +E  S S S S  S S
|----------------------------------|
|----------------------------------|
|----------------------------------|
|-(5)-----------6-(6)------------0-|
|-(5)-5-5-5-5-5-6-(6)-6-6-6-6-/8-0-|
|-(5)-5-5-5-5-5-6-(6)-6-6-6-6-/8-0-|


 1.                                2.
                          F5G5
      PM----------------------|       PM----------------------|
  +E  S S S S S S S S S S S E S     E S S S S S S S S S S S E S
|--------------------------------||-----------------------------|
|-------------------------------o||-----------------------------|
|--------------------------------||-----------------------------|
|-(0)-------------------------0--||-0---------------------------|
|-(0)-0-0-0-0-0-0-0-0-0-0-3-5-0-o||-0-0-0-0-0-0-0-0-0-0-0-3-5-7-|
|-(0)-0-0-0-0-0-0-0-0-0-0-3-5-0--||-0-0-0-0-0-0-0-0-0-0-0-3-5-7-|

"Sometimes Life Is Altered..."
 Chorus
  Bb5                         F5                  Dm/G          D5
  Gtr II
                                                                  ~~~~
    S  S  S  S   S  +S      S  S  +S   S  S  S  S  S        +S   +S
|-/13----13----/17-(17)b19r17-13-(13)----------13-15b15.5==(15)r(15)-|
|-----15----15------------------------15-----------------------------|
|----------------------------------------14--------------------------|
|-------------------------------------------15-----------------------|
|--------------------------------------------------------------------|
|--------------------------------------------------------------------|
|
| Gtr III
|   E     E      S   S      S  S  +E      E     S  E              S
|--------------------------------------------------------------------|
|--------------------------------------------------------------------|
|--------------------------------------------------------------------|
|---8-----8------8---8------8--3--(3)-----3-----3--3--------------0--|
|---8-----8------8---8------8--3--(3)-----3-----3--5--------------0--|
|---8-----8------8---8------8--3--(3)-----3-----3--5--------------0--|


                                                        Bb5
 ~~~~~                                               ~~~~
   S   S  S  S  S  +S      S  E    S  S  S  E       +E
|-13-----13----13-(13)b16r13---------13----13b16r==(13)---|
|-----15----15---------------15---15----15----------------|
|---------------------------------------------------------|
|---------------------------------------------------------|
|---------------------------------------------------------|
|---------------------------------------------------------|
|
|         PM---------------------------------------|
| +E      S  S  S   S      S  S S  S  S  S  S    S   S  S
|---------------------------------------------------------|
|---------------------------------------------------------|
|---------------------------------------------------------|
|-(0)---------------------------------------------------8-|
|-(0)-----0--0--0---0------0--0-0--0--0--0--0----0---0--8-|
|-(0)-----0--0--0---0------0--0-0--0--0--0--0----0---0--8-|


                               F5      Dm/GD5
    S   S  S  S   S  +S      S  S Q  E   S S
|-/13-----13----/17-(17)b19r17---------------|
|------15----15----------------13------------|
|--------------------------------------------|
|------------------------------------------0-|
|------------------------------------------0-|
|------------------------------------------0-|
|
|  +E      E      S   S      S  S Q  S E   S
|--------------------------------------------|
|--------------------------------------------|
|--------------------------------------------|
|--(8)-----8------8---8------8--3----3-3---0-|
|--(8)-----8------8---8------8--3----3-5---0-|
|--(8)-----8------8---8------8--3----3-5---0-|


                        N.C.   D5                        N.C.   D5
      PM--------------|     ~~         PM--------------|     ~~
  +E  S S S S S S S S S T T E. S   +E  S S S S S S S S S T T E. S
|--------------------------------|--------------------------------|
|-----------------------2h3p2----|-----------------------2h3p2----|
|--------------------------------|--------------------------------|
|-(0)--------------------------0-|-(0)--------------------------0-|
|-(0)-0-0-0-0-0-0-0-0-0--------0-|-(0)-0-0-0-0-0-0-0-0-0--------0-|
|-(0)-0-0-0-0-0-0-0-0-0--------0-|-(0)-0-0-0-0-0-0-0-0-0--------0-|
|
|     PM--------------|     ~~         PM--------------|     ~~
| +E  S S S S S S S S S T T E. S   +E  S S S S S S S S S T T E. S
|--------------------------------|--------------------------------|
|-----------------------5h6p5----|-----------------------5h6p5----|
|--------------------------------|--------------------------------|
|-(0)--------------------------0-|-(0)--------------------------0-|
|-(0)-0-0-0-0-0-0-0-0-0--------0-|-(0)-0-0-0-0-0-0-0-0-0--------0-|
|-(0)-0-0-0-0-0-0-0-0-0--------0-|-(0)-0-0-0-0-0-0-0-0-0--------0-|


                        N.C.                                     D5
                                                                    2/4
      PM--------------|     ~~
  +E  S S S S S S S S S T T E. S   +S  S S E S S S S S S S S S S S   +Q   E E
|--------------------------------|---------------------------1-0---|----------|
|-----------------------2h3p2--3-|-(3)p1---1---------------1-------|----------|
|--------------------------------|-------2---3-2-0---0-2h3---------|----------|
|-(0)----------------------------|-----------------3-------------0-|-(0)--0---|
|-(0)-0-0-0-0-0-0-0-0-0----------|-------------------------------0-|-(0)--0---|
|-(0)-0-0-0-0-0-0-0-0-0----------|-------------------------------0-|-(0)--0---|
|
|     PM--------------|     ~~
| +E  S S S S S S S S S T T E. S   +S  S S E S S S S S S S S S S S   +Q   E E
|--------------------------------|---------------------------------|----------|
|-----------------------5h6p5----|---------------------------3-2---|----------|
|------------------------------3-|-(3)p2---2-0-----------0-2-------|----------|
|-(0)----------------------------|-------3-----3-2p0h2-3---------0-|-(0)--0---|
|-(0)-0-0-0-0-0-0-0-0-0----------|-------------------------------0-|-(0)--0---|
|-(0)-0-0-0-0-0-0-0-0-0----------|-------------------------------0-|-(0)--0---|

"When I See You..."
   Verse
    D5                          F5                                G5
   4/4
    Gtrs II, III
      PM----------------------|         PM----------------------|
    E S S S S S S S S S S S S S S   +E  S S S S S S S S S S S S S S
||--------------------------------|---------------------------------|
||o-------------------------------|---------------------------------|
||--------------------------------|---------------------------------|
||--0---------------------------3-|-(3)---------------------------5-|
||o-0-0-0-0-0-0-0-0-0-0-0-0-0-0-3-|-(3)-3-3-3-3-3-3-3-3-3-3-3-3-3-5-|
||--0-0-0-0-0-0-0-0-0-0-0-0-0-0-3-|-(3)-3-3-3-3-3-3-3-3-3-3-3-3-3-5-|


                G#5           Bb5D5
      PM------|       PM|
  +E  S S S S S S +E  S S S S  S S
|----------------------------------|
|----------------------------------|
|----------------------------------|
|-(5)-----------6-(6)------------0-|
|-(5)-5-5-5-5-5-6-(6)-6-6-6-6-/8-0-|
|-(5)-5-5-5-5-5-6-(6)-6-6-6-6-/8-0-|


 1.                                2.
                          F5G5      D5                    F5G5A5
      PM----------------------|       PM----------------------|
  +E  S S S S S S S S S S S E S     E S S S S S S S S S S S E S
|--------------------------------||-----------------------------|
|-------------------------------o||-----------------------------|
|--------------------------------||-----------------------------|
|-(0)-------------------------0--||-0---------------------------|
|-(0)-0-0-0-0-0-0-0-0-0-0-3-5-0-o||-0-0-0-0-0-0-0-0-0-0-0-3-5-7-|
|-(0)-0-0-0-0-0-0-0-0-0-0-3-5-0--||-0-0-0-0-0-0-0-0-0-0-0-3-5-7-|

"Sometimes Life Is Altered..."
   Chorus
    Bb5                         F5                 Dm/G       D5
    Gtr II
                                                               ~~~
      S  S  S  S   S  +S      S  S  S   S  S  S  S  S       S  S
||--/13----13----/17-(17)b19r17p13-13-----------13h15b15.5p13-13-|
||o-----15----15-----------------------15------------------------|
||----------------------------------------14---------------------|
||-------------------------------------------15------------------|
||o--------------------------------------------------------------|
||---------------------------------------------------------------|
|
|   Gtr III
|     E     E      S   S      S  S +E      E     S  E          S
||---------------------------------------------------------------|
||o--------------------------------------------------------------|
||---------------------------------------------------------------|
||----8-----8------8---8------8--3-(3)-----3-----3--3----------0-|
||o---8-----8------8---8------8--3-(3)-----3-----3--5----------0-|
||----8-----8------8---8------8--3-(3)-----3-----3--5----------0-|


                                                         Bb5
 ~~~~~~                                               ~~~~
   +S   S  S  S  S  +S      S  E    S  S  S  E       +E
|-(13)----13----13-(13)b16r13---------13----13b16r==(13)----|
|------15----15---------------15---15----15-----------------|
|-----------------------------------------------------------|
|-----------------------------------------------------------|
|-----------------------------------------------------------|
|-----------------------------------------------------------|
|
|          PM---------------------------------------|
|  +E      S  S  S   S      S  S S  S  S  S  S    S   S  S
|-----------------------------------------------------------|
|-----------------------------------------------------------|
|-----------------------------------------------------------|
|--(0)---------------------------------------------------8--|
|--(0)-----0--0--0---0------0--0-0--0--0--0--0----0---0--8--|
|--(0)-----0--0--0---0------0--0-0--0--0--0--0----0---0--8--|


  1.
                               F5                  Dm/G       D5
                                                               ~~~
    S   S  S  S   S  +S      S  S  +S   S  S  S  S  S       S  S
|-/13-----13----/17-(17)b19r17-13-(13)----------13-15b15.5-13-13-|
|------15----15------------------------15------------------------|
|-----------------------------------------14---------------------|
|--------------------------------------------15------------------|
|----------------------------------------------------------------|
|----------------------------------------------------------------|
|
|  +E      E      S   S      S  S  +E      E     S  E          S
|----------------------------------------------------------------|
|----------------------------------------------------------------|
|----------------------------------------------------------------|
|--(8)-----8------8---8------8--3--(3)-----3-----3--3----------0-|
|--(8)-----8------8---8------8--3--(3)-----3-----3--5----------0-|
|--(8)-----8------8---8------8--3--(3)-----3-----3--5----------0-|


                                                        Bb5
 ~~~~~                                               ~~~~
   S   S  S  S  S  +S      S  E    S  S  S  E       +E
|-13-----13----13-(13)b16r13---------13----13b16r==(13)----||
|-----15----15---------------15---15----15----------------o||
|----------------------------------------------------------||
|----------------------------------------------------------||
|---------------------------------------------------------o||
|----------------------------------------------------------||
|
|         PM---------------------------------------|
| +E      S  S  S   S      S  S S  S  S  S  S    S   S  S
|----------------------------------------------------------||
|---------------------------------------------------------o||
|----------------------------------------------------------||
|-(0)---------------------------------------------------8--||
|-(0)-----0--0--0---0------0--0-0--0--0--0--0----0---0--8-o||
|-(0)-----0--0--0---0------0--0-0--0--0--0--0----0---0--8--||


  2.
                               F5      Dm/GD5
    S   S  S  S   S  +S      S  S Q  E   S S   +W
|-/13-----13----/17-(17)b19r17---------------|--------|
|------15----15----------------13------------|--------|
|--------------------------------------------|--------|
|------------------------------------------0-|-(0)----|
|------------------------------------------0-|-(0)----|
|------------------------------------------0-|-(0)----|
|
|  +E      E      S   S      S  S Q  S E   S   +W
|--------------------------------------------|--------|
|--------------------------------------------|--------|
|--------------------------------------------|--------|
|--(8)-----8------8---8------8--3----3-3---0-|-(0)----|
|--(8)-----8------8---8------8--3----3-5---0-|-(0)----|
|--(8)-----8------8---8------8--3----3-5---0-|-(0)----|


 Interlude
  N.C.
  Gtr I
   E  E E E E E   Q     E  E E a E E E E E
|--------------------|---------------------|
|--------------------|---------------------|
|---------2------^2--|-------0-0h2-0-------|
|-----2-3---5-3--^3--|-----2---------2---2-|
|--5-----------------|--3--------------3---|
|--------------------|---------------------|
|
| Gtr II
|  >
| +W                   +W
|--------------------|---------------------|
|--------------------|---------------------|
|--------------------|---------------------|
|-(0)----------------|-(0)-----------------|
|-(0)----------------|-(0)-----------------|
|-(0)----------------|-(0)-----------------|
|
| Gtr III
|  >
| +W                   +W
|--------------------|---------------------|
|--------------------|---------------------|
|--------------------|---------------------|
|-(0)----------------|-(0)-----------------|
|-(0)----------------|-(0)-----------------|
|-(0)----------------|-(0)-----------------|


   E  E E E E E E E    E  E E E S S S S Q
|-------------------|-----------------------|
|-------------------|--6----5---8---6---5\--|
|---------------6---|-----------------------|
|-----5-8-5-7-5---5-|-----7---7---7---7-----|
|-/7----------------|-----------------------|
|-------------------|-----------------------|
|
| +W                  +W
|-------------------|-----------------------|
|-------------------|-----------------------|
|-------------------|-----------------------|
|-(0)---------------|-(0)-------------------|
|-(0)---------------|-(0)-------------------|
|-(0)---------------|-(0)-------------------|
|
| +W                  +W
|-------------------|-----------------------|
|-------------------|-----------------------|
|-------------------|-----------------------|
|-(0)---------------|-(0)-------------------|
|-(0)---------------|-(0)-------------------|
|-(0)---------------|-(0)-------------------|


  N.C.                                                               C#m6/A
                                                         ~
  E E E E E E E E   E E E S S E E E E    E E E a E E E E E   E E E E  H
|-----------------|-------------------|--------------------|---------------|
|-----------------|-------------------|--------------------|---------^2----|
|-----3-5-3---0---|-----------7-------|--------------------|-----3---^3----|
|---2-------2---2-|-----5-5s7---7-6-5-|------7-7s8-7-----7-|---2---2-^2----|
|-1---------------|---5---------------|----7---------7-----|-0-------^0----|
|-----------------|-5-----------------|-/7-------------7---|---------------|

"I... See My World Crumble And Fall..."
  N.C.
  E E E E E E    Q    E E E a E E E E E
|-------------------|-------------------|
|-------------------|-------------------|
|-------2-------^2--|-----0-0h2-0-------|
|---2-3---5-3---^3--|---2---------2---2-|
|-5-----------------|-3-------------3---|
|-------------------|-------------------|
|
| Gtr V
|             ~~~~~
| E E E E E E a  Q    E E E a E E E E E
|-------5-----------|-----3-3h5-3-------|
|---5-6---8-6-8s10--|---5---------5---5-|
|-7-----------------|-5-------------5---|
|-------------------|-------------------|
|-------------------|-------------------|
|-------------------|-------------------|


   E E  E E  E E E E   E E E E S S S S Q
|--------------------|----------------------|
|--------------------|-6---5---8---6---5\---|
|----------------6---|----------------------|
|----5--8-5--7-5---5-|---7---7---7---7------|
|-/7-----------------|----------------------|
|--------------------|----------------------|
|
|  E E  E E  E E E E   E E E E E   E   E  E
|----------------9---|---5---5-----5------5-|
|----8-11-8-10-8---8-|-6---5---3------------|
|-/9-----------------|-----------------5----|
|--------------------|----------------------|
|--------------------|----------------------|
|--------------------|----------------------|


  N.C.
  E E E E E E E E   E E E S  S  E  E E E
|-----------------|----------------------|
|-----------------|----------------------|
|-----3-5-3---0---|-------------7--------|
|---2-------2---2-|-----5-5h=7-----7-6-5-|
|-1---------------|---5------------------|
|-----------------|-5--------------------|
|
|               ~
| E E E E E E E E   E E E S  S  E  E E E
|-----6-8-6---3---|------------10--------|
|---5-------5---5-|-----8-8h10----10-9-8-|
|-3---------------|---7------------------|
|-----------------|-5--------------------|
|-----------------|----------------------|
|-----------------|----------------------|


                                     C#m6/A
   E E  E  a  E  E E E  E   E E  E E   H
|-------------------------|-----------------|
|-------------------------|----------^-2----|
|-------------------------|------3---^-3----|
|-------7--7h=8--7------7-|---2----2-^-2----|
|----7-------------7------|-0--------^-0----|
|-/7-----------------7----|-----------------|
|
|  E E  E  a  E  E E E  E   E E  E E   H
|-------------------------|----------^-9----|
|------10-10h11-10-----10-|-----11---^11----|
|----9-------------9------|---9----9-^-9----|
|-/7-----------------7----|-7--------^-7----|
|-------------------------|-----------------|
|-------------------------|-----------------|


  N.C.
  E E E E E E    Q    E E E a E E E E E
|-------------------|-------------------|
|-------------------|-------------------|
|-------2-------^2--|-----0-0h2-0-------|
|---2-3---5-3---^3--|---2---------2---2-|
|-5-----------------|-3-------------3---|
|-------------------|-------------------|
|
|             ~~~~~
| E E E E E E a  Q    E E E a E E E E E
|-------5-----------|-----3-3h5-3-------|
|---5-6---8-6-8h10--|---5---------5---5-|
|-7-----------------|-5-------------5---|
|-------------------|-------------------|
|-------------------|-------------------|
|-------------------|-------------------|


   E E  E E  E E E E   E E E E S S S S Q
|--------------------|----------------------|
|--------------------|-6---5---8---6---5\---|
|----------------6---|----------------------|
|----5--8-5--7-5---5-|---7---7---7---7------|
|-/7-----------------|----------------------|
|--------------------|----------------------|
|
|  E E  E E  E E E E   E E E E E   E   E  E
|----------------9---|---5---5-----5------5-|
|----8-11-8-10-8---8-|-6---5---3------------|
|-/9-----------------|-----------------5----|
|--------------------|----------------------|
|--------------------|----------------------|
|--------------------|----------------------|


  N.C.
  E E E E E E E E   E E E S  S  E  E E E
|-----------------|----------------------|
|-----------------|----------------------|
|-----3-5-3---0---|-------------7--------|
|---2-------2---2-|-----5-5h=7-----7-6-5-|
|-1---------------|---5------------------|
|-----------------|-5--------------------|
|
|               ~
| E E E E E E E E   E E E S  S  E  E E E
|-----6-8-6---3---|------------10--------|
|---5-------5---5-|-----8-8h10----10-9-8-|
|-3---------------|---7------------------|
|-----------------|-5--------------------|
|-----------------|----------------------|
|-----------------|----------------------|


                                     C#m6/A
   E E  E  a  E  E E E  E   E E  E E   H
|-------------------------|-----------------|
|-------------------------|----------^-2----|
|-------------------------|------3---^-3----|
|-------7--7h=8--7------7-|---2----2-^-2----|
|----7-------------7------|-0--------^-0----|
|-/7-----------------7----|-----------------|
|
|  E E  E  a  E  E E E  E   E E  E E   H
|-------------------------|----------^-9----|
|------10-10h11-10-----10-|-----11---^11----|
|----9-------------9------|---9----9-^-9----|
|-/7-----------------7----|-7--------^-7----|
|-------------------------|-----------------|
|-------------------------|-----------------|

"I Never Imagined..."
  N.C.
  Gtr II
    H.             +E   S  S    Q.        S  S  H
|----------------------------|-12--------12-13----------|
|-/13-------------(13)----13-|-----------------13-------|
|----------------------14----|--------------------------|
|----------------------------|--------------------------|
|----------------------------|--------------------------|
|----------------------------|--------------------------|
|
| Gtr III
|   ~~~~                        ~~~             ~~~~~~~~~
|   H.             +E   S  S    Q.        S  S  H
|----------------------------|--------------------------|
|----------------------------|-13--------13-15----------|
|-/14-------------(14)----14-|-----------------14-------|
|----------------------15----|--------------------------|
|----------------------------|--------------------------|
|----------------------------|--------------------------|
|
| Gtr I
|   E  E E E E E    Q           E  E E a  E     E E E E
|----------------------------|--------------------------|
|----------------------------|--------------------------|
|----------2------^-2--------|-------0-0h=2-----0-------|
|------2-3---5-3--^-3--------|-----2--------------2---2-|
|---5------------------------|--3-------------------3---|
|----------------------------|--------------------------|


   H.            +E    S  S    Q     Q    E.      T  T  Q
|---------------------------|--------------------------------|
|-11------------(11)\-------|--------------------------------|
|---------------------10-12-|------/14---14------15p14p12----|
|---------------------------|-12-----------------------------|
|---------------------------|--------------------------------|
|---------------------------|--------------------------------|
|
|~~~~~                               ~~~~~~~~           ~~~
|  H.            +E    S  S    Q     Q    E.      T  T  Q
|---------------------------|--------------------------------|
|---------------------------|--------------------------------|
|-12------------(12)\-------|--------------------------------|
|---------------------12-14-|------/15---15------17p15p14----|
|---------------------------|-13-----------------------------|
|---------------------------|--------------------------------|
|
|  E  E E E E E   E    E       E E   E E  S  S S  S     Q
|---------------------------|--------------------------------|
|---------------------------|--6-----5----8----6--------5\---|
|-----------------6---------|--------------------------------|
|-----5-8-5-7-5--------5----|----7-----7-----7----7----------|
|-/7------------------------|--------------------------------|
|---------------------------|--------------------------------|


  N.C.
   H.            +E   S  S    H          Q    Q
|--------------------------|----------------------|
|-15------------(15)-15-13-|----------------------|
|--------------------------|-15----------9---10---|
|--------------------------|----------------------|
|--------------------------|----------------------|
|--------------------------|----------------------|
|
|  ~~~                        ~~~~~~~~~~~~~~~~~~~~~
|  H.            +E   S  S    H          Q    Q
|--------------------------|----------------------|
|--------------------------|----------------------|
|-15------------(15)-15-14-|----------------------|
|--------------------------|-17---------11---12---|
|--------------------------|----------------------|
|--------------------------|----------------------|
|
|  E  E E E E E   E   E       E E E S S  E E  E E
|--------------------------|----------------------|
|--------------------------|----------------------|
|-------3-5-3-----0--------|-------------7--------|
|-----2-------2-------2----|------5-5h7----7--6-5-|
|--1-----------------------|----5-----------------|
|--------------------------|--5-------------------|


                                C#m6/A
   W                    W
|--------------------|----------------|
|--------------------|-14-------------|
|-14-----------------|----------------|
|--------------------|----------------|
|--------------------|----------------|
|--------------------|----------------|
|
|~~~~~~~~~~~~~~~~~~~~~~~~~
|  W                    W
|--------------------|----------------|
|--------------------|----------------|
|--------------------|-14-------------|
|-14-----------------|----------------|
|--------------------|----------------|
|--------------------|----------------|
|
|  E E E a E E E E E    E E E E  H
|--------------------|----------------|
|--------------------|----------^2----|
|--------------------|------3---^3----|
|------7-7h8-7-----7-|----2---2-^2----|
|----7---------7-----|--0-------^0----|
|-/7-------------7---|----------------|


   Breakdown
    D5                                N.C.
    Gtr II
    S S S S E. S S S S S E. S   S S S S E. S S S  S S S  S   E
||----------------------------|---------------------------------||
||o---------------------------|--------------------------------o||
||----------------------------|---------------------------------||
||--0-0--------0---0--------0-|---0-------------------------/7--||
||o-0-0---5----0---0---7----0-|---0---8------5-7--8-7-5--8-----o||
||--0-0-----7--0---0-----7--0-|---0-----7--7--------------------||
|
|   Gtr III
|                                                            ~~~
|   S S S S E. S S S S S E. S   S S S S E. S S S  S S S  S   E
||----------------------------|---------------------------------||
||o---------------------------|----------------------------/10-o||
||----------------------------|--------------7-9-10-9-7-10------||
||----------------------------|------------7--------------------||
||o-0-0---5----0---0---7----0-|---0---8------------------------o||
||--0-0-----7--0---0-----7--0-|---0-----7-----------------------||


    Dm             C#m              Bb             A
    Gtrs II, III
     S S S  S E. S  S S S  S E. S    S S S  S E. S  S    S S S S S  E
||--------------------------------|------------------------------------||
||o-------------------------------|-----------------------------------o||
||--------------------------------|------------------------------------||
||--------------------------------|--------------------------------/7--||
||o--0-0---/5----0----0---/7----0-|----0---/8-------5----7-8-7-5-8----o||
||---0-0------7--0----0------7--0-|----0------7--7---------------------||
|
|   Gtr IV
|    ~~~~~~~~~~~~~~~~~~~~~~~~~~~~~~~~~~~~~~~~~~~~~~~~~~~~~~~~~~~~~~~~~
|    H              H                H              Q.              E
||--13-------------12-------------|-10--------------9b10r===========9--||
||o-15-------------14-------------|-11-------------10b11r==========10-o||
||--------------------------------|------------------------------------||
||--------------------------------|------------------------------------||
||o-------------------------------|-----------------------------------o||
||--------------------------------|------------------------------------||


  D5                        N.C.
  Gtr III
  H             Q        E. S   +S  S S E S S S S S S S S S E
|-----------------------------|---------------------------1-0--|
|---------------------------3-|-(3)-1---1---------------1------|
|-----------------------------|-------2---3-2-0---0-2-3--------|
|-----------------------------|-----------------3--------------|
|-----------------------------|--------------------------------|
|-----------------------------|--------------------------------|
|
| Gtr II
|   PM--------------|
| E S S S S S S S S S  S E. S   +S  S S E S S S S S S S S S E
|-----------------------------|--------------------------------|
|---------------------/3-2----|---------------------------3-2--|
|---------------------------3-|-(3)-2---2-0-----------0-2------|
|-0---------------------------|-------3-----3-2-0-2-3----------|
|-0-0-0-0-0-0-0-0-0-0---------|--------------------------------|
|-0-0-0-0-0-0-0-0-0-0---------|--------------------------------|

"LIVING, GOES BY FAST..."
   Bridge
                      1.
    N.C.
    Gtr II
    TPTPTPTPTPTPTPTP  TPTPTPTPTPTPTPTP
    E E E E E E E E   E E E E E E E E
||------------------|------------------||
||o-------------6---|-----------------o||
||----5-2-5---5---5-|---3-2-----2------||
||--3-------3-------|-2-----2-3-----5--||
||o-----------------|-------------0---o||
||------------------|------------------||
|
|   Gtr III
|   TPTPTPTPTPTPTPTP  TPTPTPTPTPTPTPTP
|   E E E E E E E E   E E E E E E E E
||------------------|------------------||
||o-----------------|-----------------o||
||----2---2---2-5-2-|------------------||
||--0---3---3-------|---5-3-2---3---2--||
||o-----------------|-3-------1---0---o||
||------------------|------------------||


  2.
  N.C.              D5
  TPTPTPTPTPTPTP~     PM--|    PM|
  E E E E E E E E   T T T T E. S S  E S S E S E
|-----------------|-----------------------------|
|-----------------|----------------/3-----------|
|---3-2-----2-----|-------------------5-3-2-----|
|-2-----2-3-----5-|-0-------0--0-0----------5-2-|
|-------------0---|-0-0-0-0-0--0-0--------------|
|-----------------|-0-0-0-0-0--0-0--------------|
|
| TPTPTPTPTPTPTP~     PM--|    PM|
| E E E E E E E E   T T T T E. S S  E S S E S E
|-----------------|-----------------------------|
|-----------------|-----------------------------|
|-----------------|----------------/3-2---------|
|---5-3-2---3---2-|-0-------0--0-0------5-3-2---|
|-3-------1---0---|-0-0-0-0-0--0-0------------3-|
|-----------------|-0-0-0-0-0--0-0--------------|

"Sometimes life is altrered..."
   Chorus
    Bb5                         F5                 Dm/G       D5
                                                               ~~~
      S  S  S  S   S  +S      S  S  S   S  S  S  S  S       S  S
||--/13----13----/17-(17)b19r17-13-13-----------13-15b15.5-13-13-|
||o-----15----15-----------------------15------------------------|
||----------------------------------------14---------------------|
||-------------------------------------------15------------------|
||o--------------------------------------------------------------|
||---------------------------------------------------------------|
|
|     E     E      S   S      S  S +E      E     S  E          S
||---------------------------------------------------------------|
||o--------------------------------------------------------------|
||---------------------------------------------------------------|
||----8-----8------8---8------8--3-(3)-----3-----3--3----------0-|
||o---8-----8------8---8------8--3-(3)-----3-----3--5----------0-|
||----8-----8------8---8------8--3-(3)-----3-----3--5----------0-|


                                                         Bb5
 ~~~~~~                                               ~~~~
   +S   S  S  S  S  +S      S  E    S  S  S  E       +E
|-(13)----13----13-(13)b16r13---------13----13b16r==(13)----|
|------15----15---------------15---15----15-----------------|
|-----------------------------------------------------------|
|-----------------------------------------------------------|
|-----------------------------------------------------------|
|-----------------------------------------------------------|
|
|          PM---------------------------------------|
|  +E      S  S  S   S      S  S S  S  S  S  S    S   S  S
|-----------------------------------------------------------|
|-----------------------------------------------------------|
|-----------------------------------------------------------|
|--(0)---------------------------------------------------8--|
|--(0)-----0--0--0---0------0--0-0--0--0--0--0----0---0--8--|
|--(0)-----0--0--0---0------0--0-0--0--0--0--0----0---0--8--|


  1.
                               F5                 Dm/G       D5
                                                              ~~~
    S   S  S  S   S  +S      S  S  S   S  S  S  S  S       S  S
|-/13-----13----/17-(17)b19r17-13-13-----------13-15b15.5-13-13-|
|------15----15-----------------------15------------------------|
|----------------------------------------14---------------------|
|-------------------------------------------15------------------|
|---------------------------------------------------------------|
|---------------------------------------------------------------|
|
|  +E      E      S   S      S  S +E      E     S  E          S
|---------------------------------------------------------------|
|---------------------------------------------------------------|
|---------------------------------------------------------------|
|--(8)-----8------8---8------8--3-(3)-----3-----3--3----------0-|
|--(8)-----8------8---8------8--3-(3)-----3-----3--5----------0-|
|--(8)-----8------8---8------8--3-(3)-----3-----3--5----------0-|


 ~~~~~~                                                  ~~~~
   +S   S  S  S  S  +S      S  E    S  S  S  S  +S      +E
|-(13)----13----13-(13)b16r13---------13----13-(13)b16r(13)----||
|------15----15---------------15---15----15-------------------o||
|--------------------------------------------------------------||
|--------------------------------------------------------------||
|-------------------------------------------------------------o||
|--------------------------------------------------------------||
|
|          PM------------------------------------------|
|  +E      S  S  S   S      S  S S  S  S  S  S   S       S  S
|--------------------------------------------------------------||
|-------------------------------------------------------------o||
|--------------------------------------------------------------||
|--(0)------------------------------------------------------8--||
|--(0)-----0--0--0---0------0--0-0--0--0--0--0---0-------0--8-o||
|--(0)-----0--0--0---0------0--0-0--0--0--0--0---0-------0--8--||


  2.
                               F5       Dm/G       D5
    S   S  S  S   S  +S      S  S Q   S  S     +S   S
|-/13-----13----/17-(17)b19r17-------17-17b19r(17)-13-|
|------15----15----------------13---------------------|
|-----------------------------------------------------|
|-----------------------------------------------------|
|-----------------------------------------------------|
|-----------------------------------------------------|
|
|  +E      E      S   S      S  S Q   S  E          S
|-----------------------------------------------------|
|-----------------------------------------------------|
|-----------------------------------------------------|
|--(8)-----8------8---8------8--3-----3--3----------0-|
|--(8)-----8------8---8------8--3-----3--5----------0-|
|--(8)-----8------8---8------8--3-----3--5----------0-|


                        ~~~~
   +H                S  Q..
|-(13)---------------8-10---------------|
|---------------------------------------|
|---------------------------------------|
|---------------------------------------|
|---------------------------------------|
|---------------------------------------|
|
|      PM-----------------------------|
|  +S  S S S S S S S S  S   S S S S S S
|---------------------------------------|
|---------------------------------------|
|---------------------------------------|
|--(0)----------------------------------|
|--(0)-0-0-0-0-0-0-0-0--0---0-0-0-0-0-0-|
|--(0)-0-0-0-0-0-0-0-0--0---0-0-0-0-0-0-|


    Bb5                         F5                 Dm/G       D5
                                                               ~~~
      S  S  S  S   S  +S      S  S  S   S  S  S  S  S       S  S
||--/13----13----/17-(17)b19r17-13-13-----------13-15b15.5-13-13-|
||o-----15----15-----------------------15------------------------|
||----------------------------------------14---------------------|
||-------------------------------------------15------------------|
||o--------------------------------------------------------------|
||---------------------------------------------------------------|
|
|     E     E      S   S      S  S +E      E     S  E          S
||---------------------------------------------------------------|
||o--------------------------------------------------------------|
||---------------------------------------------------------------|
||----8-----8------8---8------8--3-(3)-----3-----3--3----------0-|
||o---8-----8------8---8------8--3-(3)-----3-----3--5----------0-|
||----8-----8------8---8------8--3-(3)-----3-----3--5----------0-|


                                                       Bb5
 ~~~~~~                                             ~~~~
   +S   S  S  S  S  +S      S  E    S  S  S  E     +E
|-(13)----13----13-(13)b16r13---------13----13b16r(13)---|
|------15----15---------------15---15----15--------------|
|--------------------------------------------------------|
|--------------------------------------------------------|
|--------------------------------------------------------|
|--------------------------------------------------------|
|
|  +E      E     E          E    E     E     E      S  S
|--------------------------------------------------------|
|--------------------------------------------------------|
|--------------------------------------------------------|
|--(0)-----0-----0----------0----0-----0-----0------0--8-|
|--(0)-----0-----0----------0----0-----0-----0------0--8-|
|--(0)-----0-----0----------0----0-----0-----0------0--8-|


  1.
                               F5                 Dm/G       D5
                                                              ~~~
    S   S  S  S   S  +S      S  S  S   S  S  S  S  S       S  S
|-/13-----13----/17-(17)b19r17-13-13-----------13-15b15.5-13-13-|
|------15----15-----------------------15------------------------|
|----------------------------------------14---------------------|
|-------------------------------------------15------------------|
|---------------------------------------------------------------|
|---------------------------------------------------------------|
|
|  +E      E      S   S      S  S +E      E     S  E          S
|---------------------------------------------------------------|
|---------------------------------------------------------------|
|---------------------------------------------------------------|
|--(8)-----8------8---8------8--3-(3)-----3-----3--3----------0-|
|--(8)-----8------8---8------8--3-(3)-----3-----3--5----------0-|
|--(8)-----8------8---8------8--3-(3)-----3-----3--5----------0-|


                                                            Bb5
 ~~~~~~                                                  ~~~~
   +S   S  S  S  S  +S      S  E    S  S  S  S  +S      +E
|-(13)----13----13-(13)b16r13---------13----13-(13)b16r(13)----||
|------15----15---------------15---15----15-------------------o||
|--------------------------------------------------------------||
|--------------------------------------------------------------||
|-------------------------------------------------------------o||
|--------------------------------------------------------------||
|
|  +E      E     E          E    E     E     E           S  S
|--------------------------------------------------------------||
|-------------------------------------------------------------o||
|--------------------------------------------------------------||
|--(0)-----0-----0----------0----0-----0-----0-----------0--8--||
|--(0)-----0-----0----------0----0-----0-----0-----------0--8-o||
|--(0)-----0-----0----------0----0-----0-----0-----------0--8--||


  2.
                               F5       Dm/G       D5
    S   S  S  S   S  +S      S  S Q   S  S     +S   S    +W
|-/13-----13----/17-(17)b19r17-------17-17b19r(17)-13-|-(13)----||
|------15----15----------------13---------------------|---------||
|-----------------------------------------------------|---------||
|-----------------------------------------------------|---------||
|-----------------------------------------------------|---------||
|-----------------------------------------------------|---------||
|
|  +E      E      S   S      S  S Q   S  E          S    +W
|-----------------------------------------------------|---------||
|-----------------------------------------------------|---------||
|-----------------------------------------------------|---------||
|--(8)-----8------8---8------8--3-----3--3----------0-|--(0)----||
|--(8)-----8------8---8------8--3-----3--5----------0-|--(0)----||
|--(8)-----8------8---8------8--3-----3--5----------0-|--(0)----||


   Outro
    G5        Bb5    F5       Eb5      Eb5               D5
    Gtr II
     ~~~      ~~~~~~~~~~
     Q.   S S H      Q.   S S E E Q    E E E E E E E E   E E E  E E E  E E
||-----------------|-----------------|-----------------|--------------/3-2--||
||o-/3------3-6----|-----------------|---------3-------|-------/1-3-4-/4-3-o||
||---x----5-x-3----|-5----3-5-3-2-0--|-0-3-2-3-3-3-2-3-|-0-2-3-/2-3-5-------||
||--/5----3-5------|-x----3-3-3-3-1--|-1-5-3-5---5-3-5-|-0-3-5--------------||
||o----------------|-3---------------|-----------------|-------------------o||
||-----------------|-----------------|-----------------|--------------------||
|
|   Gtr III
|                                        PM----------|     PM------------|
|    H        H      H        H        E E E E E E E E   E E E  E E E  E E
||-----------------|-----------------|-----------------|--------------------||
||o----------------|-----------------|-----------------|-------------------o||
||-----------------|-----------------|-----------------|--------------------||
||---5--------8----|-3--------1------|-1---------------|-0------------------||
||o--5--------8----|-3--------1------|-1-1-1-1-1-1-1-1-|-0-0-0--0-0-0--0-0-o||
||---5--------8----|-3--------1------|-1-1-1-1-1-1-1-1-|-0-0-0--0-0-0--0-0--||


 Guitar Solo
(Tried My Best, Any corrections email me @ Bleedingforblasphemy@hotmail.com)
  G5           Bb5     F5               Eb5
  Gtr IV
    Q.    S  S  H       Q    S  S  S  S  S     +S   S  S  S     +S   S  S
|--------------------|----------------------------------------------------|
|--------------------|----------------------------------------------------|
|--------------------|---------------12-14b15r(14)-14----15b16r(15)-15----|
|--------------15----|-15---------15------------------15---------------15-|
|-/17----15h17-------|------15h17-----------------------------------------|
|--------------------|----------------------------------------------------|
|
| Gtrs II, III
|   ~~~~        ~~
|   Q.    S  S  H       Q.         S  S  E          E     Q
|--------------------|----------------------------------------------------|
|--/3--------3--6----|----------------------------------------------------|
|---------5-----3----|--5----------3--5--3----------2-----0---------------|
|--/5-----3--5-------|-------------3--3--3----------3-----1---------------|
|--------------------|--3-------------------------------------------------|
|--------------------|----------------------------------------------------|


  Eb5                                                       D5
                                |--3--|  |--3--|  |--3--|
   E     +E   S  S  S  S  S  S  S  S  S  S  S  S  S  S  S    S  S  S  S  +S   S  S  S  S 
S  S  S  S  S  S  S
|---------------------------------------------------------|-14p11------------------------------------------------|
|------------------------------------------------16h17h19-|-------15p13-(13)-------------------------------------|
|---------------------14h15h17p15-17h19p15-17h19----------|------------------15p14h15----------------------------|
|-17b18r(17)-17h19h20-------------------------------------|---------------------------12p10h12-------------------|
|---------------------------------------------------------|------------------------------------13p12p10----------|
|---------------------------------------------------------|---------------------------------------------11h12----|
|
|  E      E   E     E     E     E        E        E          E     E      E      E     E 
   E     E     E
|---------------------------------------------------------|----------------------------------------3-----2-------|
|-------------------------3-------------------------------|----------------------1-----3-----4-----4-----3-------|
|--0------3---2-----3-----3-----3--------2--------3-------|--0-----2------3------2-----3-----5-------------------|
|--1------5---3-----5-----------5--------3--------5-------|--0-----3------5--------------------------------------|
|---------------------------------------------------------|------------------------------------------------------|
|---------------------------------------------------------|------------------------------------------------------|


  G5               Bb5                 F5                 Eb5
   ~~~              ~~                                     ~~
   Q    S  S  S  S  Q   +S   S  S  S    Q    +S   S  S  S  Q    E.  T  T
|------------------------------18----|-17---(17)----20----18---18--18p17-|
|---------------13-15--(15)-15----15-|-----------15----15----------------|
|------12-14-15----------------------|-----------------------------------|
|------------------------------------|-----------------------------------|
|-13---------------------------------|-----------------------------------|
|------------------------------------|-----------------------------------|
|
|  ~~~              ~~
|  Q.         S  S  H                   Q.           S  S  E E  Q
|------------------------------------|-----------------------------------|
|-/3-------------3--6----------------|-----------------------------------|
|-------------5-----3----------------|--5------------3--5--3-2--0--------|
|-/5----------3--5-------------------|---------------3--3--3-3--1--------|
|------------------------------------|--3--------------------------------|
|------------------------------------|-----------------------------------|


                                        ~~
   Q    +S   S  S     S  S  S  S  S  S  S  E
|-15---(15)----------------------------------|
|--------------15b16-------------------------|
|-----------15-------15-14-12-14-15-14----14-|
|--------------------------------------12----|
|--------------------------------------------|
|--------------------------------------------|
|
|  E E   E      E        E     E     E     E
|--------------------------------------------|
|------------------------3-------------------|
|--0-3---2------3--------3-----3-----2-----3-|
|--1-5---3------5--------------5-----3-----5-|
|--------------------------------------------|
|--------------------------------------------|


  D5
   |--3--|   |--3---|                                                            |--3--| 
|--3--|
   S  S  S  +S   S  S  T  T  T  T  T  T  T  T   S  T  T  T  T  T  T  T  T  T  T  T  T  T 
T  T  T
|---------------------------------------------/10-------------------------------------12-14-15-17-|
|----------------------------------------------------------------------------13-15-17-------------|
|---------------------14-12-11----------11-12-----12-13-12----------12-14-16----------------------|
|-16-14-12-(12)-14-16----------14-12-14--------------------12-14-16-------------------------------|
|-------------------------------------------------------------------------------------------------|
|-------------------------------------------------------------------------------------------------|
|
|  E         E         E           E            E        E           E           E
|--------------------------------------------------------------------3-----------2----------------|
|----------------------------------1------------3--------4-----------4-----------3----------------|
|--0---------2---------3-----------2------------3--------5----------------------------------------|
|--0---------3---------5--------------------------------------------------------------------------|
|-------------------------------------------------------------------------------------------------|
|-------------------------------------------------------------------------------------------------|


  G5                           Bb5
   ~~~~~~~~~                    ~~~~~~
   Q    +S   S       S  S       H
|-18---(18)---------18---------22----|
|-----------15b15.5----15b15.5-------|
|------------------------------------|
|------------------------------------|
|------------------------------------|
|------------------------------------|
|
|  ~~~                          ~~
|  Q.                S  S       H
|------------------------------------|
|-/3--------------------3-------6----|
|--------------------5----------3----|
|-/5-----------------3--5------------|
|------------------------------------|
|------------------------------------|


  F5                                        Eb5
 ~~~~~~~~~~~~~~~~~~~~~~~~~~~~~~~                ~~~~~~~
   S   +S      +S   +S      +S   S  T  T  S  S  S  +Q.
|-17--(17)b19r(17)-(17)b19r(17)----------13-13-15-(15)----|
|-------------------------------------15------------------|
|-------------------------------14-15---------------------|
|---------------------------------------------------------|
|---------------------------------------------------------|
|---------------------------------------------------------|
|
|  Q.                               S     S  E      E  Q
|---------------------------------------------------------|
|---------------------------------------------------------|
|--5--------------------------------3-----5--3------2--0--|
|-----------------------------------3-----3--3------3--1--|
|--3------------------------------------------------------|
|---------------------------------------------------------|


  Eb5
                        ~~~~~~~~~~~~~~~~~
   |--3--|  |--3--|  |--3--|  |--3--|  |--3--|  |--3--|  |--3--|  |--3--|
   S  S  S  S  S  S  S  S  S  S  S  S  S  S  S  S  S  S  S  S  S  S  S  S
|-15-------------------------------------------------------11-13-11-------|
|----15-15-15S13-13-13-------------------------------13-15----------15-13-|
|----------------------15-15-15S14-15-12----12-14-15----------------------|
|----------------------------------------15-------------------------------|
|-------------------------------------------------------------------------|
|-------------------------------------------------------------------------|
|
|  E        E        E        E        E        E        E        E
|-------------------------------------------------------------------------|
|--------------------------------------3----------------------------------|
|--0--------3--------2--------3--------3--------3--------2--------3-------|
|--1--------5--------3--------5-----------------5--------3--------5-------|
|-------------------------------------------------------------------------|
|-------------------------------------------------------------------------|


  D5
   |--3--|  |-----3------|  |-----3-----|  |--3--|  |--3--|  |--3--|
   S  S  S  S         S  S  S        S  S  S  S  S  S  S  S  S  S  S  T  T  T  T  T  T  T T
|-17-14-14-14pb14.5\---------------------------------------------------------------------------|
|--------------------15-15-15b15.5\------------------------------------------------------------|
|-----------------------------------15-15-15-12-12-12-------------------------------------11---|
|-----------------------------------------------------12-12-12-------------------------12------|
|--------------------------------------------------------------13-13----------10-12-13---------|
|--------------------------------------------------------------------12-14-15------------------|
|
|  E        E               E              E        E        E        E           E
|---------------------------------------------------------------------3-----------2------------|
|------------------------------------------1--------3--------4--------4-----------3------------|
|--0--------2---------------3--------------2--------3--------5---------------------------------|
|--0--------3---------------5------------------------------------------------------------------|
|----------------------------------------------------------------------------------------------|
|----------------------------------------------------------------------------------------------|


  G5                           Bb5              F5              Eb5
                                                                                \0.25   /
                                ~~~
                                                                 |--3--|  |--3--|
   Q    +S   S       S  S       Q.    +E      a  Q       Q       S  S  S  S  S  S       Q
|------------------------------15----(15)\-|-17S18b19===18r-----18-17-15-------------------|
|------------------------------------------|-----------------------------15-13-------------|
|-12---(12)---------12---------------------|-----------------------------------12-----/15--|
|-----------12b12.5----12b12.5-------------|-----------------------------------------------|
|------------------------------------------|-----------------------------------------------|
|------------------------------------------|-----------------------------------------------|
|
|  ~~~                          ~~~
|  Q.                S  S       H                Q.         S S  E        E             Q
|------------------------------------------|-----------------------------------------------|
|-/3--------------------3-------6----------|-----------------------------------------------|
|--------------------5----------3----------|-----5----------3-5--3--------2-------------0--|
|-/5-----------------3--5------------------|----------------3-3--3--------3-------------1--|
|------------------------------------------|-----3-----------------------------------------|
|------------------------------------------|-----------------------------------------------|


                                           D5
   E     +E   +Q     a  E     +E   +Q        E      +E   +Q     S  +S      +S   +S      Q
|-17b18-(17)-(17)---20-19b20-(19)-(19)---|-[18]b19-(18)-(18)---17-(17)b19-(17)-(17)b19------|
|----------------------------------------|---------------------------------------------15---|
|----------------------------------------|--------------------------------------------------|
|----------------------------------------|--------------------------------------------------|
|----------------------------------------|--------------------------------------------------|
|----------------------------------------|--------------------------------------------------|
|
|  E      E    E  E     E      E    E  E     E       E    E  E  E           E           EE
|----------------------------------------|----------------------------------------------3-2-|
|-----------------------3----------------|-------------------1--3-----------4-----------4-3-|
|--0------3----2--3-----3------3----2--3-|---0-------2----3--2--3-----------5---------------|
|--1------5----3--5------------5----3--5-|---0-------3----5---------------------------------|
|----------------------------------------|--------------------------------------------------|
|----------------------------------------|--------------------------------------------------|


  G5                                                 Bb5
   \0.25____________________________________\0.75/
                                            ~~~~~~~
   T       T  T  T  T  T  T  T  T  T  T  T  Q           T  T  T  T  T  T  T  T   E
|-15------18-15----------------------------13--------------------------------------|
|---------------15-13----------------------------------13h15p13----13----------/13-|
|---------------------15-17-15-14-15-14-------------------------15----15-12-15-----|
|---------------------------------------17-----------------------------------------|
|----------------------------------------------------------------------------------|
|----------------------------------------------------------------------------------|
|
|  \0.25____________________________________________________________________________
|  ~~~~~~~                                           ~
|  Q.                                       S      S H
|----------------------------------------------------------------------------------|
|-/3-----------------------------------------------3-6-----------------------------|
|-------------------------------------------5--------3-----------------------------|
|-/5----------------------------------------3------5-------------------------------|
|----------------------------------------------------------------------------------|
|----------------------------------------------------------------------------------|


  F5                                              Eb5
                                                                   ~~~
   T   T  T  T  T  T  T  S  S  S    +S        +Q       +E      T   E
|--------------11-13h15-15-17-18---(18)b20---(18)-----(18)\------/18--|
|-----12-13-15------------------------------------------------15------|
|-15------------------------------------------------------------------|
|---------------------------------------------------------------------|
|---------------------------------------------------------------------|
|---------------------------------------------------------------------|
|
|  Q.                            S         S      E E       Q
|---------------------------------------------------------------------|
|---------------------------------------------------------------------|
|--5-----------------------------3---------5------3-2-------0---------|
|--------------------------------3---------3------3-3-------1---------|
|--3------------------------------------------------------------------|
|---------------------------------------------------------------------|


  Eb5
   T  T  T  T  T  T  T  T  T  T  T  T   T  T  T  T  T  T  T  T  T  T  T  T  T  T  T  T  T T  T  T
|-18-15-18p15-13----------20-18h20-17\----------------12h14h15h18p17h18p17p15p13-------------------|
|----------------15-13--------------------------13-15----------------------------15p13-------------|
|----------------------15--------------12-14-15----------------------------------------15-14-12----|
|-----------------------------------------------------------------------------------------------15-|
|--------------------------------------------------------------------------------------------------|
|--------------------------------------------------------------------------------------------------|
|
|  E           E           E            E           E           E           E           E
|--------------------------------------------------------------------------------------------------|
|---------------------------------------------------3----------------------------------------------|
|--0-----------3-----------2------------3-----------3-----------3-----------2-----------3----------|
|--1-----------5-----------3------------5-----------------------5-----------3-----------5----------|
|--------------------------------------------------------------------------------------------------|
|--------------------------------------------------------------------------------------------------|


  D5
   |---------------6----------------|  |---------------6----------------|  
 |----------6-----------|
   T  T  T  T  T  T  T  T  T  T  T  T  T  T  T  T  T  T  T  T  T  T  T  T  T  T  T  T  T 
T  T  T  T  T  T  T  T  T  T  T  T  E.      T
|-------------------------------------------------------------------------------------12-14-15-15-17-17-15-15-14-12-----------------------|
|-------------------------------11-13-15-15-15-15-10-10-10-11-11-13-13-15-15-13-13-15-------------------------------14-12-----------------|
|----------------------11-12-14-------------------------------------------------------------------------------------------14-13b15r==13---|
|-12-12-11-11-12-12-14--------------------------------------------------------------------------------------------------------------------|
|-----------------------------------------------------------------------------------------------------------------------------------------|
|-----------------------------------------------------------------------------------------------------------------------------------------|
|
|  E                 E                 E                 E                 E             
   E                 E                   E
|--------------------------------------------------------------------------------------------------------------3-------------------2------|
|--------------------------------------------------------1-----------------3-----------------4-----------------4-------------------3------|
|--0-----------------2-----------------3-----------------2-----------------3-----------------5--------------------------------------------|
|--0-----------------3-----------------5--------------------------------------------------------------------------------------------------|
|-----------------------------------------------------------------------------------------------------------------------------------------|
|-----------------------------------------------------------------------------------------------------------------------------------------|


  H.=H
  G5                             Bb5
    \0.5_______________________________________________
                                  ~~~~~~~~~
    Q       T T  T  T T  T  T  T  Q.        T  T  T T
|---------------------9-10-12-13-14pb15.5r============|
|-------------9-10-12---------------------------------|
|-/11------11---------------------------------------9-|
|-------------------------------------------9-11-12---|
|-----------------------------------------------------|
|-----------------------------------------------------|
|
|   \0.5_______________________________________________
|   ~~~~~~~                       ~~~~~~~~~
|   Q.                S     S     H
|-----------------------------------------------------|
|--/3-----------------------3-----6-------------------|
|---------------------5-----------3-------------------|
|--/5-----------------3-----5-------------------------|
|-----------------------------------------------------|
|-----------------------------------------------------|


  F5                                                     Eb5
                                                                ~~~~~~
   T   T     T  T  T     T  T  T  T  T  T  T  T  T  T  T  S  S  E     T  T  T  T  T  T  T T
|-----20b22-------18b20----------18-20-18-17-------------------------------------------------|
|-14-----------------------------------------20-18-17----------------------------------------|
|-----------18-18-------18-18-18----------------------19-17----15b16r==================10-12-|
|-----------------------------------------------------------17----------------10-12-13-------|
|--------------------------------------------------------------------10-12-13----------------|
|--------------------------------------------------------------------------------------------|
|
|  Q.                                         S     S     E     E     Q
|--------------------------------------------------------------------------------------------|
|--------------------------------------------------------------------------------------------|
|--5------------------------------------------3-----5-----3-----2-----0----------------------|
|---------------------------------------------3-----3-----3-----3-----1----------------------|
|--3-----------------------------------------------------------------------------------------|
|--------------------------------------------------------------------------------------------|


  Eb5
                                                                             |--3--|
   T T T T T T  T T T T T T  T T T T T T  T    T T T T  T  T  T  T  T  S     T  T  T
|------------------------------------------------------------------13-15b16----------|
|------------------------------------------------------------10-13----------13-15-11-|
|--------7------------7------------7---------------7-8-10-12-------------------------|
|----7-8---8-7----7-8---8-7----7-8---8-7-------7-8-----------------------------------|
|-10-----------10-----------10-----------10b12---------------------------------------|
|------------------------------------------------------------------------------------|
|
|  E       E        E        E       E           E         E           E
|------------------------------------------------------------------------------------|
|------------------------------------3-----------------------------------------------|
|--0-------3--------2--------3-------3-----------3---------2-----------3-------------|
|--1-------5--------3--------5-------------------5---------3-----------5-------------|
|------------------------------------------------------------------------------------|
|------------------------------------------------------------------------------------|


  D5
   T  T  T  T       T  T  T  T  T  T  T  T  T  T  T  T         T  T  T  T  T  T  T  T  T 
T  T  T  S  S
|----------11pb11.5---------------------11h13p11-------------/17-15----18-15----18-17-15------------------|
|-11-13-15------------------10-11h13p11----------11-13b13.5r/-------17-------17----------18-16-15---------|
|-------------------9-10-12-----------------------------------------------------------------------17-15\--|
|---------------------------------------------------------------------------------------------------------|
|---------------------------------------------------------------------------------------------------------|
|---------------------------------------------------------------------------------------------------------|
|
|  E                E           E           E                  E           E           E 
         E
|--------------------------------------------------------------------------------------3-----------2------|
|-------------------------------------------1------------------3-----------4-----------4-----------3------|
|--0----------------2-----------3-----------2------------------3-----------5------------------------------|
|--0----------------3-----------5-------------------------------------------------------------------------|
|---------------------------------------------------------------------------------------------------------|
|---------------------------------------------------------------------------------------------------------|


  G5                                Bb5
    \0.75______________________________________________________________
             ~~~~~~~~~~~~~~                                        ~~~
    Q        T  T  T  T  T  T  T  T  T  T  T  T  T  T  T  T  T  T  E.
|-----------------------------------------------------------10h11-11--|
|-----------------------------------------------\8-10-11-13-----------|
|-----------------------------------/8-10-12-10-----------------------|
|-/10b12r============12-10----10-12-----------------------------------|
|-----------10-12-13-------13-----------------------------------------|
|---------------------------------------------------------------------|
|
|   \0.75______________________________________________________________
|   ~~~~~~~~                         ~~
|   Q.                   S     S     H
|---------------------------------------------------------------------|
|--/3--------------------------3-----6--------------------------------|
|------------------------5-----------3--------------------------------|
|--/5--------------------3-----5--------------------------------------|
|---------------------------------------------------------------------|
|---------------------------------------------------------------------|


  F5                                               Eb5
          ~~~~~~~~~~~~~~~~~~~~~
   T   T  T  T  T  T  T  T  T  T  T  T  T  T  T  T  T  T  T  T  T  T  S  +E   T  T  T  T
|--------------------------15h18-------18h19---------------------------------------------|
|-----------------11h13h15-------16p15-------16-15-13------------------------------------|
|--------11s13h15-------------------------------------13----------13-15-(15)-------------|
|-13--15-------------------------------------------------13-15h17------------------12h13-|
|----------------------------------------------------------------------------13h15-------|
|----------------------------------------------------------------------------------------|
|
|  Q.                                   S     S     E           E         Q
|----------------------------------------------------------------------------------------|
|----------------------------------------------------------------------------------------|
|--5------------------------------------3-----5-----3-----------2---------0--------------|
|---------------------------------------3-----3-----3-----------3---------1--------------|
|--3-------------------------------------------------------------------------------------|
|----------------------------------------------------------------------------------------|


  Eb5
   |-------6-------|  |------6-------|  |------6-------|  |------6-------|               |--3--| |--3--|
   T   T  T  T  T  T  T  T  T  T  T  T  T  T  T  T  T  T  T  T  T  T  T  T  E.    +S     S S  S  S  S  S
|--------------15-16-18p16p15h18p15----15----------------------------15h18h22----(22)\---------------------|
|-16h=18p16-15----------------------17----18-16-15----------15-16h18-----------------------------13p12h15--|
|--------------------------------------------------15p13h15----------------------------/13p12h15-----------|
|----------------------------------------------------------------------------------------------------------|
|----------------------------------------------------------------------------------------------------------|
|----------------------------------------------------------------------------------------------------------|
|
|  \1_______________________________________________________________________________________________________
|  E                  E                 E                 E                 E  E         E       E
|----------------------------------------------------------------------------------------------------------|
|---------------------------------------------------------------------------3------------------------------|
|--0------------------3-----------------2-----------------3-----------------3--3---------2--------3--------|
|--1------------------5-----------------3-----------------5--------------------5---------3--------5--------|
|----------------------------------------------------------------------------------------------------------|
|----------------------------------------------------------------------------------------------------------|


  D5
    ~~~~
                         |--3--|         |------6-------|  |------6-------|  |------6-------|
    E.    S  T  T  T  T  S  S  S   S  S  T  T  T  T  T  T  T  T  T  T  T  T  T  T  T  T  T T
|-/18----20h22---------------------------------------------------------------------------------|
|--------------19h21p17h19-----------------------------------------------------------13p11h13--|
|--------------------------18-20\-15----------------------12----12-13p12h13-15-13h15-----------|
|------------------------------------15p13p12h13h15-13-15----15--------------------------------|
|----------------------------------------------------------------------------------------------|
|----------------------------------------------------------------------------------------------|
|
|   E  E     E           E         E     E                 E                 E
|----------------------------------------------------------3-----------------2-----------------|
|------------------------1---------3-----4-----------------4-----------------3-----------------|
|---0--2-----3-----------2---------3-----5-----------------------------------------------------|
|---0--3-----5---------------------------------------------------------------------------------|
|----------------------------------------------------------------------------------------------|
|----------------------------------------------------------------------------------------------|


  G5                            Bb5
                      |---3---|     |------6-------|  |------6-------|
   E     +E      +E   S  S    S  S  T  T  T  T  T  T  T  T  T  T  T  T  S     +E
|-------------------------------------------------------------------12h15b17-(15)-|
|-------------------------------------------12----12-12h14h15p14h15---------------|
|-------------------------------13-13p12h13----13---------------------------------|
|-10b11r(10)b11r(10)-10h12---12---------------------------------------------------|
|---------------------------------------------------------------------------------|
|---------------------------------------------------------------------------------|
|
|  >
|  \1.5____________________________________________________________________________
|  ~~~~~~                        ~~
|  Q.                 S    S     H
|---------------------------------------------------------------------------------|
|-/3-----------------------3-----6------------------------------------------------|
|---------------------5----------3------------------------------------------------|
|-/5------------------3----5------------------------------------------------------|
|---------------------------------------------------------------------------------|
|---------------------------------------------------------------------------------|


  F5                                                           Eb5
          ~~                                                    ~~
   |-------6-------|  |------6-------|  |------6-------|
   T   T  T  T  T  T  T  T  T  T  T  T  T  T  T  T  T  T  E     H
|-15h=16p15----------------------------------------------------------|
|--------------------------------------------------------------------|
|-----------------------------------------------------15-------------|
|-----------15p13----------------------------12h13h15----------------|
|-----------------17p15p13-------------13h15-------------------------|
|--------------------------17p15p13p12-------------------12b13r12----|
|
| +W
|--------------------------------------------------------------------|
|-(6)----------------------------------------------------------------|
|-(3)----------------------------------------------------------------|
|--------------------------------------------------------------------|
|--------------------------------------------------------------------|
|--------------------------------------------------------------------|


  Eb5                   D5
  Gtr IV
  \4.5__________________\5_________________
        PM----------|       PM----------|
  E     E E E E E E E   E   E E E E E E E
|---------------------|-------------------|
|---------------------|-------------------|
|---------------------|-------------------|
|-1-------------------|-0-----------------|
|-2-----2-2-2-2-2-2-2-|-1---1-1-1-1-1-1-1-|
|-1-----1-1-1-1-1-1-1-|-0---0-0-0-0-0-0-0-|
|
| Gtrs II, III
| \4.5__________________\5_________________
|       PM----------|       PM----------|
| E     E E E E E E E   E   E E E E E E E
|---------------------|-------------------|
|---------------------|-------------------|
|---------------------|-------------------|
|-1-------------------|-0-----------------|
|-1-----1-1-1-1-1-1-1-|-0---0-0-0-0-0-0-0-|
|-1-----1-1-1-1-1-1-1-|-0---0-0-0-0-0-0-0-|


  Q=40
  G5
                 >
  \3.5
  W             +W
|-------------|--------*|
|-------------|--------*|
|-------------|--------*|
|-5-----------|-(5)----*|
|-6-----------|-(6)----*|
|-5-----------|-(5)----*|
|
|                >
| \3
| W             +W
|-------------|--------*|
|-------------|--------*|
|-------------|--------*|
|-5-----------|-(5)----*|
|-5-----------|-(5)----*|
|-5-----------|-(5)----*|
comments
print report bad tab
4 comments total. Showing first comments.
+1 reply
CrisseaLei wrote on December 9 2007, 02:32 am

I fail... i could almost play it perfectly... i cried on my attempt on the solo........

+1 reply
TheNextSynGates wrote on September 24 2008, 08:16 pm

THIS IS ONE BAD ASS SOLO! nice job man!!

+1 reply
god of rock121 wrote on August 21 2009, 02:20 pm

good good, well done dude you have a very good talent do some more tabs

I want to post or [tab]
guest
You may want to rate the tab now too:
select rating
Please do not post tabs as comments. Select "correction" instead!