Oops, an error
Loading. Please wait.

Avenged Sevenfold Bass Tab

1,207 views 28 this week
no commentswrite comment
1 2 3 4 5
excellent!
x 3
Autoscroll
+/-
esc
set tempo
stop
Contributor
Difficulty
intermediate
Hey! There's an official Ultimate Guitar app which is ideal
for learning songs when you're away from computer. Get the app
WARNING: You are trying to view
                                    content from Ultimate-Guitar.com
                                    in an unauthorized application,
                                    which is prohibited.

                                    Please use an official Ultimate
                                    Guitar Tabs application for iPhone,
                                    iPad or Android to access legitimate
                                    chords, guitar, bass, and drum tabs
                                    from Ultimate-Guitar.com database.

                                    Type "ultimate guitar tabs" in Apple
                                    App Store's or Android Market's
                                    search to find the application.
Critical Acclaim Drop D
Almost Easy Drop C#
Scream Drop C#
Afterlife Drop D
Gunslinger Drop D
Unbound (The Wild Ride) Drop D
Brompton Cocktail Drop D
Lost Drop D
A Little Piece Of Heaven Drop C#
Dear God Drop D

A special thanks to JackMills who is always kind enough to rate my tabs and help get
them approved :)

Critical Acclaim

Intro 0:23
G|-----------------------------------------------------------------|
D|-----------------------------------------------------------------|
A|-----------------3---------------1-------3-----------------------|
D|-0-----------------------------------------------0---------------|
   1 + 2 + 3 + 4 + 1 + 2 + 3 + 4 + 1 + 2 + 3 + 4 + 1 + 2 + 3 + 4 +

G|-----------------------------------------------------------------|
D|-----------------------------------------------------------------|
A|-5---------------3---------------1-------3-----------------------|
D|-------------------------------------------------0---------------|
   1 + 2 + 3 + 4 + 1 + 2 + 3 + 4 + 1 + 2 + 3 + 4 + 1 + 2 + 3 + 4 +

0:42
G|-------------------------------------------------------------------|
D|o-----------------------------------------------------------------o|
A|o-----------------------------------------------------------------o|x3
D|--0-0-0-0-0-0-0-0-0-0-0-0-0-0-0-0-0-0-0-0-0-0-0-0-0-0-0-0-0-0-0-0--|
    1 e + a 2 e + a 3 e + a 4 e + a 1 e + a 2 e + a 3 e + a 4 e + a

0:52
G|----------------------------------------------------|
D|o--------------------------------------------------o|
A|o--------------------------------------------------o|x3
D|--0-0-0-0-0-0-0-0---------0-0-0-0-0-0-0-0-----------|
    1 e + a 2 e + a 3 e + a 1 e + a 2 e + a 3 e + a

G|--------------------------------------------------|
D|--------------------------------------------------|
A|--------------------------------------------------|
D|-0-0-0-0-0-0-0-0----------------------------------|
   1 e + a 2 e + a 3 e + a 1 e + a 2 e + a 3 e + a

Verse 1:02
G|-------------------------------------------------------------------|
D|o-----------------------------------------------------------------o|
A|o-----------------------------------------------------------------o|x4
D|--0-----------0-0-1-p-0-------0---------------0-0-1-------1--------|
    1 e + a 2 e + a 3 e + a 4 e + a 1 e + a 2 e + a 3 e + a 4 e + a

Pre Chorus
G|-------------------------------------------------------------------|
D|o-----------------------------------------------------------------o|x4
A|o-----------------------------------------------------------------o|
D|--0-----------0-0-1-p-0-------0---0---0---0---0---1-------1--------|
    1 e + a 2 e + a 3 e + a 4 e + a 1 e + a 2 e + a 3 e + a 4 e + a

Chorus 1:32
G|-----------------------------------------------------------------|
D|-----------------------------------------------------------------|
A|-----------------------------------------------------------------|
D|-0-------------------------------2-------------------------------|
   1 + 2 + 3 + 4 + 1 + 2 + 3 + 4 + 1 + 2 + 3 + 4 + 1 + 2 + 3 + 4 +

G|-----------------------------------------------------------------|
D|-----------------------------------------------------------------|
A|-1---------------------------1/3-0-------------------------------|
D|-----------------------------------------------------------------|
   1 + 2 + 3 + 4 + 1 + 2 + 3 + 4 + 1 + 2 + 3 + 4 + 1 + 2 + 3 + 4 +

Spoken Verse 1:44
G|-----------------------------------------------------------------|
D|-----------------------------------------------------------------|
A|-----------------------------------------------------------------|
D|-0---------------------------------------------------------------|
   1 + 2 + 3 + 4 + 1 + 2 + 3 + 4 + 1 + 2 + 3 + 4 + 1 + 2 + 3 + 4 +

G|---------------------------------------------------------------------------------|
D|---------------------------------------------------------------------------------|
A|---------------------------------------------------------------------------------|
D|-----------------------------------------------------------------1---------------|
   1 + 2 + 3 + 4 + 1 + 2 + 3 + 4 + 1 + 2 + 3 + 4 + 1 + 2 + 3 + 4 + 1 + 2 + 3 + 4 +

Interlude 2:00
G|--------------------------------------------------|
D|--------------------------------------------------|
A|--------------------------------------------------|
D|-0-0-0-0-0-0-0-0---------0-0-0-0-0-0-0-0----------|
   1 e + a 2 e + a 3 e + a 1 e + a 2 e + a 3 e + a

G|--------------------------------------------------|
D|--------------------------------------------------|
A|--------------------------------------------------|
D|-0-0-0-0-0-0-0-0---------------------/---12--\----|
   1 e + a 2 e + a 3 e + a 1 e + a 2 e + a 3 e + a

Verse 2:04
G|-------------------------------------------------------------------|
D|o-----------------------------------------------------------------o|
A|o-----------------------------------------------------------------o|
D|--0-----------0---1-p-0-------0---------------0-0-1-------1--------|
    1 e + a 2 e + a 3 e + a 4 e + a 1 e + a 2 e + a 3 e + a 4 e + a

G|-------------------------------------------------------------------|
D|o-----------------------------------------------------------------o|
A|o-----------------------------------------------------------------o|
D|--0-----------0-0-1-p-0-------0---------------0-0-1-------1--------|
    1 e + a 2 e + a 3 e + a 4 e + a 1 e + a 2 e + a 3 e + a 4 e + a

Pre Chorus
G|-------------------------------------------------------------------|
D|o-----------------------------------------------------------------o|x4
A|o-----------------------------------------------------------------o|
D|--0-----------0-0-1-p-0-------0---0---0---0---0---1-------1--------|
    1 e + a 2 e + a 3 e + a 4 e + a 1 e + a 2 e + a 3 e + a 4 e + a

Chorus 2:32
G|-----------------------------------------------------------------|
D|-----------------------------------------------------------------|
A|-----------------------------------------------------------------|
D|-0-------------------------------2-------------------------------|
   1 + 2 + 3 + 4 + 1 + 2 + 3 + 4 + 1 + 2 + 3 + 4 + 1 + 2 + 3 + 4 +

G|-----------------------------------------------------------------|
D|-----------------------------------------------------------------|
A|-1---------------------------1/3-0-------------------------------|
D|-----------------------------------------------------------------|
   1 + 2 + 3 + 4 + 1 + 2 + 3 + 4 + 1 + 2 + 3 + 4 + 1 + 2 + 3 + 4 +

Spoken Verse 2:46
G|-----------------------------------------------------------------|
D|-----------------------------------------------------------------|
A|-----------------------------------------------------------------|
D|-0---------------------------------------------------------------|
   1 + 2 + 3 + 4 + 1 + 2 + 3 + 4 + 1 + 2 + 3 + 4 + 1 + 2 + 3 + 4 +

G|---------------------------------------------------------------------------------|
D|---------------------------------------------------------------------------------|
A|---------------------------------------------------------------------------------|
D|-----------------------------------------------------------------1---------------|
   1 + 2 + 3 + 4 + 1 + 2 + 3 + 4 + 1 + 2 + 3 + 4 + 1 + 2 + 3 + 4 + 1 + 2 + 3 + 4 +

Bridge 3:00
G|-------------------------------------------------------------------------------------------------|
D|-------------------------------------------------------------------------------------------------|
A|-------------------------3---3-3---3-3-------3-/-8---8-8---8-8-------8-\-1---1-1---1-1---1---1-0-|
D|-5---5-5---5-5-------5-5-------------------------------------------------------------------------|
   1 + 2 + 3 + 4 + 5 + 6 + 1 + 2 + 3 + 4 + 5 + 6 + 1 + 2 + 3 + 4 + 5 + 6 + 1 + 2 + 3 + 4 +
5 + 6 +

G|-------------------------------------------------------------------------------------------------|
D|-------------------------------------------------------------------------------------------------|
A|-------------------------------------3---3-3-----5---5-5---5-------------------------------------|
D|-6---6-6---6-6-------6---5---5-5---5-------------------------0---0-0-0-0-5---5---5---5-5-5-5-5-5-|
   1 + 2 + 3 + 4 + 5 + 6 + 1 + 2 + 3 + 4 + 5 + 6 + 1 + 2 + 3 + 4 + 5 + 6 + 1 + 2 + 3 + 4 +
5 + 6 +

G|-------------------------------------------------------------------------------------------------|
D|-------------------------------------------------------------------------------------------------|
A|-------------------------3---3-3---3-3-------3---------------------------1---1-1---1-1---1---1-0-|
D|-5---5-5---5-5-------5---------------------------3---3-3---3-3-------3---------------------------|
   1 + 2 + 3 + 4 + 5 + 6 + 1 + 2 + 3 + 4 + 5 + 6 + 1 + 2 + 3 + 4 + 5 + 6 + 1 + 2 + 3 + 4 +
5 + 6 +

G|-------------------------------------------------------------------------------------------------|
D|-------------------------------------------------------------------------------------------------|
A|-------------------------------------3-------3---0---0-0---0-0---0-0-0-0-0---0-0---0-0---0---0---|
D|-6---6-6---6-6-------6---5---5-5---5-------------------------------------------------------------|
   1 + 2 + 3 + 4 + 5 + 6 + 1 + 2 + 3 + 4 + 5 + 6 + 1 + 2 + 3 + 4 + 5 + 6 + 1 + 2 + 3 + 4 +
5 + 6 +

Interlude 3:43
G|-----------------------------------------------------------------|
D|-----------------------------------------------------------------|
A|-----------------------------------------------------------------|
D|-0---------------------------------------------------------------|
   1 + 2 + 3 + 4 + 1 + 2 + 3 + 4 + 1 + 2 + 3 + 4 + 1 + 2 + 3 + 4 +

Solo 3:52
G|-------------------------------------------------------------------|
D|o-----------------------------------------------------------------o|
A|o-----------------------------------------------------------------o|
D|--1-p-0-----------0-0-0-0-0-0-0-0-1-p-0-----------0-0-0-0-0-0-0-0--|
    1 e + a 2 e + a 3 e + a 4 e + a 1 e + a 2 e + a 3 e + a 4 e + a

G|-------------------------------------------------------------------|
D|o-----------------------------------------------------------------o|
A|o-----------------------------------------------------------------o|
D|--6-p-5-----------5-5-5-5-5-5-5-5-6-p-5-----------5-5-5-5-5-5-5-5--|
    1 e + a 2 e + a 3 e + a 4 e + a 1 e + a 2 e + a 3 e + a 4 e + a

G|-------------------------------------------------------------------|
D|o-----------------------------------------------------------------o|
A|o-4-p-3-----------3-3-3-3-3-3-3-3-4-p-3-----------3-3-3-3-3-3-3-3-o|
D|-------------------------------------------------------------------|
    1 e + a 2 e + a 3 e + a 4 e + a 1 e + a 2 e + a 3 e + a 4 e + a

G|-------------------------------------------------------------------|-----------------|
D|o-----------------------------------------------------------------o|-----------------|
A|o-1-p-0-----------0-0-0-0-0-0-0-0-1-p-0-----------0-0-0-0-0-0-0-0-o|-0---------------|
D|-------------------------------------------------------------------|-----------------|
    1 e + a 2 e + a 3 e + a 4 e + a 1 e + a 2 e + a 3 e + a 4 e + a    1 + 2 + 3 + 4 +

Pre Chorus 4:23
G|-------------------------------------------------------------------|
D|o-----------------------------------------------------------------o|x4
A|o-----------------------------------------------------------------o|
D|--0-----------0-0-1-p-0-------0---0---0---0---0---1-------1--------|
    1 e + a 2 e + a 3 e + a 4 e + a 1 e + a 2 e + a 3 e + a 4 e + a

Chorus 4:38
G|-----------------------------------------------------------------|
D|-----------------------------------------------------------------|
A|-----------------------------------------------------------------|
D|-0-------------------------------2-------------------------------|
   1 + 2 + 3 + 4 + 1 + 2 + 3 + 4 + 1 + 2 + 3 + 4 + 1 + 2 + 3 + 4 +

G|-----------------------------------------------------------------|
D|-----------------------------------------------------------------|
A|-1---------------------------1/3-0-------------------------------|
D|-----------------------------------------------------------------|
   1 + 2 + 3 + 4 + 1 + 2 + 3 + 4 + 1 + 2 + 3 + 4 + 1 + 2 + 3 + 4 +

G|-----------------------------------------------------------------|
D|-----------------------------------------------------------------|
A|-----------------------------------------------------------------|
D|-0---------------0---0---0---0---2---------------2-----2-2-----2-|
   1 + 2 + 3 + 4 + 1 + 2 + 3 + 4 + 1 + 2 + 3 + 4 + 1 + 2 + 3 + 4 +

G|-----------------------------------------------------------------|
D|-----------------------------------------------------------------|
A|-1---------------1---1---1---1/3-0---------------0---0---0---0---|
D|-----------------------------------------------------------------|
   1 + 2 + 3 + 4 + 1 + 2 + 3 + 4 + 1 + 2 + 3 + 4 + 1 + 2 + 3 + 4 +

Outro
G|-----------------------------------------------------------------|
D|-----------------------------------------------------------------|
A|-----------------------------------------------------------------|
D|-0-0-0-0-0-0-0-0-0-0-0-0-0-0-0-0-0-0-0-0-0-0-0-0-0-0-0-0-0-0-0-0-|
   1 e + a 2 e + a 3 e + a 4 e + a 1 e + a 2 e + a 3 e + a 4 e + a

G|-----------------------------------------------------------------|
D|-----------------------------------------------------------------|
A|-----------------------------------------------------------------|
D|-0-0-0-0-0-0-0-0-0-0-0-0-0-0-0-0-0-------------------------------|
   1 e + a 2 e + a 3 e + a 4 e + a 1 e + a 2 e + a 3 e + a 4 e + a
ReTabbed by Dave Vucko

-------------------------------------------------------------------------------------

Almost Easy

Intro
F#|---------------------------------------------------------------------------------------------------|
C#|o-------------------------------------------------------------------------------------------------o|
G#|o-5-5-5-5---5-5---5---5---3-3-3-3---3-3-3-3-3-3---------------------------1-1-1-1---1-3-3-3-3-3-3-o|
C#|--------------------------------------------------5-5-5-5---5-5---5---5----------------------------|
     1 + 2 + 3 + 4 + 5 + 6 + 1 + 2 + 3 + 4 + 5 + 6 + 1 + 2 + 3 + 4 + 5 + 6 + 1 + 2 + 3 +
4 + 5 + 6 +

0:16
F#|-----------------------------------------------------------------|
C#|-----------------------------------------------------------------|
G#|-5-\-------------6-4-----4-1-----4-5-----------------------------|
C#|-----0-0-0-0-0-0-----0-0-----0-0-------0-0-0-0-0-00007b--00008b--|
    1 + 2 + 3 + 4 + 1 + 2 + 3 + 4 + 1 + 2 + 3 + 4 + 1 + 2 + 3 + 4 +

F#|-----------------------------------------------------------------|
C#|-----------------------------------------------------------------|
G#|-5-\-------------6-4-----4-1-----4-5-----------------------------|
C#|-----0-0-0-0-0-0-----0-0-----0-0-------0-0-0-0-0-000000005-6-5---|
    1 + 2 + 3 + 4 + 1 + 2 + 3 + 4 + 1 + 2 + 3 + 4 + 1 + 2 + 3 + 4 +

Verse 0:29
F#|-------------------------------------------------------------------|
C#|o-----------------------------------------------------------------o|
G#|o-----------------------------------------------------------------o|
C#|--0---0-0-0-0-0-0-0---0-0-0-0-0-0-0---0-0-0-0-0-0-000000005-6-5----|
     1 + 2 + 3 + 4 + 1 + 2 + 3 + 4 + 1 + 2 + 3 + 4 + 1 + 2 + 3 + 4 +

F#|-----------------------------------------------------------------|
C#|-----------------------------------------------------------------|
G#|-----------------------------------------------------------------|
C#|-0---000-000-000-0---000-000-000-0---000-000-000-000000005-6-5---|
    1 + 2 + 3 + 4 + 1 + 2 + 3 + 4 + 1 + 2 + 3 + 4 + 1 + 2 + 3 + 4 +

F#|-----------------------------------------------------------------|
C#|-----------------------------------------------------------------|
G#|-----------------------------------------------------------------|
C#|-0---0-0-0-0-0-0-0---0-0-0-0-0-0-0---0-0-0-0-0-0-000000005-6-5---|
    1 + 2 + 3 + 4 + 1 + 2 + 3 + 4 + 1 + 2 + 3 + 4 + 1 + 2 + 3 + 4 +

Pre Chorus 0:48
F#|-----------------------------------------------------------------|
C#|-----------------------------------------------------------------|
G#|-------5-----3-3-3-3-----1-1-----1-1-1-1-1---3-3-3-3-3-3-4-4-4-4-|
C#|-0---0-----------------------------------------------------------|
    1 + 2 + 3 + 4 + 1 + 2 + 3 + 4 + 1 + 2 + 3 + 4 + 1 + 2 + 3 + 4 +

F#|---------------------------------------------------------------------|
C#|---------------------------------------------------------------------|
G#|-------5-----3-3-3-3-----1-1-----1-1-1-1-1-------3-3-3-3-3-3-4-4-4---|
C#|-0-0-0---------------------------------------------------------------|
    1 + 2 + 3 + 4 + 1 + 2 + 3 + 4 + 1 + 2 + 3 + 4 + Tripl Tripl 3 + 4 +

Chorus 1:00
F#|-----------------------------------------------------------------|
C#|-----------------------------------------------------------------|
G#|-----------------------------------------------------------------|
C#|-3---3-3---3-3-3---3---3-3-3---3-3---3-3---3-3-3---3---3-3---3-3-|
    1 + 2 + 3 + 4 + 1 + 2 + 3 + 4 + 1 + 2 + 3 + 4 + 1 + 2 + 3 + 4 +

F#|-----------------------------------------------------------------|
C#|-----------------------------------------------------------------|
G#|-----------------------------------------------------------------|
C#|-0---0-0---0-0-0---0---0-0-0---0-0---0-0---0-0---000000005-6-5---|
    1 + 2 + 3 + 4 + 1 + 2 + 3 + 4 + 1 + 2 + 3 + 4 + 1 + 2 + 3 + 4 +

Verse 1:11
F#|-------------------------------------------------------------------|
C#|o-----------------------------------------------------------------o|
G#|o-----------------------------------------------------------------o|
C#|--0---0-0-0-0-0-0-0---0-0-0-0-0-0-0---0-0-0-0-0-0-000000005-6-5----|
     1 + 2 + 3 + 4 + 1 + 2 + 3 + 4 + 1 + 2 + 3 + 4 + 1 + 2 + 3 + 4 +

F#|-----------------------------------------------------------------|
C#|-----------------------------------------------------------------|
G#|-----------------------------------------------------------------|
C#|-0---000-000-000-0---000-000-000-0---000-000-000-000000005-6-5---|
    1 + 2 + 3 + 4 + 1 + 2 + 3 + 4 + 1 + 2 + 3 + 4 + 1 + 2 + 3 + 4 +

F#|-----------------------------------------------------------------|
C#|-----------------------------------------------------------------|
G#|-----------------------------------------------------------------|
C#|-0---0-0-0-0-0-0-0---0-0-0-0-0-0-0---0-0-0-0-0-0-000000005-6-5---|
    1 + 2 + 3 + 4 + 1 + 2 + 3 + 4 + 1 + 2 + 3 + 4 + 1 + 2 + 3 + 4 +

Pre Chorus 1:33
F#|-----------------------------------------------------------------|
C#|-----------------------------------------------------------------|
G#|-------5-----3-3-3-3-----1-1-----1-1-1-1-1---3-3-3-3-3-3-4-4-4-4-|
C#|-0---0-----------------------------------------------------------|
    1 + 2 + 3 + 4 + 1 + 2 + 3 + 4 + 1 + 2 + 3 + 4 + 1 + 2 + 3 + 4 +

F#|---------------------------------------------------------------------|
C#|---------------------------------------------------------------------|
G#|-------5-----3-3-3-3-----1-1-----1-1-1-1-1-------3-3-3-3-3-3-4-4-4---|
C#|-0-0-0---------------------------------------------------------------|
    1 + 2 + 3 + 4 + 1 + 2 + 3 + 4 + 1 + 2 + 3 + 4 + Tripl Tripl 3 + 4 +

Chorus 1:43
F#|-----------------------------------------------------------------|
C#|-----------------------------------------------------------------|
G#|-----------------------------------------------------------------|
C#|-3---3-3---3-3-3---3---3-3-3---3-3---3-3---3-3-3---3---3-3---3-3-|
    1 + 2 + 3 + 4 + 1 + 2 + 3 + 4 + 1 + 2 + 3 + 4 + 1 + 2 + 3 + 4 +

F#|-----------------------------------------------------------------|
C#|-----------------------------------------------------------------|
G#|-----------------------------------------------------------------|
C#|-0---0-0---0-0-0---0---0-0-0---0-0---0-0---0-0-0---0---0-3-5-5-5-|
    1 + 2 + 3 + 4 + 1 + 2 + 3 + 4 + 1 + 2 + 3 + 4 + 1 + 2 + 3 + 4 +

F#|-----------------------------------------------------------------|
C#|---------------------------------3-3-3-3---3-3---3-3-3-3-3-5-3-2-|
G#|-----------------------------------------------------------------|
C#|-3-3-3-3---3-3---3-3-3-3-3-3-3-3---------------------------------|
    1 + 2 + 3 + 4 + 1 + 2 + 3 + 4 + 1 + 2 + 3 + 4 + 1 + 2 + 3 + 4 +

F#|-----------------------------------------------------------------|
C#|-----------------------------------------------------------------|
G#|-----------------------------------------------------------------|
C#|-0-0-0-0---0-0---0-0-0-0-0-0-0-0-0-0-0-0---0-0---000000005-6-5---|
    1 + 2 + 3 + 4 + 1 + 2 + 3 + 4 + 1 + 2 + 3 + 4 + 1 + 2 + 3 + 4 +

Interlude 2:05
F#|-----------------------------------------------------------------|
C#|-----------------------------------------------------------------|
G#|-5-\-------------6-4-----4-1-----4-5-----------------------------|
C#|-----0-0-0-0-0-0-----0-0-----0-0-------0-0-0-0-0-00007b--00008b--|
    1 + 2 + 3 + 4 + 1 + 2 + 3 + 4 + 1 + 2 + 3 + 4 + 1 + 2 + 3 + 4 +

F#|-----------------------------------------------------------------|
C#|-----------------------------------------------------------------|
G#|-5-\-------------6-4-----4-1-----4-5-----------------------------|
C#|-----0-0-0-0-0-0-----0-0-----0-0-------0-0-0-0-0-000000005-6-5---|
    1 + 2 + 3 + 4 + 1 + 2 + 3 + 4 + 1 + 2 + 3 + 4 + 1 + 2 + 3 + 4 +

Solo 2:17
F#|-------------------------------------------------------------------|
C#|o-----------------------------------------------------------------o|
G#|o-----------------------------------------------------------------o|
C#|--0-00-00-0-00-00-0-00-00-0-00-00-3--5--6---6-6-6-3--5--6---6-6-6--|
     1 + 2 + 3 + 4 + 1 + 2 + 3 + 4 + Triplet 3 + 4 + Triplet 3 + 4 +

F#|-------------------------------------------------------------------------------------------------|
C#|-------------------------------------------------------------------------------------------------|
G#|-5-5-5-5---5-5---5---5---3-3-3-3---3-3---3---3---------------------------1-1-1-1---1-3-3-3---3---|
C#|-------------------------------------------------5-5-5-5---5-5-5-5-5-5---------------------------|
    1 + 2 + 3 + 4 + 5 + 6 + 1 + 2 + 3 + 4 + 5 + 6 + 1 + 2 + 3 + 4 + 5 + 6 + 1 + 2 + 3 +
4 + 5 + 6 +

F#|-------------------------------------------------------------------------------------------------|
C#|-------------------------------------------------------------------------------------------------|
G#|-5-5-5-5---5-5-5-5---5---3-3-3-3---3-3---3---3---------------------------1-1---1---1-3-3-3-3-3-3-|
C#|-------------------------------------------------5-5-5-5---5-5---5---5---------------------------|
    1 + 2 + 3 + 4 + 5 + 6 + 1 + 2 + 3 + 4 + 5 + 6 + 1 + 2 + 3 + 4 + 5 + 6 + 1 + 2 + 3 +
4 + 5 + 6 +

Bridge
F#|-------------------------------------------------------------------------------------------------|
C#|-------------------------------------------------------------------------------------------------|
G#|-------------------------------------------------3---3-3---3-3---3-3-3-3-0---0-0---0-0---0-0-0---|
C#|-0---0-0---0-0---0---0-2-3---3-3---3-3---3-3-3-3-------------------------------------------------|
    1 + 2 + 3 + 4 + 5 + 6 + 1 + 2 + 3 + 4 + 5 + 6 + 1 + 2 + 3 + 4 + 5 + 6 + 1 + 2 + 3 +
4 + 5 + 6 +

F#|-------------------------------------------------------------------------------------------------|
C#|-------------------------3---3-3---3-3---3-3-3-3-------------------------------------------------|
G#|-1---1-1---1-1---1---3---------------------------3---3-3---3-3---3-3-3-3-0---0-0---0-0-0---0---0-|
C#|-------------------------------------------------------------------------------------------------|
    1 + 2 + 3 + 4 + 5 + 6 + 1 + 2 + 3 + 4 + 5 + 6 + 1 + 2 + 3 + 4 + 5 + 6 + 1 + 2 + 3 +
4 + 5 + 6 +

F#|-------------------------------------------------------------------------|
C#|-------------------------------------------------------------------------|
G#|-0-0---0---0-0-0---0---0-1---1-1-1-1-1---1-1-1-1-1-1---1---1-1-1-1-3-3-3-|
C#|-------------------------------------------------------------------------|
    1 + 2 + 3 + 4 + 5 + 6 + 1 + 2 + 3 + 4 + 5 + 6 + 1 + 2 + 3 + 4 + 5 + 6 +

Pre Chorus 3:06
F#|-----------------------------------------------------------------|
C#|-----------------------------------------------------------------|
G#|-----------------------------------------------------------------|
C#|-0---------------------------------------------------------------|
    1 + 2 + 3 + 4 + 1 + 2 + 3 + 4 + 1 + 2 + 3 + 4 + 1 + 2 + 3 + 4 +

F#|-------------------------------------------------------------------------|
C#|-------------------------------------------------------------------------|
G#|-------------------------------------------------3--3--3-3--3--3-4-4-4---|
C#|-00000-0-------------------------00000-0---------------------------------|
    1 + 2 + 3 + 4 + 1 + 2 + 3 + 4 + 1 + 2 + 3 + 4 + Triplet Triplet 3 + 4 +

Chorus 3:17
F#|-----------------------------------------------------------------|
C#|-----------------------------------------------------------------|
G#|-----------------------------------------------------------------|
C#|-3---3-3---3-3-3---3---3-3-3---3-3---3-3---3-3-3---3---3-3---3-3-|
    1 + 2 + 3 + 4 + 1 + 2 + 3 + 4 + 1 + 2 + 3 + 4 + 1 + 2 + 3 + 4 +

F#|-----------------------------------------------------------------|
C#|-------------------------------------------------5-3-0-----------|
G#|-------------------------------------------------------3---------|
C#|-0---0-0---0-0-0---0---0-0-0---0-0---0-0---0-0-0---------0-3-5-6-|
    1 + 2 + 3 + 4 + 1 + 2 + 3 + 4 + 1 + 2 + 3 + 4 + 1 + 2 + 3 + 4 +

F#|-----------------------------------------------------------------|
C#|---------------------------------3-3-3-3---3-3---3-3-3-3-3-5-3-2-|
G#|-----------------------------------------------------------------|
C#|-3-3-3-3---3-3---3-3-3-3-3-3-3-3---------------------------------|
    1 + 2 + 3 + 4 + 1 + 2 + 3 + 4 + 1 + 2 + 3 + 4 + 1 + 2 + 3 + 4 +

F#|-----------------------------------------------------------------|
C#|-----------------------------------------------------------------|
G#|-----------------------------------------------------------------|
C#|-0-0-0-0---0-0---0-0-0-0-0-0-0-0-0-0-0-0---0-0---000000005-6-5---|
    1 + 2 + 3 + 4 + 1 + 2 + 3 + 4 + 1 + 2 + 3 + 4 + 1 + 2 + 3 + 4 +

Outro
F#|-----------------------------------------------------------------|
C#|-----------------------------------------------------------------|
G#|-5-\-------------6-4-----4-1-----4-5-----------------------------|
C#|-----0-0-0-0-0-0-----0-0-----0-0-------0-0-0-0-0-00007b--00008b--|
    1 + 2 + 3 + 4 + 1 + 2 + 3 + 4 + 1 + 2 + 3 + 4 + 1 + 2 + 3 + 4 +

F#|-----------------------------------------------------------------|
C#|-----------------------------------------------------------------|
G#|-5-\-------------6-4-----4-1-----4-5-----------------------------|
C#|-----0-0-0-0-0-0-----0-0-----0-0-------0-0-0-0-0-000000005-6-5---|
    1 + 2 + 3 + 4 + 1 + 2 + 3 + 4 + 1 + 2 + 3 + 4 + 1 + 2 + 3 + 4 +
Tabbed by Dave Vucko

--------------------------------------------------------------------------------------

Scream

F#|-----------------------------------------------------------------|
C#|-----------------------------------------------------------------|
G#|-----------------------------------------------------------------|
C#|-0-0---0-0-----------------------0-0---0-0-----------------------|
    1 + 2 + 3 + 4 + 1 + 2 + 3 + 4 + 1 + 2 + 3 + 4 + 1 + 2 + 3 + 4 +

F#|-----------------------------------------------------------------|
C#|-----------------------------------------------------------------|
G#|-----------------------------------------------------------------|
C#|-0-0---0-0-----------------------0-0---0-0-----------/-/-9-------|
    1 + 2 + 3 + 4 + 1 + 2 + 3 + 4 + 1 + 2 + 3 + 4 + 1 + 2 + 3 + 4 +

Verse 0:17
F#|-----------------------------------------------------------------|
C#|-----------------------------------------------------------------|
G#|-----------------------------------------------------------------|
C#|-0-0---0-0-----------------------0-0---0-0-------------/-7-9-5---|
    1 + 2 + 3 + 4 + 1 + 2 + 3 + 4 + 1 + 2 + 3 + 4 + 1 + 2 + 3 + 4 +

F#|-----------------------------------------------------------------|
C#|-----------------------------------------------------------------|
G#|-----------------------------------------------------------------|
C#|-0-0---0-0-----------------------0-0---0-0---------------7-9-7---|
    1 + 2 + 3 + 4 + 1 + 2 + 3 + 4 + 1 + 2 + 3 + 4 + 1 + 2 + 3 + 4 +

Pre Chorus 0:32
F#|-------------------------------------------------------------------------------------------------|
C#|-------------------------------------------------------------------------------------------------|
G#|-------------------------------------------------------------------------------------------------|
C#|/9b12------0---0/9b12------0---0-3-------5---6--/9b12------0---0/9b12------0---0-6-------5---3---|
    1 + 2 + 3 + 4 + 1 + 2 + 3 + 4 + 1 + 2 + 3 + 4 + 1 + 2 + 3 + 4 + 1 + 2 + 3 + 4 + 1 +
2 + 3 + 4 +

F#|-------------------------------------------------------------------------|
C#|-------------------------------------------------------------------------|
G#|-------------------------------------------------------------------------|
C#|/9b12------0---0/9b12------0---0-3-3-5-5-1-1-1-1-1-1-1-1-1-1-1-1-1-------|
    1 + 2 + 3 + 4 + 1 + 2 + 3 + 4 + 1 + 2 + 1 + 2 + 3 + 4 + 1 + 2 + 3 + 4 +

Verse 0:47
F#|-----------------------------------------------------------------|
C#|-------------------------------------------------------------3---|
G#|---------------------------------------------------5-3-0-3-5-----|
C#|-0-0---0-0-----------------------0-0---0-0-----------------------|
    1 + 2 + 3 + 4 + 1 + 2 + 3 + 4 + 1 + 2 + 3 + 4 + 1 + 2 + 3 + 4 +

F#|-----------------------------------------------------------------|
C#|-----------------------------------------------------------------|
G#|-------------------------------------------------------3-----3---|
C#|-0-0---0-0-----------------------0-0---0-0---------------3-5-----|
    1 + 2 + 3 + 4 + 1 + 2 + 3 + 4 + 1 + 2 + 3 + 4 + 1 + 2 + 3 + 4 +

Pre Chorus 1:01
F#|-------------------------------------------------------------------------------------------------|
C#|-------------------------------------------------------------------------------------------------|
G#|-------------------------------------------------------------------------------------------------|
C#|/9b12------0---0/9b12------0---0-3-------5---6--/9b12------0---0/9b12------0---0-6-------5---3---|
    1 + 2 + 3 + 4 + 1 + 2 + 3 + 4 + 1 + 2 + 3 + 4 + 1 + 2 + 3 + 4 + 1 + 2 + 3 + 4 + 1 +
2 + 3 + 4 +

F#|-------------------------------------------------------------------------|
C#|-------------------------------------------------------------------------|
G#|-------------------------------------------------------------------------|
C#|/9b12------0---0/9b12------0---0-3-3-5-5-1-1-1-1-1-1-1-1-1-1-1-1-1-1-1-1-|
    1 + 2 + 3 + 4 + 1 + 2 + 3 + 4 + 1 + 2 + 1 + 2 + 3 + 4 + 1 + 2 + 3 + 4 +

Chorus 1:16
F#|-------------------------------------------------------------------|
C#|o-----------------------------------------------------------------o|
G#|o-----------------0-0-0-0-0-3-5-------------------0-0-0-0-0-0-0-0-o|
C#|--5-5-5-5-5-5-3-5-----------------5-5-5-5-5-5-3-5------------------|
     1 + 2 + 3 + 4 + 1 + 2 + 3 + 4 + 1 + 2 + 3 + 4 + 1 + 2 + 3 + 4 +

1:31
F#|-----------------------------------------------------------------|
C#|-----------------------------------------------------------------|
G#|---------5-5-6-6-1-1---1-3-3-1-1---------------------------------|
C#|-5-5---5-------------------------0-0-0-0-0-0-0-0-1-1-1-1-1-1-1-1-|
    1 + 2 + 3 + 4 + 1 + 2 + 3 + 4 + 1 + 2 + 3 + 4 + 1 + 2 + 3 + 4 +

F#|-----------------------------------------------------------------|
C#|-----------------------------------------------------------------|
G#|---------5-5-6-6-1-1---1-3-3-1-1---------------------------------|
C#|-5-5---5-----------------------------------------------/-12-\----|
    1 + 2 + 3 + 4 + 1 + 2 + 3 + 4 + 1 + 2 + 3 + 4 + 1 + 2 + 3 + 4 +

Verse 1:46
F#|-----------------------------------------------------------------|
C#|-----------------------------------------------------------------|
G#|-----------------------------------------------------------------|
C#|-0-0---0-0-----------------------0-0---0-0-----------------------|
    1 + 2 + 3 + 4 + 1 + 2 + 3 + 4 + 1 + 2 + 3 + 4 + 1 + 2 + 3 + 4 +

F#|-----------------------------------------------------------------|
C#|-------------------------------------------------------------3---|
G#|---------------------------------------------------3-----3-------|
C#|-0-0---0-0-----------------------0-0---0-0-----------5-3---5-----|
    1 + 2 + 3 + 4 + 1 + 2 + 3 + 4 + 1 + 2 + 3 + 4 + 1 + 2 + 3 + 4 +

Pre Chorus 2:01
F#|-------------------------------------------------------------------------------------------------|
C#|-------------------------------------------------------------------------------------------------|
G#|-------------------------------------------------------------------------------------------------|
C#|/9b12------0---0/9b12------0---0-3-------5---6--/9b12------0---0/9b12------0---0-6-------5---3---|
    1 + 2 + 3 + 4 + 1 + 2 + 3 + 4 + 1 + 2 + 3 + 4 + 1 + 2 + 3 + 4 + 1 + 2 + 3 + 4 + 1 +
2 + 3 + 4 +

F#|-------------------------------------------------------------------------|
C#|-------------------------------------------------------------------------|
G#|-------------------------------------------------------------------------|
C#|/9b12------0---0/9b12------0---0-3-3-5-5-1-1-1-1-1-1-1-1-1-1-1-1-1-1-1-1-|
    1 + 2 + 3 + 4 + 1 + 2 + 3 + 4 + 1 + 2 + 1 + 2 + 3 + 4 + 1 + 2 + 3 + 4 +

Chorus 2:15
F#|-------------------------------------------------------------------|
C#|o-----------------------------------------------------------------o|
G#|o-----------------0-0-0-0-0-3-5-------------------0-0-0-0-0-0-0-0-o|
C#|--5-5-5-5-5-5-3-5-----------------5-5-5-5-5-5-3-5------------------|
     1 + 2 + 3 + 4 + 1 + 2 + 3 + 4 + 1 + 2 + 3 + 4 + 1 + 2 + 3 + 4 +

2:31
F#|-----------------------------------------------------------------|
C#|-----------------------------------------------------------------|
G#|---------5-5-6-6-1-1---1-3-3-1-1-----5---------------------------|
C#|-5-5---5-------------------------0-0---0-0-0-0-0-1-1-1-1-1-1-1-1-|
    1 + 2 + 3 + 4 + 1 + 2 + 3 + 4 + 1 + 2 + 3 + 4 + 1 + 2 + 3 + 4 +

F#|-----------------------------------------------------------------|
C#|-----------------------------------------------------------------|
G#|---------5-5-6-6-1-1---1-3-3-1-1---------------------------------|
C#|-5-5---5-------------------------0-0-0-0-0-0-0-0-1-1-1-1-1-1-1-1-|
    1 + 2 + 3 + 4 + 1 + 2 + 3 + 4 + 1 + 2 + 3 + 4 + 1 + 2 + 3 + 4 +

Solo 2:45
F#|-------------------------------------------------------------------|
C#|o-----------------------------------------------------------------o|
G#|o---------------------------------1-1---1-1-1---1-----------------o|
C#|--0-0---0-0-0---0-2-2---2-2-2---2-----------------6-6---6-7-7---7--|
     1 + 2 + 3 + 4 + 1 + 2 + 3 + 4 + 1 + 2 + 3 + 4 + 1 + 2 + 3 + 4 +

Bridge
F#|-------------------------------------------------------------------|
C#|o-----------------------------------------------------------------o|
G#|o-----------------------------------------------------------------o|
C#|--0-0-0-0-0-0-0-0-2-2-2-2-2-2-2-2-5-5-5-5-5-5-5-5-6-6-6-6-7-7-7-7--|
     1 + 2 + 3 + 4 + 1 + 2 + 3 + 4 + 1 + 2 + 3 + 4 + 1 + 2 + 3 + 4 +

F#|-------------------------------------------------------------------|
C#|o-----------------------------------------------------------------o|
G#|o-5-5-5-5-5-5-5-5-7-7-7-7-7-7-7-7---------------------------------o|
C#|----------------------------------5-5-5-5-5-5-5-5-6-6-6-6-7-7-7-7--|
     1 + 2 + 3 + 4 + 1 + 2 + 3 + 4 + 1 + 2 + 3 + 4 + 1 + 2 + 3 + 4 +

Pre Chorus 3:29
F#|-------------------------------------------------------------------------------------------------|
C#|-------------------------------------------------------------------------------------------------|
G#|-------------------------------------------------------------------------------------------------|
C#|/9b12---/9b12---/9b12---/9b12---/9b12----5---6--/9b12---/9b12---/9b12---/9b12----6-------5---3---|
    1 + 2 + 3 + 4 + 1 + 2 + 3 + 4 + 1 + 2 + 3 + 4 + 1 + 2 + 3 + 4 + 1 + 2 + 3 + 4 + 1 +
2 + 3 + 4 +

F#|----------------------------------------------------------------------------------|
C#|----------------------------------------------------------------------------------|
G#|----------------------------------------------------------------------------------|
C#|/9b12---/9b12---/9b12---/9b12---/9b12----5---6--/9b12---/9b12-1-1-1-1-1-1-1-1-1-1-|
    1 + 2 + 3 + 4 + 1 + 2 + 3 + 4 + 1 + 2 + 3 + 4 + 1 + 2 + 3 +  4 + 1 + 2 + 3 + 4 +

Chorus 3:45
F#|-------------------------------------------------------------------|
C#|o-----------------------------------------------------------------o|
G#|o-----------------0-0-0-0-0-3-5-------------------0-0-0-0-0-0-0-0-o|
C#|--5-5-5-5-5-5-3-5-----------------5-5-5-5-5-5-3-5------------------|
     1 + 2 + 3 + 4 + 1 + 2 + 3 + 4 + 1 + 2 + 3 + 4 + 1 + 2 + 3 + 4 +

3:59
F#|-----------------------------------------------------------------|
C#|-----------------------------------------------------------------|
G#|---------5-5-6-6-1-1---1-3-3-1-1---------------------------------|
C#|-5-5---5-------------------------0-0-0-0-0-0-0-0-1-1-1-1-1-1-1-1-|
    1 + 2 + 3 + 4 + 1 + 2 + 3 + 4 + 1 + 2 + 3 + 4 + 1 + 2 + 3 + 4 +

F#|-----------------------------------------------------------------|
C#|-----------------------------------------------------------------|
G#|---------5-5-6-6-1-1---1-3-3-1-1---------------------------------|
C#|-5-5---5-----------------------------------------------/-12-\----|
    1 + 2 + 3 + 4 + 1 + 2 + 3 + 4 + 1 + 2 + 3 + 4 + 1 + 2 + 3 + 4 +

Outro 4:14
F#|-------------------------------------------------------------------|
C#|o-----------------------------------------------------------------o|
G#|o-----------------------------------------------------------------o|x4
C#|--0-0---0-0-----------------------0-0---0-0------------------------|
     1 + 2 + 3 + 4 + 1 + 2 + 3 + 4 + 1 + 2 + 3 + 4 + 1 + 2 + 3 + 4 +
Tabbed by Dave Vucko

--------------------------------------------------------------------------------------

Afterlife

And thank you for Rejecting my Afterlife tab newg -.- You're not even a bass
guitarist!!! Damn 'moderators'

Intro 0:16
G|-----------------------------------------------------------------|
D|-----------------------------------------------------------------|
A|-----------------------------------------------------------------|
D|-0---0-0---0-0---0-0-0---0-0-0---8---0-8---0-8-----8-8---8-8-8---|
   1 + 2 + 3 + 4 + 1 + 2 + 3 + 4 + 1 + 2 + 3 + 4 + 1 + 2 + 3 + 4 +

G|-----------------------------------------------------------------|
D|-----------------------------------------------------------------|
A|-----------------------------------------------------------------|
D|-5---0-5---0-5-----5-5---5-5-5---1---0-1---0-1---1-1-1---1-1-1---|
   1 + 2 + 3 + 4 + 1 + 2 + 3 + 4 + 1 + 2 + 3 + 4 + 1 + 2 + 3 + 4 +

G|-----------------------------------------------------------------|
D|-----------------------------------------------------------------|
A|-----------------------------------------------------------------|
D|-0---0-0---0-0---0-0-0---0-0-0---8---0-8---0-8---8-8-8-8-8-8-8---|
   1 + 2 + 3 + 4 + 1 + 2 + 3 + 4 + 1 + 2 + 3 + 4 + 1 + 2 + 3 + 4 +

G|-----------------------------------------------------------------|
D|-----------------------------------------------------------------|
A|-----------------------------------------------------------------|
D|-5---0-5---0-5---5-5-5-5-5-5-5-5-1---0-1---0-1---1-1-1-1-1-1-1-1-|
   1 + 2 + 3 + 4 + 1 + 2 + 3 + 4 + 1 + 2 + 3 + 4 + 1 + 2 + 3 + 4 +

0:34
G|-----------------------------------------------------------------|
D|-----------------------------------------------------------------|
A|-----------------------------------------------------------------|
D|-0-----------------------------------------------3---0-5---0-6---|
   1 + 2 + 3 + 4 + 1 + 2 + 3 + 4 + 1 + 2 + 3 + 4 + 1 + 2 + 3 + 4 +

Verse 0:38 x4
G|---------------------------------------------------------------------------|-----------------|
D|o-------------------------------------------------------------------------o|-----------------|
A|o-5h8p5---5h8p5---------------5h8p5---5h8p5-------------------------------o|-----------------|
D|--------6-------6-0---0---0---------6-------6-0---0---0---3-----5-----6----|-6-----5-----3---|
    Tripl Tripl 3 + 4 + 1 + 2 + Tripl Tripl 1 + 2 + 3 + 4 + 1 + 2 + 3 + 4 +    1 + 2 + 3 +
4 +

0:57
G|------------------------------------------------------------------|
D|------------------------------------------------------------------|
A|----------------------------------3---3---3-3-3-3-3---3-3---3-3---|
D|-0-0-8-0-7-0-0-10---8---8-7-8-7-5---------------------------------|
   1 + 2 + 3 + 4 +  1 + 2 + 3 + 4 + 1 + 2 + 3 + 4 + 1 + 2 + 3 + 4 +

G|------------------------------------------------------------------|
D|------------------------------------------------------------------|
A|----------------------------------3---3---3-3-3-3/7---7-7---7-7---|
D|-0-0-8-0-7-0-0-10---8---7---8-7-5---------------------------------|
   1 + 2 + 3 + 4 +  1 + 2 + 3 + 4 + 1 + 2 + 3 + 4 + 1 + 2 + 3 + 4 +

G|------------------------------------------------------------------|
D|------------------------------------------------------------------|
A|----------------------------------3---3---3-3-3-3-3-3-3-3---3-3-3-|
D|-0-0-8-0-7-0-0-10---8---8-7-8-7-5---------------------------------|
   1 + 2 + 3 + 4 +  1 + 2 + 3 + 4 + 1 + 2 + 3 + 4 + 1 + 2 + 3 + 4 +

G|-----------------------------------------------------------------|
D|-----------------------------------------------------------------|
A|-1-----1-----1-----1---1-1-1-1-1-3-----3-----4---4-4-4-4-4-4-4-4-|
D|-----------------------------------------------------------------|
   1 + 2 + 3 + 4 + 1 + 2 + 3 + 4 + 1 + 2 + 3 + 4 + 1 + 2 + 3 + 4 +

Pre Chorus 1:15
G|-------------------------------------------------------------------|
D|o-------------------------------------------------------------2---o|
A|o---------------------------------1-----------1---------3---------o|
D|--0-----------0---------3-----3------------------------------------|
    1 + 2 + 3 + 4 + 1 + 2 + 3 + 4 + 1 + 2 + 3 + 4 + 1 + 2 + 3 + 4 +

Chorus
G|-----------------------------------------------------------------|
D|-----------------------------------------------------------------|
A|---------------------------------3---3---3---3---3---3---3---3---|
D|-3---3---3---3---3---3---3---3-----------------------------------|
   1 + 2 + 3 + 4 + 1 + 2 + 3 + 4 + 1 + 2 + 3 + 4 + 1 + 2 + 3 + 4 +

G|-----------------------------------------------------------------|
D|-----------------------------------------------------------------|
A|---------------------------------1---1---1---1---1---1---1---1---|
D|-0---0---0---0---0---0---0---0-----------------------------------|
   1 + 2 + 3 + 4 + 1 + 2 + 3 + 4 + 1 + 2 + 3 + 4 + 1 + 2 + 3 + 4 +

G|-----------------------------------------------------------------|
D|-----------------------------------------------------------------|
A|---------------------------------3---3---3---3---3---3---3---3---|
D|-3---3---3---3---3---3---2---3-----------------------------------|
   1 + 2 + 3 + 4 + 1 + 2 + 3 + 4 + 1 + 2 + 3 + 4 + 1 + 2 + 3 + 4 +

G|-------------------------------------------------------------------------------------------------|
D|-------------------------------------------------------------------------------------------------|
A|-5---5---5---5---5---5---5---5---1---1---1---1---1---1---1---1-----------------------------------|
D|-----------------------------------------------------------------2---2---2---2---2---------------|
   1 + 2 + 3 + 4 + 1 + 2 + 3 + 4 + 1 + 2 + 3 + 4 + 1 + 2 + 3 + 4 + 1 + 2 + 3 + 4 + 1 + 2 +
3 + 4 +

Verse 1:43
G|---------------------------------------------------------------------------|-----------------|
D|o-------------------------------------------------------------------------o|-----------------|
A|o-5h8p5---5h8p5---------------5h8p5---5h8p5-------------------------------o|-----------------|
D|--------6-------6-0---0---0---------6-------6-0---0---0---3-----5-----6----|-6-----5-----3---|
    Tripl Tripl 3 + 4 + 1 + 2 + Tripl Tripl 1 + 2 + 3 + 4 + 1 + 2 + 3 + 4 +    1 + 2 + 3 +
4 +

2:02
G|------------------------------------------------------------------|
D|------------------------------------------------------------------|
A|----------------------------------3---3---3-3-3-3-3---3-3---3-3---|
D|-0-0-8-0-7-0-0-10---8---8-7-8-7-5---------------------------------|
   1 + 2 + 3 + 4 +  1 + 2 + 3 + 4 + 1 + 2 + 3 + 4 + 1 + 2 + 3 + 4 +

G|------------------------------------------------------------------|
D|------------------------------------------------------------------|
A|----------------------------------3---3---3-3-3-3/7---7-7---7-7---|
D|-0-0-8-0-7-0-0-10---8---7---8-7-5---------------------------------|
   1 + 2 + 3 + 4 +  1 + 2 + 3 + 4 + 1 + 2 + 3 + 4 + 1 + 2 + 3 + 4 +

G|------------------------------------------------------------------|
D|------------------------------------------------------------------|
A|----------------------------------3---3---3-3-3-3-3-3-3-3---3-3-3-|
D|-0-0-8-0-7-0-0-10---8---8-7-8-7-5---------------------------------|
   1 + 2 + 3 + 4 +  1 + 2 + 3 + 4 + 1 + 2 + 3 + 4 + 1 + 2 + 3 + 4 +

G|-----------------------------------------------------------------|
D|-----------------------------------------------------------------|
A|-1-----1-----1-----1---1-1-1-1-1-3-----3-----4---4-4-4-4-4-4-4-4-|
D|-----------------------------------------------------------------|
   1 + 2 + 3 + 4 + 1 + 2 + 3 + 4 + 1 + 2 + 3 + 4 + 1 + 2 + 3 + 4 +

Pre Chorus 2:19
G|-------------------------------------------------------------------|
D|o-------------------------------------------------------------2---o|
A|o---------------------------------1-----------1---------3---------o|
D|--0-----------0---------3-----3------------------------------------|
    1 + 2 + 3 + 4 + 1 + 2 + 3 + 4 + 1 + 2 + 3 + 4 + 1 + 2 + 3 + 4 +

Chorus 2:28
G|-----------------------------------------------------------------|
D|-----------------------------------------------------------------|
A|---------------------------------3---3---3---3---3---3---3---3---|
D|-3---3---3---3---3---3---3---3-----------------------------------|
   1 + 2 + 3 + 4 + 1 + 2 + 3 + 4 + 1 + 2 + 3 + 4 + 1 + 2 + 3 + 4 +

G|-----------------------------------------------------------------|
D|-----------------------------------------------------------------|
A|---------------------------------1---1---1---1---1---1---1---1---|
D|-0---0---0---0---0---0---0---0-----------------------------------|
   1 + 2 + 3 + 4 + 1 + 2 + 3 + 4 + 1 + 2 + 3 + 4 + 1 + 2 + 3 + 4 +

G|-----------------------------------------------------------------|
D|-----------------------------------------------------------------|
A|---------------------------------3---3---3---3---3---3---3---3---|
D|-3---3---3---3---3---3---2---3-----------------------------------|
   1 + 2 + 3 + 4 + 1 + 2 + 3 + 4 + 1 + 2 + 3 + 4 + 1 + 2 + 3 + 4 +

G|-----------------------------------------------------------------|
D|-----------------------------------------------------------------|
A|-5---5---5---5---5---5---5---5---1---1---1---1---1---0---1---3---|
D|-----------------------------------------------------------------|
   1 + 2 + 3 + 4 + 1 + 2 + 3 + 4 + 1 + 2 + 3 + 4 + 1 + 2 + 3 + 4 +

2:46
G|-----------------------------------------------------------------|
D|-3---3---3---3---3---3---3---2-----------------------------------|
A|---------------------------------3---3---3---3---3---3---1---3---|
D|-----------------------------------------------------------------|
   1 + 2 + 3 + 4 + 1 + 2 + 3 + 4 + 1 + 2 + 3 + 4 + 1 + 2 + 3 + 4 +

G|-----------------------------------------------------------------|
D|-0---0---0---0---0---2---3---2-----------------------------------|
A|---------------------------------1---1---1---1---1---0---1---3---|
D|-----------------------------------------------------------------|
   1 + 2 + 3 + 4 + 1 + 2 + 3 + 4 + 1 + 2 + 3 + 4 + 1 + 2 + 3 + 4 +

G|-----------------------------------------------------------------|
D|-3---3---3---3---3---3---3---2-----------------------------------|
A|---------------------------------3---3---3---3---3---3---1---3---|
D|-----------------------------------------------------------------|
   1 + 2 + 3 + 4 + 1 + 2 + 3 + 4 + 1 + 2 + 3 + 4 + 1 + 2 + 3 + 4 +

G|-------------------------------------------------------------------------------------------------|
D|-------------7---7---7---7-----------------------------------------------------------------------|
A|-5---5---5-------------------5---1---1---1---1---1---1---1---1---7---7---7---7---7---7---7---7---|
D|-------------------------------------------------------------------------------------------------|
   1 + 2 + 3 + 4 + 1 + 2 + 3 + 4 + 1 + 2 + 3 + 4 + 1 + 2 + 3 + 4 + 1 + 2 + 3 + 4 + 1 + 2 +
3 + 4 +

Bridge 3:06

G|-----------------------------------------------------------------|
D|-----------------------------------------------------------------|
A|---------------------------------1-1-1---1-1-1---1-1-1---1-1-1---|
D|-0-0-0---0-0-0---0-0-0---0-0-0-----------------------------------|
   1 + 2 + 3 + 4 + 1 + 2 + 3 + 4 + 1 + 2 + 3 + 4 + 1 + 2 + 3 + 4 +

G|-----------------------------------------------------------------|
D|-----------------------------------------------------------------|
A|-----------------------------------------------------------------|
D|-5-5-5---5-5-5---5-5-5---5-5-5---1-1-1---1-1-1---1-1-1---1-1-1---|
   1 + 2 + 3 + 4 + 1 + 2 + 3 + 4 + 1 + 2 + 3 + 4 + 1 + 2 + 3 + 4 +

G|-----------------------------------------------------------------|
D|-----------------------------------------------------------------|
A|---------------------------------1-1-1---1-1-1---1-1-1---1-1-1---|
D|-0-0-0---0-0-0---0-0-0---0-0-0-----------------------------------|
   1 + 2 + 3 + 4 + 1 + 2 + 3 + 4 + 1 + 2 + 3 + 4 + 1 + 2 + 3 + 4 +

G|-----------------------------------------------------------------|
D|-----------------------------------------------------------------|
A|---------------------------------1-1-1---1-1-1---0-0-0---0-0-0---|
D|-5-5-5---5-5-5---5-5-5---5-5-5-----------------------------------|
   1 + 2 + 3 + 4 + 1 + 2 + 3 + 4 + 1 + 2 + 3 + 4 + 1 + 2 + 3 + 4 +

3:23
G|-----------------------------------------------------------------|
D|-----------------------------------------------------------------|
A|---------------------------------1-----------1---1---1---1---0---|
D|-0-----------0---0---0---2---3-----------------------------------|
   1 + 2 + 3 + 4 + 1 + 2 + 3 + 4 + 1 + 2 + 3 + 4 + 1 + 2 + 3 + 4 +

G|-----------------------------------------------------------------|
D|-----------------------------------------------------------------|
A|---------------------------------1-------3---1---0---------------|
D|-5-----------5---5---5---3---5---------------------------7---\---|
   1 + 2 + 3 + 4 + 1 + 2 + 3 + 4 + 1 + 2 + 3 + 4 + 1 + 2 + 3 + 4 +

G|-----------------------------------------------------------------|
D|-----------------------------------------------------------------|
A|---------------------------------1-----------1---1---1---1---0---|
D|-0-----------0---0---0---2---3-----------------------------------|
   1 + 2 + 3 + 4 + 1 + 2 + 3 + 4 + 1 + 2 + 3 + 4 + 1 + 2 + 3 + 4 +

G|-----------------------------------------------------------------|
D|-----------------------------------------------------------------|
A|---------------------------------1-------1---1---0-------0---0---|
D|-5-----------5---5---5---5---------------------------------------|
   1 + 2 + 3 + 4 + 1 + 2 + 3 + 4 + 1 + 2 + 3 + 4 + 1 + 2 + 3 + 4 +

3:40
G|-----------------------------------------------------------------|
D|---------------------------------------------------------0---3---|
A|---------------------------------1-----------1---1---3-----------|
D|-0-----------0---0---0---2---3-----------------------------------|
   1 + 2 + 3 + 4 + 1 + 2 + 3 + 4 + 1 + 2 + 3 + 4 + 1 + 2 + 3 + 4 +

G|-----------------------------------------5-----------------------|
D|-5-----------5---5---5---5---5---8---8-------8---7---8---7---8---|
A|-----------------------------------------------------------------|
D|-----------------------------------------------------------------|
   1 + 2 + 3 + 4 + 1 + 2 + 3 + 4 + 1 + 2 + 3 + 4 + 1 + 2 + 3 + 4 +

G|-----------------------------------------------------------------|
D|-----------------------------------------------------------------|
A|---------------------------------1-----------1---1---1---1---0---|
D|-0-----------0---0---0---2---3-----------------------------------|
   1 + 2 + 3 + 4 + 1 + 2 + 3 + 4 + 1 + 2 + 3 + 4 + 1 + 2 + 3 + 4 +

G|-----------------------------------------------------------------|
D|-----------------------------------------------------------------|
A|---------------------------------1---1---1---1---0---0---0---0---|
D|-5-----------5---5---5---3---5-----------------------------------|
   1 + 2 + 3 + 4 + 1 + 2 + 3 + 4 + 1 + 2 + 3 + 4 + 1 + 2 + 3 + 4 +

Solo 3:58
G|-----------------------------------------------------------------|
D|-----------------------------------------------------------------|
A|-----------------------------------------------------------------|
D|-0---0-0---0-0-----0-0---0-0-0---8---0-8---0-8-----8-8---8-8-8---|
   1 + 2 + 3 + 4 + 1 + 2 + 3 + 4 + 1 + 2 + 3 + 4 + 1 + 2 + 3 + 4 +

G|-----------------------------------------------------------------|
D|-----------------------------------------------------------------|
A|-----------------------------------------------------------------|
D|-5---0-5---0-5-----5-5---5-5-5---8---8-8---8-8---7---7-7---7-7---|
   1 + 2 + 3 + 4 + 1 + 2 + 3 + 4 + 1 + 2 + 3 + 4 + 1 + 2 + 3 + 4 +

G|-----------------------------------------------------------------|
D|-----------------------------------------------------------------|
A|-----------------------------------------------------------------|
D|-0---0-0---0-0-----0-0---0-0-0---8---0-8---0-8-----8-8---8-8-8---|
   1 + 2 + 3 + 4 + 1 + 2 + 3 + 4 + 1 + 2 + 3 + 4 + 1 + 2 + 3 + 4 +

G|-----------------------------------------------------------------|
D|-----------------------------------------------------------------|
A|-----------------------------------------------------------------|
D|-5---0-5---0-5-----5-5---5-5-5---8-8-8-8---8-8-8-7-7-7-7-7-7-7-7-|
   1 + 2 + 3 + 4 + 1 + 2 + 3 + 4 + 1 + 2 + 3 + 4 + 1 + 2 + 3 + 4 +

4:16
G|------------------------------------------------------------------|
D|o-----------------------------------------------------------------|
A|o-----------------------------------------------------------------|
D|--0-0-0-0-0-0-0-0-0-0-0-0-0-0-0-0-8-8-8-8-8-8-8-8-8-8-8-8-8-8-8-8-|
    1 + 2 + 3 + 4 + 1 + 2 + 3 + 4 + 1 + 2 + 3 + 4 + 1 + 2 + 3 + 4 +

G|------------------------------------------------------------------|
D|-----------------------------------------------------------------o|
A|-----------------------------------------------------------------o|
D|-5-5-5-5-5-5-5-5-5-5-5-5-5-5-5-5-8-8-8-8-8-8-8-8-7-7-7-7-7-7-7-7--|
   1 + 2 + 3 + 4 + 1 + 2 + 3 + 4 + 1 + 2 + 3 + 4 + 1 + 2 + 3 + 4 +

Interlude 4:33
G|-------------------------------------------------------------------|
D|o-----------------------------------------------------------------o|
A|o-5-5-5-5-5-----------------------3-3-3-3-3-----------------------o|
D|------------0---------0---0---0-------------2---------2---2---2----|
    1 + 2 + 3 + 4 + 1 + 2 + 3 + 4 + 1 + 2 + 3 + 4 + 1 + 2 + 3 + 4 +

G|-------------------------------------------------------------------|
D|o-----------------------------------------------------------------o|
A|o-5-5-5-5-5-----------------------3-3-3-3-3-----------------------o|
D|--------------0-0-0-0-0---0-0-0---------------2-2-2-2-2---2-2-2----|
    1 + 2 + 3 + 4 + 1 + 2 + 3 + 4 + 1 + 2 + 3 + 4 + 1 + 2 + 3 + 4 +

G|-----------------------------------------------------------------|
D|-----------------------------------------------------------------|
A|-----------------------------------------------------------------|
D|-0-------2-------3-------5-------2-------------------------------|
   1 + 2 + 3 + 4 + 1 + 2 + 3 + 4 + 1 + 2 + 3 + 4 + 1 + 2 + 3 + 4 +

rest

Chorus 5:00
G|-----------------------------------------------------------------|
D|-3---3---3---3---3---3---3---2-----------------------------------|
A|---------------------------------3---3---3---3---3---3---1---3---|
D|-----------------------------------------------------------------|
   1 + 2 + 3 + 4 + 1 + 2 + 3 + 4 + 1 + 2 + 3 + 4 + 1 + 2 + 3 + 4 +

G|-----------------------------------------------------------------|
D|-0---0---0---0---0---2---3---2-----------------------------------|
A|---------------------------------1---1---1---1---1---0---1---3---|
D|-----------------------------------------------------------------|
   1 + 2 + 3 + 4 + 1 + 2 + 3 + 4 + 1 + 2 + 3 + 4 + 1 + 2 + 3 + 4 +

G|-----------------------------------------------------------------|
D|-3---3---3---3---3---3---5---7-------------------7-------5---3---|
A|---------------------------------3---3---3---3-------3-----------|
D|-----------------------------------------------------------------|
   1 + 2 + 3 + 4 + 1 + 2 + 3 + 4 + 1 + 2 + 3 + 4 + 1 + 2 + 3 + 4 +

G|-----------------------------------------------------------------|
D|-0---0---0---0---0---0---2---3-----------------------------------|
A|---------------------------------1---1---1---1---1---1---1---0---|
D|-----------------------------------------------------------------|
   1 + 2 + 3 + 4 + 1 + 2 + 3 + 4 + 1 + 2 + 3 + 4 + 1 + 2 + 3 + 4 +

5:17
G|-----------------------------------------------------------------|
D|-3---3---3---3---3---3---3---3h5-2---2---2---2---2---2---2---3---|
A|-----------------------------------------------------------------|
D|-----------------------------------------------------------------|
   1 + 2 + 3 + 4 + 1 + 2 + 3 + 4 + 1 + 2 + 3 + 4 + 1 + 2 + 3 + 4 +

G|-----------------------------------------------------------------|
D|-0---0---0---0---0---0---0---0---8---8---8---8---7---8---7---5---|
A|-----------------------------------------------------------------|
D|-----------------------------------------------------------------|
   1 + 2 + 3 + 4 + 1 + 2 + 3 + 4 + 1 + 2 + 3 + 4 + 1 + 2 + 3 + 4 +

G|-----------------------------------------------------------------|
D|-3---3---3---3---3---3---3---2-----------------------------------|
A|---------------------------------3---3---3---3---3---3---1---3---|
D|-----------------------------------------------------------------|
   1 + 2 + 3 + 4 + 1 + 2 + 3 + 4 + 1 + 2 + 3 + 4 + 1 + 2 + 3 + 4 +

G|-----------------------------------------------------------------|
D|-0---0---0---7---7---7---0---------------------------------------|
A|-----------------------------1---1---1---1---1---1---1---1---0---|
D|-----------------------------------------------------------------|
   1 + 2 + 3 + 4 + 1 + 2 + 3 + 4 + 1 + 2 + 3 + 4 + 1 + 2 + 3 + 4 +

G|-----------------------------------------------------------------|
D|-----------------------------------------------------------------|
A|-7---7---7---7---7---7---7---------------------------------------|
D|---------------------------------0-------------------------------|
   1 + 2 + 3 + 4 + 1 + 2 + 3 + 4 + 1 + 2 + 3 + 4 + 1 + 2 + 3 + 4 +
Tabbed by Dave Vucko

--------------------------------------------------------------------------------------

Gunslinger

1:20
G|-----------------------------------------------------------------|
D|-----------------------------------------------------------------|
A|---------------------0-3-3-3-3---------------------------8-8-8-8-|
D|-0---0-3---3-5---6---------------0-----3-----0---0---0-----------|
   1 + 2 + 3 + 4 + 1 + 2 + 3 + 4 + 1 + 2 + 3 + 4 + 1 + 2 + 3 + 4 +

G|-----------------------------------------------------------------|
D|-----------------------------------------------------------------|
A|---------------------0-3---3-3---------------------------8-8-8-8-|
D|-0---0-3---3-5---6---------------0-----3-----0---0-0-0-0---------|
   1 + 2 + 3 + 4 + 1 + 2 + 3 + 4 + 1 + 2 + 3 + 4 + 1 + 2 + 3 + 4 +

1:30
G|-------------------------------------------------------------------|
D|o-------------------------3-3-3-3---------------------------------o|
A|o-5-3---5-3---5-3---5-3-3---------5-3---5-3---5-3-----------------o|
D|--------------------------------------------------0-0-0-0-0-0-0-0--|
    1 + 2 + 3 + 4 + 1 + 2 + 3 + 4 + 1 + 2 + 3 + 4 + 1 + 2 + 3 + 4 +

Pre Chorus 1:42
G|-----------------------------------------------------------------|
D|-----------------------------------------------------------------|
A|-1-----------1-------------------3-----------3-------------------|
D|-----------------------------------------------------------------|
   1 + 2 + 3 + 4 + 1 + 2 + 3 + 4 + 1 + 2 + 3 + 4 + 1 + 2 + 3 + 4 +

Chorus 1:48
G|-----------------------------------------------------------------|
D|-----------------------2-3---2-0---------3---2-------2-3-2-0-----|
A|-5---5-5-5-5-5-----5-------------3-----3---3-------3---------3-1-|
D|-----------------------------------------------------------------|
   1 + 2 + 3 + 4 + 1 + 2 + 3 + 4 + 1 + 2 + 3 + 4 + 1 + 2 + 3 + 4 +

G|-----------------------------------------------------------------|
D|---------------------0-------3---------------------3-----3---5---|
A|-0-------0---0-----0-------------1-----1-1---1---1---1-1---1-----|
D|-----------------------------------------------------------------|
   1 + 2 + 3 + 4 + 1 + 2 + 3 + 4 + 1 + 2 + 3 + 4 + 1 + 2 + 3 + 4 +

2:00
G|-----------------------------------------------------------------|
D|-------------------0-0-2-3---2-0---------3---2-------2-3-2-0-----|
A|-5-----5-5-5-5-------------------3---3-3---3-------3---------3-1-|
D|-----------------------------------------------------------------|
   1 + 2 + 3 + 4 + 1 + 2 + 3 + 4 + 1 + 2 + 3 + 4 + 1 + 2 + 3 + 4 +

G|-----------------------------------------------------------------|
D|---------------------0---0-2-3---------------------3-----3---5---|
A|-0-----0-0---0-----0-------------1-----1-1-1-1-1-1---1-1---1-----|
D|-----------------------------------------------------------------|
   1 + 2 + 3 + 4 + 1 + 2 + 3 + 4 + 1 + 2 + 3 + 4 + 1 + 2 + 3 + 4 +

Bridge
G|-------------------------------------------------------------------|
D|o-----------------------------------------------------------------o|
A|o-1---1-1-1---1-1-1---1-1-1---1-1-3---3-3-3---3-3-3---3-3-3---3-3-o|
D|-------------------------------------------------------------------|
    1 + 2 + 3 + 4 + 1 + 2 + 3 + 4 + 1 + 2 + 3 + 4 + 1 + 2 + 3 + 4 +

G|-----------------------------------------------------------------|
D|-------------5-----------8-7-5-----------------------------------|
A|-8-8-8-8-8-8---8-7-7-7-7-------8-5---5-5-5---5---3---3-3-3---3-3-|
D|-----------------------------------------------------------------|
   1 + 2 + 3 + 4 + 1 + 2 + 3 + 4 + 1 + 2 + 3 + 4 + 1 + 2 + 3 + 4 +

G|-----------------------------------------------------------------|
D|-----------------------------------------------------------------|
A|-1---1-1-1---1-1-1---1-1-1---1-1-3---3-3-3---3-3-3---3-3-3---3-3-|
D|-----------------------------------------------------------------|
   1 + 2 + 3 + 4 + 1 + 2 + 3 + 4 + 1 + 2 + 3 + 4 + 1 + 2 + 3 + 4 +

G|-----------------------------------------------------------------|
D|-------------5-----------8-7-5-----------------------------------|
A|-8-8-8-8-8-8---8-7-7-7-7-------8-5-5-5-5-5-5-5---3-3-3-3-3-3-3-3-|
D|-----------------------------------------------------------------|
   1 + 2 + 3 + 4 + 1 + 2 + 3 + 4 + 1 + 2 + 3 + 4 + 1 + 2 + 3 + 4 +

2:40
G|-----------------------------------------------------------------|
D|-----------------------------------------------------------------|
A|-1---1-1-1---1-1-1---1-1-1---1-1-3---3-3-3---3-3-3---3-3-3---3-3-|
D|-----------------------------------------------------------------|
   1 + 2 + 3 + 4 + 1 + 2 + 3 + 4 + 1 + 2 + 3 + 4 + 1 + 2 + 3 + 4 +

G|-----------------------------------------------------------------|
D|-------------------------------------------------5-5-5-5-5-7-8-7-|
A|-5-5-5-5-5-5-5-5-7-7-7-7-7-7-7-7-8-8-8-8-8-8-8-8-----------------|
D|-----------------------------------------------------------------|
   1 + 2 + 3 + 4 + 1 + 2 + 3 + 4 + 1 + 2 + 3 + 4 + 1 + 2 + 3 + 4 +

Solo 2:53
G|-----------------------------------------------------------------|
D|-----------------------------------------------------------------|
A|-1---1-1-1---1-1-1---1-1-1---1-1-3---3-3-3---3-3-3---3-3-3---3-3-|
D|-----------------------------------------------------------------|
   1 + 2 + 3 + 4 + 1 + 2 + 3 + 4 + 1 + 2 + 3 + 4 + 1 + 2 + 3 + 4 +

G|-----------------------------------------------------------------|
D|-----------------------------------------------------------------|
A|-------------------------------------------------3---3---3---3-3-|
D|-3---3-3-3---3-3-2---2-2-2---2-2-0---0-0-0---0-------------------|
   1 + 2 + 3 + 4 + 1 + 2 + 3 + 4 + 1 + 2 + 3 + 4 + 1 + 2 + 3 + 4 +

G|-----------------------------------------------------------------|
D|-----------------------------------------------------------------|
A|-1---1-1-1---1-1-1---1-1-1---1-1-3---3-3-3---3-3-3---3-3-3---3-3-|
D|-----------------------------------------------------------------|
   1 + 2 + 3 + 4 + 1 + 2 + 3 + 4 + 1 + 2 + 3 + 4 + 1 + 2 + 3 + 4 +

G|-----------------------------------------------------------------|
D|-----------------------------------------------------------------|
A|-------------------------------------------------3---3---3-3-3-3-|
D|-3---3-3-3---3---2---2-2-2---2-2-0---0-0-0---0-0-----------------|
   1 + 2 + 3 + 4 + 1 + 2 + 3 + 4 + 1 + 2 + 3 + 4 + 1 + 2 + 3 + 4 +

Pre Chorus 3:19
G|-----------------------------------------------------------------|
D|-----------------------------------------------------------------|
A|-1-------------------------------3---3---3---3---3---3---3-3-3-3-|
D|-----------------------------------------------------------------|
   1 + 2 + 3 + 4 + 1 + 2 + 3 + 4 + 1 + 2 + 3 + 4 + 1 + 2 + 3 + 4 +

Chorus 3:26
G|-----------------------------------------------------------------|
D|-------------------5-7-5-----------------7---5-----7-5-----------|
A|-5-------5h7-8-----------7-8-5---3---3-7---------------8-7-5-3---|
D|-----------------------------------------------------------------|
   1 + 2 + 3 + 4 + 1 + 2 + 3 + 4 + 1 + 2 + 3 + 4 + 1 + 2 + 3 + 4 +

G|-----------------------------------------------------------------|
D|-------------7-----5-7---7-----------------------------0-5---3---|
A|-0---0-0-5h7---------------7-0-0-1-----1-1---1-1-0-1-3-----------|
D|-----------------------------------------------------------------|
   1 + 2 + 3 + 4 + 1 + 2 + 3 + 4 + 1 + 2 + 3 + 4 + 1 + 2 + 3 + 4 +

3:37
G|-------------7-------7-9-7--------------------5-------5-----------|
D|---------5h7-------7-------10-8-7---------3h5-------5---5-8-7-5---|
A|-5---5-5--------------------------3---3-3-------------------------|
D|------------------------------------------------------------------|
   1 + 2 + 3 + 4 + 1 + 2 + 3 +  4 + 1 + 2 + 3 + 4 + 1 + 2 + 3 + 4 +

G|-----------------------------------------------------------------|
D|-------------7-----5-7-8-7-5-------------------------0---2---3---|
A|-0---0-0-5h7-----------------8-7-1---1-1-1---1---1-1---1---1---1-|
D|-----------------------------------------------------------------|
   1 + 2 + 3 + 4 + 1 + 2 + 3 + 4 + 1 + 2 + 3 + 4 + 1 + 2 + 3 + 4 +

Outro 3:49
G|-------------------------------------------------------------------|--------|
D|o-----------------------------------------------------------------o|--------|
A|o-1---1-1-1---1-1-1---1-1-1---1-1-3---3-3-3---3-3-3---3---3---3---o|--------|
D|-------------------------------------------------------------------|-0------|
    1 + 2 + 3 + 4 + 1 + 2 + 3 + 4 + 1 + 2 + 3 + 4 + 1 + 2 + 3 + 4 +

Tabbed by Dave Vucko

--------------------------------------------------------------------------------------

Unbound The Wild Ride

G|-------------------------------------------------------------------|
D|o-----------------------------------------------------------------o|
A|o---------------------------------1---1-1---1-1---1---1-1---1-1---o|
D|--0---0-0---0-0---0---0-0---0-0------------------------------------|
    1 e + a 2 e + a 3 e + a 4 e + a 1 e + a 2 e + a 3 e + a 4 e + a

G|-----------------------------------------------------------------|
D|-----------------------------------------------------------------|
A|-3---3-3---3-3---3---3-3---3-3---3---3-3---3-3---3---3-3---3-3---|
D|-----------------------------------------------------------------|
   1 e + a 2 e + a 3 e + a 4 e + a 1 e + a 2 e + a 3 e + a 4 e + a

G|-------------------------------------------------------------------|
D|o-----------------------------------------------------------------o|
A|o---------------------------------1---1-1---1-1---1---1-1---1-1---o|
D|--0---0-0---0-0---0---0-0---0-0------------------------------------|
    1 e + a 2 e + a 3 e + a 4 e + a 1 e + a 2 e + a 3 e + a 4 e + a

G|-----------------------------------------------------------------|
D|-----------------------------------------------------------------|
A|-3---3-3---3-3---3---3-3---3-3---3---3-3---3-3---3-3-3-3-3-3-3---|
D|-----------------------------------------------------------------|
   1 e + a 2 e + a 3 e + a 4 e + a 1 e + a 2 e + a 3 e + a 4 e + a

Verse 0:23
G|-----------------------------------------------------------------|
D|---------------5-------------------------------5-----------------|
A|-5---------7-8-------------------5---------7-8-------------5-----|
D|-----------------8---------7-8-7-----------------8-----------8-7-|
   1 + 2 + 3 + 4 + 1 + 2 + 3 + 4 + 1 + 2 + 3 + 4 + 1 + 2 + 3 + 4 +

G|-----------------------------------------------------------------|
D|-----------------------------------------------------------------|
A|-3---3-3---3-3---3---3-3---3-3---3---3-3---3-3---3---3-3---3-3---|
D|-----------------------------------------------------------------|
   1 e + a 2 e + a 3 e + a 4 e + a 1 e + a 2 e + a 3 e + a 4 e + a

G|-----------------------------------------------------------------|
D|-----------------------------------------------------------------|
A|-5---------------------------------------------------------------|
D|-----0-0-0-0-0-0-0-0-0-0-0-0-0-0-0-0-0-0-0-0-0-0-0-0-0-0-0-0-0-0-|
   1 e + a 2 e + a 3 e + a 4 e + a 1 e + a 2 e + a 3 e + a 4 e + a

G|-----------------------------------------------------------------|
D|---------------5-------------------------------5-----------------|
A|-5---------7-8-------------------5---------7-8-------------5-----|
D|-----------------8---------7-8-7-----------------8-----------7-8-|
   1 + 2 + 3 + 4 + 1 + 2 + 3 + 4 + 1 + 2 + 3 + 4 + 1 + 2 + 3 + 4 +

G|-----------------------------------------------------------------|
D|-----------------------------------------------------------------|
A|-3---3-3---3-3---3---3-3---3-3---3---3-3---3-3---3---3-3---3-3---|
D|-----------------------------------------------------------------|
   1 e + a 2 e + a 3 e + a 4 e + a 1 e + a 2 e + a 3 e + a 4 e + a

G|-----------------------------------------------------------------|
D|-----------------------------------------------------------------|
A|-5-5-5-5-5-5-5-5-5-5-5-5-5-5-5-5-5-5-5-5-5-5-5-5-5---5---3---3---|
D|-----------------------------------------------------------------|
   1 e + a 2 e + a 3 e + a 4 e + a 1 e + a 2 e + a 3 e + a 4 e + a

Pre Chorus 0:49
G|-----------------------------------------------------------------|
D|-----------------------------------------------------------------|
A|-1---1-1---1-1---1---1-1---1-1---0---0-0---0-0---0---0-0---0-0---|
D|-----------------------------------------------------------------|
   1 e + a 2 e + a 3 e + a 4 e + a 1 e + a 2 e + a 3 e + a 4 e + a

G|-----------------------------------------------------------------|
D|------------------------------------------------/7---7-7---7-7---|
A|-5---5-5---5-5---3---3-3---3-3---1---1-1---1-1-------------------|
D|-----------------------------------------------------------------|
   1 e + a 2 e + a 3 e + a 4 e + a 1 e + a 2 e + a 3 e + a 4 e + a

G|-----------------------------------------------------------------|
D|-----------------------------------------------------------------|
A|-1---1-1---1-1---1---1-1---1-1---0---0-0---0-0---0-0-0-0-0-0-0-0-|
D|-----------------------------------------------------------------|
   1 e + a 2 e + a 3 e + a 4 e + a 1 e + a 2 e + a 3 e + a 4 e + a

Chorus 0:59
G|-------------------------------------------------------------------|
D|o-----------------------------------------------------------------o|
A|o-----------------------------------------------------------------o|
D|--5-5-5-5-5-5-5-5-5-5-5-5-5-5-5-5-0-0-0-0-0-0-0-0-0-0-0-0-0-0-0-0--|
    1 e + a 2 e + a 3 e + a 4 e + a 1 e + a 2 e + a 3 e + a 4 e + a

G|-----------------------------------------------------------------|
D|-----------------------------------------------------------------|
A|---------------------------------1-1-1-1-1-1-1-1-1-1-1-1-1-1-1-1-|
D|-1-1-1-1-1-1-1-1-1-1-1-1-1-1-1-1---------------------------------|
   1 e + a 2 e + a 3 e + a 4 e + a 1 e + a 2 e + a 3 e + a 4 e + a

G|-----------------------------------------------------------------|
D|-----------------------------------------------------------------|
A|-0-0-0-0-0-0-0-0-0-0-0-0-0-0-0-0-1-1-1-1-1-1-1-1-1-1-1-1-1-1-1-1-|
D|-----------------------------------------------------------------|
   1 e + a 2 e + a 3 e + a 4 e + a 1 e + a 2 e + a 3 e + a 4 e + a

1:12
G|-------------------------------------------------------------------|
D|o-----------------------------------------------------------------o|
A|o-----------------------------------------------------------------o|
D|--5-5-5-5-5-5-5-5-5-5-5-5-5-5-5-5-0-0-0-0-0-0-0-0-0-0-0-0-0-0-0-0--|
    1 e + a 2 e + a 3 e + a 4 e + a 1 e + a 2 e + a 3 e + a 4 e + a

G|-----------------------------------------------------------------|
D|-----------------------------------------------------------------|
A|-----------------------------------------------------------------|
D|-1-1-1-1-1-1-1-1-1-1-1-1-1-1-1-1-3-3-3-3-3-3-3-3-3-3-3-3-3-3-3-3-|
   1 e + a 2 e + a 3 e + a 4 e + a 1 e + a 2 e + a 3 e + a 4 e + a

G|-----------------------------------------------------------------|
D|-----------------------------------------------------------------|
A|-----------------------------------------------------------------|
D|-5-5-5-5-5-5-5-5-5-5-5-5-5-5-5-5-5-------------------------------|
   1 e + a 2 e + a 3 e + a 4 e + a 1 e + a 2 e + a 3 e + a 4 e + a

Interlude 1:26
G|-------------------------------------------------------------------|
D|o-----------------------------------------------------------------o|
A|o---------------------------------1---1-1---1-1---1---1-1---1-1---o|
D|--0---0-0---0-0---0---0-0---0-0------------------------------------|
    1 e + a 2 e + a 3 e + a 4 e + a 1 e + a 2 e + a 3 e + a 4 e + a

G|-----------------------------------------------------------------|
D|-----------------------------------------------------------------|
A|-3---3-3---3-3---3---3-3---3-3---3---3-3---3-3---3-3-3-3-3-3-3---|
D|-----------------------------------------------------------------|
   1 e + a 2 e + a 3 e + a 4 e + a 1 e + a 2 e + a 3 e + a 4 e + a

Verse 1:37
G|-----------------------------------------------------------------|
D|---------------5-------------------------------5-----------------|
A|-5---------7-8-------------------5---------7-8-------------5-----|
D|-----------------8---------7-8-7-----------------8-----------8-7-|
   1 + 2 + 3 + 4 + 1 + 2 + 3 + 4 + 1 + 2 + 3 + 4 + 1 + 2 + 3 + 4 +

G|-----------------------------------------------------------------|
D|-----------------------------------------------------------------|
A|-3---3-3---3-3---3---3-3---3-3---3---3-3---3-3---3---3-3---3-3---|
D|-----------------------------------------------------------------|
   1 e + a 2 e + a 3 e + a 4 e + a 1 e + a 2 e + a 3 e + a 4 e + a

G|-----------------------------------------------------------------|
D|-----------------------------------------------------------------|
A|-5---------------------------------------------------------------|
D|-----0-0-0-0-0-0-0-0-0-0-0-0-0-0-0-0-0-0-0-0-0-0-0-0-0-0-0-0-0-0-|
   1 e + a 2 e + a 3 e + a 4 e + a 1 e + a 2 e + a 3 e + a 4 e + a

G|-----------------------------------------------------------------|
D|---------------5-------------------------------5-----------------|
A|-5---------7-8-------------------5---------7-8-------------5-----|
D|-----------------8---------7-8-7-----------------8-----------7-8-|
   1 + 2 + 3 + 4 + 1 + 2 + 3 + 4 + 1 + 2 + 3 + 4 + 1 + 2 + 3 + 4 +

G|-----------------------------------------------------------------|
D|-----------------------------------------------------------------|
A|-3---3-3---3-3---3---3-3---3-3---3---3-3---3-3---3---3-3---3-3---|
D|-----------------------------------------------------------------|
   1 e + a 2 e + a 3 e + a 4 e + a 1 e + a 2 e + a 3 e + a 4 e + a

G|-----------------------------------------------------------------|
D|-----------------------------------------------------------------|
A|-5-5-5-5-5-5-5-5-5-5-5-5-5-5-5-5-5-5-5-5-5-5-5-5-5---5---3---3---|
D|-----------------------------------------------------------------|
   1 e + a 2 e + a 3 e + a 4 e + a 1 e + a 2 e + a 3 e + a 4 e + a

Pre Chorus 2:04
G|-----------------------------------------------------------------|
D|-----------------------------------------------------------------|
A|-1---1-1---1-1---1---1-1---1-1---0---0-0---0-0---0---0-0---0-0---|
D|-----------------------------------------------------------------|
   1 e + a 2 e + a 3 e + a 4 e + a 1 e + a 2 e + a 3 e + a 4 e + a

G|-----------------------------------------------------------------|
D|------------------------------------------------/7---7-7---7-7---|
A|-5---5-5---5-5---3---3-3---3-3---1---1-1---1-1-------------------|
D|-----------------------------------------------------------------|
   1 e + a 2 e + a 3 e + a 4 e + a 1 e + a 2 e + a 3 e + a 4 e + a

G|-----------------------------------------------------------------|
D|-----------------------------------------------------------------|
A|-1---1-1---1-1---1---1-1---1-1---0---0-0---0-0---0-0-0-0-0-0-0-0-|
D|-----------------------------------------------------------------|
   1 e + a 2 e + a 3 e + a 4 e + a 1 e + a 2 e + a 3 e + a 4 e + a

Chorus 2:14
G|-------------------------------------------------------------------|
D|o-----------------------------------------------------------------o|
A|o-----------------------------------------------------------------o|
D|--5-5-5-5-5-5-5-5-5-5-5-5-5-5-5-5-0-0-0-0-0-0-0-0-0-0-0-0-0-0-0-0--|
    1 e + a 2 e + a 3 e + a 4 e + a 1 e + a 2 e + a 3 e + a 4 e + a

G|-----------------------------------------------------------------|
D|-----------------------------------------------------------------|
A|---------------------------------1-1-1-1-1-1-1-1-1-1-1-1-1-1-1-1-|
D|-1-1-1-1-1-1-1-1-1-1-1-1-1-1-1-1---------------------------------|
   1 e + a 2 e + a 3 e + a 4 e + a 1 e + a 2 e + a 3 e + a 4 e + a

G|-----------------------------------------------------------------|
D|-----------------------------------------------------------------|
A|-0-0-0-0-0-0-0-0-0-0-0-0-0-0-0-0-1-1-1-1-1-1-1-1-1-1-1-1-1-1-1-1-|
D|-----------------------------------------------------------------|
   1 e + a 2 e + a 3 e + a 4 e + a 1 e + a 2 e + a 3 e + a 4 e + a

2:27
G|-------------------------------------------------------------------|
D|o-----------------------------------------------------------------o|
A|o-----------------------------------------------------------------o|
D|--5-5-5-5-5-5-5-5-5-5-5-5-5-5-5-5-0-0-0-0-0-0-0-0-0-0-0-0-0-0-0-0--|
    1 e + a 2 e + a 3 e + a 4 e + a 1 e + a 2 e + a 3 e + a 4 e + a

G|-----------------------------------------------------------------|
D|-----------------------------------------------------------------|
A|-----------------------------------------------------------------|
D|-1-1-1-1-1-1-1-1-1-1-1-1-1-1-1-1-3-3-3-3-3-3-3-3-3-3-3-3-3-3-3-3-|
   1 e + a 2 e + a 3 e + a 4 e + a 1 e + a 2 e + a 3 e + a 4 e + a

G|-----------------------------------------------------------------|
D|-----------------------------------------------------------------|
A|-----------------------------------------------------------------|
D|-5-5-5-5-5-5-5-5-5-5-5-5-5-5-5-5-5-5-5-5-5-5-5-5-5-5-5-5-5-5-5-5-|
   1 e + a 2 e + a 3 e + a 4 e + a 1 e + a 2 e + a 3 e + a 4 e + a

Interlude 2:42
G|--------------------------0-------0-----2-3-----0-------0-2-------|
D|o-0-----2-3-----0-2-----3-------2-----------------3-------------3-|
A|o-----------------------------------------------------------------|
D|------------------------------------------------------------------|
    Triplet Triplet Triplet Triplet Triplet Triplet Triplet Triplet

G|-0-----2-3-----0-------0-2---------------0------------------------|
D|-----------------3-------------3-2-----3-------2-0-----0-0-----0-o|
A|-----------------------------------------------------------------o|
D|------------------------------------------------------------------|
   Triplet Triplet Triplet Triplet Triplet Triplet Triplet Triplet

Bridge 2:55
G|o|------------------------------------------------------------------|
D|-|o-----------------------------------------------------------------|
A|-|o-----------------0-----0-0--0------------------------------------|
D|o|--0-----0-0--0--------------------5-----5-5--5----3-----3-3--3----|
      Triplet Triplet Triplet Triplet Triplet Triplet Triplet Triplet

G|------------------------------------------------------------------|
D|-----------------------------------------------------------------o|
A|-----------------------------------------------------------------o|
D|-5-----5-5--5----3-----3-3--3----2-----2-2--2----0-----0-0--0-----|
   Triplet Triplet Triplet Triplet Triplet Triplet Triplet Triplet

3:10
G|-----------------------------------------------------------------|
D|-----------------------------------------------------------------|
A|-1---1-1-1-1---1-1---1-1-1-1---1-----------------------------0---|
D|---------------------------------0---0-0-0-0---0-0---2---3-------|
   1 + 2 + 3 + 4 + 1 + 2 + 3 + 4 + 1 + 2 + 3 + 4 + 1 + 2 + 3 + 4 +

G|-----------------------------------------------------------------o|
D|------------------------------------------------------------------|
A|-1---1-1-1-1---1-1---1-1-1-1---1-0---0-0-0-0---0-0----------------|
D|-----------------------------------------------------5---3---2---o|
   1 + 2 + 3 + 4 + 1 + 2 + 3 + 4 + 1 + 2 + 3 + 4 + 1 + 2 + 3 + 4 +

Interlude 3:50
G|-----------------------------------------------------------------|
D|-----------------------------------------------------------------|
A|-----------------------------------------------------------------|
D|-0---------------------------------------------------------------|
   1 + 2 + 3 + 4 + 1 + 2 + 3 + 4 + 1 + 2 + 3 + 4 + 1 + 2 + 3 + 4 +

G|-----------------------------------------------------------------|
D|-----------------------------------------------------------------|
A|-----------------------------------------------------------------|
D|-----------------------------------------------------------------|
   1 + 2 + 3 + 4 + 1 + 2 + 3 + 4 + 1 + 2 + 3 + 4 + 1 + 2 + 3 + 4 +

Outro Verse 4:04
G|-----------------------------------------------------------------|
D|-----------------------------------------------------------------|
A|-5---5-----5-5-5-0---0-----0-0-0-1---1-----1-1---3---3---3-3-3-3-|
D|-----------------------------------------------------------------|
   1 + 2 + 3 + 4 + 1 + 2 + 3 + 4 + 1 + 2 + 3 + 4 + 1 + 2 + 3 + 4 +

G|-----------------------------------------------------------------|
D|-----------------------------------------------------------------|
A|-5---5-----5-5-5-0---0-------0-0-1---1-------1-1-3---3-----3-3---|
D|-----------------------------------------------------------------|
   1 + 2 + 3 + 4 + 1 + 2 + 3 + 4 + 1 + 2 + 3 + 4 + 1 + 2 + 3 + 4 +

G|---------------------------------------------------------------------------------|
D|-3-------------------------------------------------------------------------------|
A|---------3-------1---1---------1---1-1-------1h3-0---0---0---0-0-0-0-0---0-0-0---|
D|---------------------------------------------------------------------------------|
   1 + 2 + 3 + 4 + 1 + 2 + 3 + 4 + 1 + 2 + 3 + 4 + 1 + 2 + 3 + 4 + 1 + 2 + 3 + 4 +

4:29
G|-------------------------------------------------------------------|
D|o-----------------------------------------------------------------o|
A|o-5---5-----5-5-5-0---0-------0---1---1-------1-1-3---3-----3-3-3-o|
D|-------------------------------------------------------------------|
    1 + 2 + 3 + 4 + 1 + 2 + 3 + 4 + 1 + 2 + 3 + 4 + 1 + 2 + 3 + 4 +

G|---------------------------------------------------------------------------------|
D|-3-------------------------------------------------------------------------------|
A|---------3-------1---1---------1---1-1-------1h3-0---0---0-----0---0-0---0-0-0---|
D|---------------------------------------------------------------------------------|
   1 + 2 + 3 + 4 + 1 + 2 + 3 + 4 + 1 + 2 + 3 + 4 + 1 + 2 + 3 + 4 + 1 + 2 + 3 + 4 +

G|-----------------------------------------------------------------|
D|-----------------------------------------------------------------|
A|-----------------------------------------------------------------|
D|-0-------------------------------0-------------------------------|
   1 + 2 + 3 + 4 + 1 + 2 + 3 + 4 + 1 + 2 + 3 + 4 + 1 + 2 + 3 + 4 +

G|-----------------------------------------------------------------|
D|-----------------------------------------------------------------|
A|-----------------------------------------------------------------|
D|-0---------------------------------------------------------------|
   1 + 2 + 3 + 4 + 1 + 2 + 3 + 4 + 1 + 2 + 3 + 4 + 1 + 2 + 3 + 4 +
Re-Tabbed by Dave Vucko

--------------------------------------------------------------------------------------

Brompton Cocktail

I added fills to the chorus to make it more interesting

Intro 0:30
G|-----------------------------------------------------------------|
D|-----------------------------------------------------------------|
A|-------------------------5---------------------------------------|
D|-0---00008---8-7---0-3-0---0-8-0-7-0-00008---8-7---0-3-0-5-0-3-0-|
   1 + 2 + 3 + 4 + 1 + 2 + 3 + 4 + 1 + 2 + 3 + 4 + 1 + 2 + 3 + 4 +

G|-----------------------------------------------------------------|
D|-----------------------------------------------------------------|
A|-------------------------5---------------------------------------|
D|-0---00008---8-7---0-3-0---0-8-0-7-0-00008---8-7---0-3-0-5-0-3---|
   1 + 2 + 3 + 4 + 1 + 2 + 3 + 4 + 1 + 2 + 3 + 4 + 1 + 2 + 3 + 4 +

0:44
G|-----------------------------------------------------------------|
D|-----------------------------------------------------------------|
A|-----------------------------------------------------------------|
D|-0-----0-----0---0-----0-----7b--0-----0-----0---0-----0-----7b--|
   1 + 2 + 3 + 4 + 1 + 2 + 3 + 4 + 1 + 2 + 3 + 4 + 1 + 2 + 3 + 4 +

Verse
G|-------------------------------------------------------------------|
D|o-----------------------------------------------------------------o|
A|o-----------------------------------------------------------------o|
D|--0-----0-0---0---0-----0-0---7b--0-----0-0---0---0-----0-0---7b---|
    1 + 2 + 3 + 4 + 1 + 2 + 3 + 4 + 1 + 2 + 3 + 4 + 1 + 2 + 3 + 4 +

1:05
G|-----------------------------------------------------------------|
D|-----------------------------------------------------------------|
A|-5---------------5---------------------0--------------/5-5-5-4-4-|
D|---0-0-8-0-0-7-----0-0-5-0-0-7---0-0-0---5-3-2-2-0-0-0-----------|
   1 + 2 + 3 + 4 + 1 + 2 + 3 + 4 + 1 + 2 + 3 + 4 + 1 + 2 + 3 + 4 +

G|-----------------------------------------------------------------|
D|-----------------------------------------------------------------|
A|-----------------------------------------------------------------|
D|-0-0-0-8-0-0-7-7-0-0-0-5-0-0-7-7-0-0-0-5-0-0-3-3-0-0-0-0-0-0-0-0-|
   1 + 2 + 3 + 4 + 1 + 2 + 3 + 4 + 1 + 2 + 3 + 4 + 1 + 2 + 3 + 4 +

Pre Chorus 1:18
G|---------------------------------------------------------------------|
D|---------------------------------------------------------------------|
A|-5-------------5-7-------------7-------------------10-------------10-|
D|---0-0-0-0-0-0-----0-0-0-0-0-0---10-0-0-0-0-0-0-10----0-0-0-0-0-0----|
   1 + 2 + 3 + 4 + 1 + 2 + 3 + 4 + 1  + 2 + 3 + 4 +  1  + 2 + 3 + 4 +

G|------------------------------------------------------------------------|
D|------------------------------------------------------------------------|
A|-8-------------8-------------------10-------------10-8-----8------------|
D|---0-0-0-0-0-0---10-0-0-0-0-0-0-10----0-0-0-0-0-0------0-0-----10-10-10-|
   1 + 2 + 3 + 4 + 1  + 2 + 3 + 4 +  1  + 2 + 3 + 4 +  1 + 2 + 3 +  4  +

Chorus 1:31
G|-----------------------------------------------------------------|
D|-----------------------2---3-5-3-------------3-5-----------------|
A|-------5---5-5-5-3-3-3-----------3-3-3-3---3---------------------|
D|-0---0-------------------------------------------5-5-5-5---5-3---|
   1 + 2 + 3 + 4 + 1 + 2 + 3 + 4 + 1 + 2 + 3 + 4 + 1 + 2 + 3 + 4 +

G|-----------------------------------------------------------------|
D|-----------------------------5-5-------------3-5-----------------|
A|-------5---5-5-5-3-3-3-3---3-----3-3-3-3---3---------------------|
D|-0-0-0-------------------------------------------5-5-5-5-5---5-5-|
   1 + 2 + 3 + 4 + 1 + 2 + 3 + 4 + 1 + 2 + 3 + 4 + 1 + 2 + 3 + 4 +

Verse 1:43
G|-------------------------------------------------------------------|
D|o-----------------------------------------------------------------o|
A|o-----------------------------------------------------------------o|
D|--0-----0-0---0---0-----0-0---7b--0-----0-0---0---0-----0-0---7b---|
    1 + 2 + 3 + 4 + 1 + 2 + 3 + 4 + 1 + 2 + 3 + 4 + 1 + 2 + 3 + 4 +

1:55
G|-----------------------------------------------------------------|
D|-----------------------------------------------------------------|
A|-5---------------5---------------------0--------------/5-5-4-4-4-|
D|---0-0-8-0-0-7-7---0-0-5-0-0-7-7-0-0-0---5-3-2-2-0-0-0-----------|
   1 + 2 + 3 + 4 + 1 + 2 + 3 + 4 + 1 + 2 + 3 + 4 + 1 + 2 + 3 + 4 +

G|-----------------------------------------------------------------|
D|-----------------------------------------------------------------|
A|---------------------------------------0-------------------4-4-4-|
D|-0-0-0-8-0-0-7-7-0-0-0-5-----7---0-0-0---5-3-2---0-0-0-0-0-------|
   1 + 2 + 3 + 4 + 1 + 2 + 3 + 4 + 1 + 2 + 3 + 4 + 1 + 2 + 3 + 4 +


Pre Chorus 2:08
G|---------------------------------------------------------------------|
D|---------------------------------------------------------------------|
A|-5-------------5-7-------------7-------------------10-------------10-|
D|---0-0-0-0-0-0-----0-0-0-0-0-0---10-0-0-0-0-0-0-10----0-0-0-0-0-0----|
   1 + 2 + 3 + 4 + 1 + 2 + 3 + 4 + 1  + 2 + 3 + 4 +  1  + 2 + 3 + 4 +

G|------------------------------------------------------------------------|
D|------------------------------------------------------------------------|
A|-8-------------8-------------------10-------------10-8-----8------------|
D|---0-0-0-0-0-0---10-0-0-0-0-0-0-10----0-0-0-0-0-0------0-0-----10-10-10-|
   1 + 2 + 3 + 4 + 1  + 2 + 3 + 4 +  1  + 2 + 3 + 4 +  1 + 2 + 3 +  4  +

Chorus 2:22
G|-----------------------------------------------------------------|
D|---------------------------------------------3-5-----------------|
A|-------5---5-5---3-3-3-3---3-3-3-3-3-3-3---3---------------------|
D|-0---0-------------------------------------------5-5-5-5---5-3---|
   1 + 2 + 3 + 4 + 1 + 2 + 3 + 4 + 1 + 2 + 3 + 4 + 1 + 2 + 3 + 4 +

G|-----------------------------------------------------------------|
D|-----------------------------------------------------------------|
A|-------5---5-5---3-3-3-3---3-3---3-3-3-3---3-3-3-----------------|
D|-0-0-0-------------------------------------------5-5-5-5-5-5-5-5-|
   1 + 2 + 3 + 4 + 1 + 2 + 3 + 4 + 1 + 2 + 3 + 4 + 1 + 2 + 3 + 4 +

2:34
G|-----------------------------------------------------------------|
D|-------------------------------------------------5-5-5-5-7-5---5-|
A|-5-5-5-5-5-5-5-5-3-3-3-3-3-3-3-3/8-8-8-8-8-8-8-8-------------8---|
D|-----------------------------------------------------------------|
   1 + 2 + 3 + 4 + 1 + 2 + 3 + 4 + 1 + 2 + 3 + 4 + 1 + 2 + 3 + 4 +

G|-----------------------------------------------------------------|
D|-----------------------------------------------------------------|
A|-5-5-5-5-5-5-5-5-3-3-3-3-3-3-3-3---------------------------0-----|
D|---------------------------------3-3-3-3-3-3-3-3-5-5-5-5-5---5-3-|
   1 + 2 + 3 + 4 + 1 + 2 + 3 + 4 + 1 + 2 + 3 + 4 + 1 + 2 + 3 + 4 +

Bridge 2:46
G|o|---------------------------------------------------|
D|-|o-------------------------------------------------o|
A|-|o-8p7-----8p7-----7---7h8-5p3-----5p3-----3---3h5-o|
D|o|------0-0-----0-0---0---------2-2-----2-2---2------|
      1 + 2 + 3 + 4 + 5 + 6 + 1 + 2 + 3 + 4 + 5 + 6 +

G|-------------------------------------------------o|
D|--------------------------------------------------|
A|--------------------------------------------------|
D|-8-8-8-8-8-8-8-8-8-8-8-8-6-6-6-6-6-6-6-6-6-6-6-6-o|
   1 + 2 + 3 + 4 + 5 + 6 + 1 + 2 + 3 + 4 + 5 + 6 +

3:15
G|-------------------------------------------------------------------|
D|o-----------------------------------------------------------------o|
A|o-----------------------------------------------/-7-----4-----5---o|
D|--0-----2-----2-/-8-----5-----7---3-----5--------------------------|
    1 + 2 + 3 + 4 + 1 + 2 + 3 + 4 + 1 + 2 + 3 + 4 + 1 + 2 + 3 + 4 +

Pre Chorus 3:28
G|---------------------------------------------------------------------|
D|---------------------------------------------------------------------|
A|-5-------------5-7-------------7-------------------10-------------10-|
D|---0-0-0-0-0-0-----0-0-0-0-0-0---10-0-0-0-0-0-0-10----0-0-0-0-0-0----|
   1 + 2 + 3 + 4 + 1 + 2 + 3 + 4 + 1  + 2 + 3 + 4 +  1  + 2 + 3 + 4 +

G|------------------------------------------------------------------------|
D|------------------------------------------------------------------------|
A|-8-------------8-------------------10-------------10-8-----8------------|
D|---0-0-0-0-0-0---10-0-0-0-0-0-0-10----0-0-0-0-0-0------0-0-----10-10-10-|
   1 + 2 + 3 + 4 + 1  + 2 + 3 + 4 +  1  + 2 + 3 + 4 +  1 + 2 + 3 +  4  +

Chorus 3:40
G|-----------------------------------------------------------------|
D|-----------------------2---3-5-3-------------3-5-----------------|
A|-------5---5-5-5-3-3-3-----------3-3-3-3---3---------------------|
D|-0---0-------------------------------------------5-5-5-5---5-3---|
   1 + 2 + 3 + 4 + 1 + 2 + 3 + 4 + 1 + 2 + 3 + 4 + 1 + 2 + 3 + 4 +

G|-----------------------------------------------------------------|
D|-----------------------------5-3-------------3-5-----------------|
A|-------5---5-5---3-3-3-3---3-----3-3-3-3---3---------------------|
D|-0-0-0-------------------------------------------5-5-5-5-5-5-5-5-|
   1 + 2 + 3 + 4 + 1 + 2 + 3 + 4 + 1 + 2 + 3 + 4 + 1 + 2 + 3 + 4 +

3:52
G|-----------------------------------------------------------------|
D|-------------------------------------------------5-5-5-5-7-5---5-|
A|-5-5-5-5-5-5-5-5-3-3-3-3-3-3-3-3/8-8-8-8-8-8-8-8-------------8---|
D|-----------------------------------------------------------------|
   1 + 2 + 3 + 4 + 1 + 2 + 3 + 4 + 1 + 2 + 3 + 4 + 1 + 2 + 3 + 4 +

G|-----------------------------------------------------------------|
D|-----------------------------------------------------------------|
A|-5-5-5-5-5-5-5-5-3-3-3-3-3-3-3-3---------------------------------|
D|---------------------------------3-3-3-3-3-3-3-3-5-5-5-5-5-5-5-5-|
   1 + 2 + 3 + 4 + 1 + 2 + 3 + 4 + 1 + 2 + 3 + 4 + 1 + 2 + 3 + 4 +

G|---------------------------------------------------------------------------|
D|---------------------------------------------------------------------------|
A|---------------------------------------------------------------------------|
D|-0-----0-----0---0-----0-----7b--0-----0-----0---0-----0-----7b--0---------|
   1 + 2 + 3 + 4 + 1 + 2 + 3 + 4 + 1 + 2 + 3 + 4 + 1 + 2 + 3 + 4 +
Tabbed by Dave Vucko


--------------------------------------------------------------------------------------

Lost

Bass enters
G|-------------------------------------------------------------------|
D|o-----------------------------------------------------------------o|
A|o-5-5-5-5-5-5-5-5-5-5-5-5-3-3-3-3-1-1-1-1-1-1-1-1-1-1-1-1-3-3-3-3-o|
D|-------------------------------------------------------------------|
    1 + 2 + 3 + 4 + 1 + 2 + 3 + 4 + 1 + 2 + 3 + 4 + 1 + 2 + 3 + 4 +

G|-----------------------------------------------------------------|
D|-----------------------------------------------------------------|
A|-----------------------------------------------------------------|
D|-5-5-5-5-5-5-5-5-5-5-5-5-5-5-5-5-5-5-5-5-5-5-5-5-5-5-5-5-5-5-5-5-|
   1 + 2 + 3 + 4 + 1 + 2 + 3 + 4 + 1 + 2 + 3 + 4 + 1 + 2 + 3 + 4 +

G|-----------------------------------------------------------------|
D|-----------------------------------------------------------------|
A|-1-1-1-1-1-1-1-1-1-1-1-1-1-1-1-1-1-1-1-1-1-1-1-1-1-1-1-1-1-1-1-1-|
D|-----------------------------------------------------------------|
   1 + 2 + 3 + 4 + 1 + 2 + 3 + 4 + 1 + 2 + 3 + 4 + 1 + 2 + 3 + 4 +

G|-----------------------------------------------------------------|
D|-----------------------------------------------------------------|
A|-----------------------------------------------------------------|
D|-----------------------------0-0-0---------------------------0-0-|
   1 + 2 + 3 + 4 + 1 + 2 + 3 + 4 + 1 + 2 + 3 + 4 + 1 + 2 + 3 + 4 +

1:00 verse
G|-----------------------------------------------------------------|
D|-----------------------------------------------------------------|
A|---------------------------------1-1-1-1-1-1-1-1-----------------|
D|-0-0-0-0-0-0-0-0-5-5-5-5-5-5-5-5-----------------3-3-3-3-3-3-3-3-|
   1 + 2 + 3 + 4 + 1 + 2 + 3 + 4 + 1 + 2 + 3 + 4 + 1 + 2 + 3 + 4 +

G|-----------------------------------------------------------------|
D|-----------------------------------------------------------------|
A|-----------------------------------------------------------------|
D|-4-4-4-4-4-4-4-4-5-5-5-5-5-5-5-5-2-2-2-2-2-2-2-2-3-3-3-3-3-3-3-3-|
   1 + 2 + 3 + 4 + 1 + 2 + 3 + 4 + 1 + 2 + 3 + 4 + 1 + 2 + 3 + 4 +

1:11
G|-----------------------------------------------------------------|
D|---------------------------------------------------3-3-3-3-3-3-3-|
A|-------------------------------0-1-1-1-1-1-3-3-1-----------------|
D|-0-0-0-0-0-0-0-0-5-5-5-5-5-5-5-------------------3---------------|
   1 + 2 + 3 + 4 + 1 + 2 + 3 + 4 + 1 + 2 + 3 + 4 + 1 + 2 + 3 + 4 +

G|-----------------------------------------------------------------|
D|-4-4-4-4-4-4-4-4-5-5-5-5-5-5-5-5-2-2-2-2-2-2-2-2-3-3-3-2-0-0-3-2-|
A|-----------------------------------------------------------------|
D|-----------------------------------------------------------------|
   1 + 2 + 3 + 4 + 1 + 2 + 3 + 4 + 1 + 2 + 3 + 4 + 1 + 2 + 3 + 4 +

1:22 Pre-Chorus
G|-----------------------------------------------------------------|
D|-----------------------------------------------------------------|
A|-1-1-1-1-1-1-3-1-------------------------------------------------|
D|-----------------1-1-1-1-1-1-1-1-2-2-2-2-2-2-2-2-3-3-3-3-3-3-3---|
   1 + 2 + 3 + 4 + 1 + 2 + 3 + 4 + 1 + 2 + 3 + 4 + 1 + 2 + 3 + 4 +

G|-----------------------------------------------------------------|
D|-----------------------------------------2--2--2-3--3--3-5-------|
A|---------------------------------3--3--3-------------------------|
D|-----------------------------------------------------------------|
   1 e + e 2 e + a 3 e + a 4 e + a 1 e + a 2 e + a 3 e + a 4 e + a

1:30 Chorus
G|-----------------------------------------------------------------|
D|---------------------------------------------------------5---5---|
A|---------------------------------3-3-3-3-3-3-3-3-3-3-3-3---3---3-|
D|-3-3-3-3-3-3-3-3-3-3-3-3-3-3-3-2---------------------------------|
   1 + 2 + 3 + 4 + 1 + 2 + 3 + 4 + 1 + 2 + 3 + 4 + 1 + 2 + 3 + 4 +

G|-----------------------------------------------------------------|
D|-----------------------------------------------------2-3---2-3-5-|
A|---------------5---------5-7-5-3-1-1-1-1---1-3-----3-----3-------|
D|-5-5-5-5-5-5-5---5-5-5-5-----------------------------------------|
   1 + 2 + 3 + 4 + 1 + 2 + 3 + 4 + 1 + 2 + 3 + 4 + 1 + 2 + 3 + 4 +

1:39
G|-----------------------------------------------------------------|
D|---------------------------------------------------------5---5---|
A|---------------------------------3-3-3-3-3-3-3-3-3-3-3-3---3---3-|
D|-3-3-3-3-3-3-3-3-3-3-3-3-3-3-3-2---------------------------------|
   1 + 2 + 3 + 4 + 1 + 2 + 3 + 4 + 1 + 2 + 3 + 4 + 1 + 2 + 3 + 4 +

G|-----------------------------------------------------------------|
D|-----------------------3-5-3-------------------------------------|
A|---------------5---3-5-------5-3-1-1-1-1---1-3-3-3-3-3-----------|
D|-5-5-5-5-5-5-5---5-----------------------------------------------|
   1 + 2 + 3 + 4 + 1 + 2 + 3 + 4 + 1 + 2 + 3 + 4 + 1 + 2 + 3 + 4 +

1:50 Interlude
G|-------------------------------------------------------------------|
D|o-----------------------------------------------------------------o|
A|o-5-5-5-5-5-5-5-5-5-5-5-5-3-3-3-3-1-1-1-1-1-1-1-1-1-1-1-1-3-3-3-3-o|
D|-------------------------------------------------------------------|
    1 + 2 + 3 + 4 + 1 + 2 + 3 + 4 + 1 + 2 + 3 + 4 + 1 + 2 + 3 + 4 +

2:01
G|-----------------------------------------------------------------|
D|-----------------------------------------------------------------|
A|-----------------------------------------------------------------|
D|-5-5-5-5-5-5-5-5-5-5-5-5-5-5-5-5-5-5-5-5-5-5-5-5-5-5-5-5-5-5-5-5-|
   1 + 2 + 3 + 4 + 1 + 2 + 3 + 4 + 1 + 2 + 3 + 4 + 1 + 2 + 3 + 4 +

G|-----------------------------------------------------------------|
D|-----------------------------------------------------------------|
A|-1-1-1-1-1-1-1-1-1-1-1-1-1-1-1-1-1-1-1-1-1-1-1-1-1-1-1-1-1-1-1-1-|
D|-----------------------------------------------------------------|
   1 + 2 + 3 + 4 + 1 + 2 + 3 + 4 + 1 + 2 + 3 + 4 + 1 + 2 + 3 + 4 +

G|---------------------------------|
D|---------------------------------|
A|---------------------------------|
D|-----------------------------0-0-|
   1 + 2 + 3 + 4 + 1 + 2 + 3 + 4 +

2:14 verse
G|-----------------------------------------------------------------|
D|-----------------------------------------------------------------|
A|---------------------------------1-1-1-1-1-1-1-1-----------------|
D|-0-0-0-0-0-0-0-0-5-5-5-5-5-5-5-5-----------------3-3-3-3-3-3-3-3-|
   1 + 2 + 3 + 4 + 1 + 2 + 3 + 4 + 1 + 2 + 3 + 4 + 1 + 2 + 3 + 4 +

G|-----------------------------------------------------------------|
D|-----------------------------------------------------------------|
A|-----------------------------------------------------------------|
D|-4-4-4-4-4-4-4-4-5-5-5-5-5-5-5-5-2-2-2-2-2-2-2-2-3-3-3-3-3-------|
   1 + 2 + 3 + 4 + 1 + 2 + 3 + 4 + 1 + 2 + 3 + 4 + 1 + 2 + 3 + 4 +

2:25
G|-----------------------------------------------------------------|
D|-----------------------------------------------------------------|
A|---------------------------------1-1-1-1-1-3-3-1-----------------|
D|-0-0-0-0-0-0-0-0-5-5-5-5-5-5-5-5-----------------3-3-3-3-3-3-3-3-|
   1 + 2 + 3 + 4 + 1 + 2 + 3 + 4 + 1 + 2 + 3 + 4 + 1 + 2 + 3 + 4 +

G|-----------------------------------------------------------------|
D|-----------------------------------------------5-----------------|
A|---------------------------------7-7-7-7-7-7-7---8-8-8-7-5-5-3-3-|
D|-4-4-4-4-4-4-4-4-5-5-5-5-5-5-5-5---------------------------------|
   1 + 2 + 3 + 4 + 1 + 2 + 3 + 4 + 1 + 2 + 3 + 4 + 1 + 2 + 3 + 4 +

2:36 Pre Chorus
G|-----------------------------------------------------------------|
D|-----------------------------------------------------------------|
A|-1-1-1-1-1-1-3-1-------------------------------------------------|
D|-----------------1-1-1-1-1-1-1-1-2-2-2-2-2-2-2-2-3-3-3-3-3-3-3---|
   1 + 2 + 3 + 4 + 1 + 2 + 3 + 4 + 1 + 2 + 3 + 4 + 1 + 2 + 3 + 4 +

G|-----------------------------------------------------------------|
D|-----------------------------------------2--2--2-3--3--3-5-------|
A|---------------------------------3--3--3-------------------------|
D|-----------------------------------------------------------------|
   1 e + e 2 e + a 3 e + a 4 e + a 1 e + a 2 e + a 3 e + a 4 e + a

2:44 Chorus
G|-----------------------------------------------------------------|
D|---------------------------------------------5-----5-----2-3-2---|
A|---------------------------------3-3-3-3-3-3---3-3---3-3-------3-|
D|-3-3-3-3-3-3-3-3-3-3-3-3-3-3-2-2---------------------------------|
   1 + 2 + 3 + 4 + 1 + 2 + 3 + 4 + 1 + 2 + 3 + 4 + 1 + 2 + 3 + 4 +

G|---------------------------------------------------------------5-|
D|-------------------------5-7-5---------------------------5-7-8---|
A|---------------5-------5-------5-1-1-1-1---1-3-3-3-3-3-3---------|
D|-5-5-5-5-5-5-5---5-5-5-------------------------------------------|
   1 + 2 + 3 + 4 + 1 + 2 + 3 + 4 + 1 + 2 + 3 + 4 + 1 + 2 + 3 + 4 +

2:55
G|-----------------------------------------------------------------|
D|---------------------3-----------------------5-----5-----2-3-2---|
A|-------------------3---3---2-3-5-3-3-3-3-3-3---3-3---3-3-------3-|
D|-3-3-3-3-3-3-3-3-3-------3---------------------------------------|
   1 + 2 + 3 + 4 + 1 + 2 + 3 + 4 + 1 + 2 + 3 + 4 + 1 + 2 + 3 + 4 +

G|-----------------------------------------------------------------|
D|---------------------------------------------------------2-2-3-3-|
A|---------------5---------5-7-5-3-1-1-1-1---1-3-3-3-3-3-3---------|
D|-5-5-5-5-5-5-5---5-5-5-5-----------------------------------------|
   1 + 2 + 3 + 4 + 1 + 2 + 3 + 4 + 1 + 2 + 3 + 4 + 1 + 2 + 3 + 4 +

3:05 Solo
G|-----------------------------------------------------------------|
D|-----------------------------------------------------------------|
A|---------------------------------3-3-3-3---3-3---3-3-3-3-3-3-3---|
D|-3-3-3-3---3-3---3-3-3-3-3---3-----------------------------------|
   1 + 2 + 3 + 4 + 1 + 2 + 3 + 4 + 1 + 2 + 3 + 4 + 1 + 2 + 3 + 4 +

G|-----------------------------------------------------------------|
D|-----------------------------------------------------------------|
A|---------------------------------1-1-1-1---1-3---3-3-3-3-3-5-3---|
D|-5-5-5-5---5-5---5-5-5-5-5---5-----------------------------------|
   1 + 2 + 3 + 4 + 1 + 2 + 3 + 4 + 1 + 2 + 3 + 4 + 1 + 2 + 3 + 4 +

G|-----------------------------------------------------------------|
D|-------------3---------------------------------------------------|
A|---------------------------------3-5-3-3---3-3---3-3-3-3-3-3-3-5-|
D|-3---3-3---3-----3-3---3-3---3-----------------------------------|
   1 + 2 + 3 + 4 + 1 + 2 + 3 + 4 + 1 + 2 + 3 + 4 + 1 + 2 + 3 + 4 +

G|-----------------------------------------------------5-------2---|
D|---------------------------------------------------5---5-3-5-----|
A|-------------------------------0-1-1-1-1---1-3---3---------------|
D|-5-5-5-5---5-5---5-5-5-5-5-3-5-----------------------------------|
   1 + 2 + 3 + 4 + 1 + 2 + 3 + 4 + 1 + 2 + 3 + 4 + 1 + 2 + 3 + 4 +

3:26
G|-----------------------------------------------------------------|
D|-3-3-3-3---3-3---3-3-3-3---3-3-----------------------------------|
A|---------------------------------3-3-3-3---3-3---3-3-3-3-3-3-3---|
D|-----------------------------------------------------------------|
   1 + 2 + 3 + 4 + 1 + 2 + 3 + 4 + 1 + 2 + 3 + 4 + 1 + 2 + 3 + 4 +

G|-----------------------------------------------------------------|
D|-----------------------------------------------------------------|
A|---------------------------------1-1-1-1-1-1-3-3-3-3-3-3-3---3---|
D|-5-5-5-5---5-5---5-5-5-5-5-5-5-----------------------------------|
   1 + 2 + 3 + 4 + 1 + 2 + 3 + 4 + 1 + 2 + 3 + 4 + 1 + 2 + 3 + 4 +

G|-----------------------------------------------------------------|
D|-3-3-3-3---3-3---3-3-3-3-3-3-3-----------------------------------|
A|---------------------------------3-3-3-3---3-3---3-3-3-3-3-3-3---|
D|-----------------------------------------------------------------|
   1 + 2 + 3 + 4 + 1 + 2 + 3 + 4 + 1 + 2 + 3 + 4 + 1 + 2 + 3 + 4 +

G|-----------------------------------------------------------------|
D|-----------------------------------------------------------------|
A|---------------------------------1-1-1-1-1-1-3-3-3-3-3-3-3-3-3---|
D|-5-5-5-5---5-5---5-5-5-5-5-5-5-----------------------------------|
   1 + 2 + 3 + 4 + 1 + 2 + 3 + 4 + 1 + 2 + 3 + 4 + 1 + 2 + 3 + 4 +

3:48
G|-----------------------------------------------------------------|
D|-------3---------------------------------------------------------|
A|---------------------------------3-5-3-3---3-3---3-3-3-3---3-3---|
D|-3-3-3-----3-3---3-3-3-3-3---3-----------------------------------|
   1 + 2 + 3 + 4 + 1 + 2 + 3 + 4 + 1 + 2 + 3 + 4 + 1 + 2 + 3 + 4 +

G|-----------------------------------------------------5-----------|
D|---------------------------------------------------5---5-5-7-5---|
A|---------------------------------1-1-1-1---1-3---3---------------|
D|-5-5-5-5---5-5---5-5-5-5-5-7-5-3---------------------------------|
   1 + 2 + 3 + 4 + 1 + 2 + 3 + 4 + 1 + 2 + 3 + 4 + 1 + 2 + 3 + 4 +

G|-----------------------------------------------------------------|
D|---------------------------------------------5-----5-----2-3-2---|
A|---------------------------------3-5-3-3---3---3-3---3-3-------3-|
D|-3-3-3-3---3-3---3-3-3-3-3-3-3-----------------------------------|
   1 + 2 + 3 + 4 + 1 + 2 + 3 + 4 + 1 + 2 + 3 + 4 + 1 + 2 + 3 + 4 +

G|---------------------------------------3-------------------------|
D|-------8-----8-----7-----5---7-------------------2---3---5---3---|
A|---------------------------------1-1-1---1-1-3-3---3---3---3---3-|
D|-5-5-5---5-5---5-5---5-5---5-------------------------------------|
   1 + 2 + 3 + 4 + 1 + 2 + 3 + 4 + 1 + 2 + 3 + 4 + 1 + 2 + 3 + 4 +

4:09 Solo 2
G|-----------------------------------------------------------------|
D|-----------------------------------------------------------------|
A|---------------------------------3-3-3-3---3-3---3-3-3-3-3-3-3---|
D|-3-3-3-3---3-3---3-3-3-3-3-3-3-----------------------------------|
   1 + 2 + 3 + 4 + 1 + 2 + 3 + 4 + 1 + 2 + 3 + 4 + 1 + 2 + 3 + 4 +

G|-----------------------------------------------------------------|
D|-----------------------------------------------------------------|
A|---------------------------------1-1-1-1---1-3---3-3-3-3-3-3-3---|
D|-5-5-5-5---5-5---5-5-5-5-5-5-5-----------------------------------|
   1 + 2 + 3 + 4 + 1 + 2 + 3 + 4 + 1 + 2 + 3 + 4 + 1 + 2 + 3 + 4 +

G|-----------------------------------------------------------------|
D|-----------------------------------------------------------------|
A|---------------------------------3-5-3-3---3-3---3-3-3-3-3---3---|
D|-3-3-3-3---3-3---3-3-3-3---3-3-----------------------------------|
   1 + 2 + 3 + 4 + 1 + 2 + 3 + 4 + 1 + 2 + 3 + 4 + 1 + 2 + 3 + 4 +

G|-----------------------------------------------------------------|
D|-----------------------------------------------------------------|
A|---------------------------------1-1-1-1---1-3---3-3-3-3-3-5-3---|
D|-5-5-5-5---5-5---5-5-5-5-5---5-----------------------------------|
   1 + 2 + 3 + 4 + 1 + 2 + 3 + 4 + 1 + 2 + 3 + 4 + 1 + 2 + 3 + 4 +

4:30
G|------------------------------------------------------------------|
D|o-----------------------------------------------------------------|
A|o---------------------------------3-3-3-3-3-3-3-3-3-3-3-3-3-3-3-3-|
D|--3-3-3-3-3-3-3-3-3-3-3-3-3-3-3-3---------------------------------|
    1 + 2 + 3 + 4 + 1 + 2 + 3 + 4 + 1 + 2 + 3 + 4 + 1 + 2 + 3 + 4 +

G|------------------------------------------------------------------|
D|-----------------------------------------------------------------o|
A|---------------------------------1-1-1-1-1-1-3-3-3-3-3-3-3-3-3-3-o|
D|-5-5-5-5-5-5-5-5-5-5-5-5-5-5-5-5----------------------------------|
   1 + 2 + 3 + 4 + 1 + 2 + 3 + 4 + 1 + 2 + 3 + 4 + 1 + 2 + 3 + 4 +

4:52 Outro
G|-----------------------------------------------------------------|
D|-----------------------------------------------------------------|
A|--------/12b------------/12b-------------/12b--------------------|
D|-3---------------3---------------3---------------3--------------\|
   1 + 2 + 3 + 4 + 1 + 2 + 3 + 4 + 1 + 2 + 3 + 4 + 1 + 2 + 3 + 4 +
Tabbed by Dave Vucko

--------------------------------------------------------------------------------------

A Little Piece Of Heaven

0:13
F#|--------------------------------------------------------------------|
C#|o------------------------------------------------------------------o|
G#|o------------------------------------------------------------------o|
C#|--1-1-11111-1-11111-1-11111-1-11114-4-44444-4-44444-4-44444-4-4444--|
     1 + 2 + 3 + 4 + 1 + 2 + 3 + 4 + 1 + 2 + 3 + 4 + 1 + 2 + 3 + 4 +

Pre Verse 0:26
F#|---------------------------------------------------------------------------------------------------|
C#|o-------------------------------------------------------------------------------------------------o|
G#|o-------------------------------------------------------------------------0-0-----0-0-----0-0-----o|
C#|--1-1-----1-1-----1-1-----0-0-----0-0-----0-0-----4-4-----4-4-----4-4------------------------------|
     1 + 2 + 3 + 4 + 5 + 6 + 1 + 2 + 3 + 4 + 5 + 6 + 1 + 2 + 3 + 4 + 5 + 6 + 1 + 2 + 3 +
4 + 5 + 6 +

Verse 0:47
F#|-------------------------------------------------------------------------------------------------|
C#|-1-------1-------1-------0-------0-------0-------------------------------1-----------------------|
G#|-----1-------1-------1-------1-------1-------1---0---3---0---3---0---3-------1---1---------------|
C#|-------------------------------------------------------------------------------------4---3---2---|
    1 + 2 + 3 + 4 + 5 + 6 + 1 + 2 + 3 + 4 + 5 + 6 + 1 + 2 + 3 + 4 + 5 + 6 + 1 + 2 + 3 +
4 + 5 + 6 +

F#|-------------------------------------------------------------------------------------------------|
C#|-------------------------0-------0-------0-------------------------------1-----------------------|
G#|-----1-------1-------1-------1-------1-------1---0---3---0---3---0---3-------1---1---------------|
C#|-1-------1-------1-------------------------------------------------------------------4---3---2---|
    1 + 2 + 3 + 4 + 5 + 6 + 1 + 2 + 3 + 4 + 5 + 6 + 1 + 2 + 3 + 4 + 5 + 6 + 1 + 2 + 3 +
4 + 5 + 6 +

1:06
F#|-------------------------------------------------------------------------------------------------|
C#|-------------------------------------------------------------------------------------------------|
G#|---------1-------0---4---3-----------0---3---0-----------1-------0---4---6-----------------------|
C#|-1-3-4-6-----4-6---------------------------------1-3-4-6-----4-6---------------------------------|
    1 + 2 + 3 + 4 + 5 + 6 + 1 + 2 + 3 + 4 + 5 + 6 + 1 + 2 + 3 + 4 + 5 + 6 + 1 + 2 + 3 +
4 + 5 + 6 +

1:16
F#|---------------------------------------------------|-------------------------|
C#|o-------------------------------------------------o|-------------------------|
G#|o-6-----------5-----------------------------------o|-0--/3---0--/3---0--/3---|
C#|--------------------------4--/7---4--/7---4--/7----|-------------------------|
     1 + 2 + 3 + 4 + 5 + 6 + 1 + 2 + 3 + 4 + 5 + 6 +    1 + 2 + 3 + 4 + 5 + 6 +

F#|-----------------------4-3-----------------------------4-3-------|
C#|-1-------1-------1-3-4-----6-4-3-0-------0-------0-3-4-----6-4-3-|
G#|-------1-------1-----------------------1-------1-----------------|
C#|-----------------------------------------------------------------|
    1 + 2 + 3 + 4 + 1 + 2 + 3 + 4 + 1 + 2 + 3 + 4 + 1 + 2 + 3 + 4 +

1:35
F#|-------------------------------------------------------------------|
C#|o-----------------------------------------------------------------o|
G#|o-----------------------------------------------------------------o|
C#|--1-----3-----3-/-9-----8---------6-----8-----4-----6-----3---0----|
     1 + 2 + 3 + 4 + 1 + 2 + 3 + 4 + 1 + 2 + 3 + 4 + 1 + 2 + 3 + 4 +

Pre Chorus 1:49
F#|-----------------------------------------------------------------|
C#|---------4---1---------------------------8-----------------------|
G#|-2---------------4-------------/-9-----------9---6-6-6-6-6-6-6-6-|
C#|-----------------------------------------------------------------|
    1 + 2 + 3 + 4 + 1 + 2 + 3 + 4 + 1 + 2 + 3 + 4 + 1 + 2 + 3 + 4 +

F#|-----------------------------------------------------------------|
C#|-----------------------------------------------------------------|
G#|-2---2-2---2-2---4-4-4-4---4-4-/-9---9-9---9-9---6-6-6-6---6-6---|
C#|-----------------------------------------------------------------|
    1 + 2 + 3 + 4 + 1 + 2 + 3 + 4 + 1 + 2 + 3 + 4 + 1 + 2 + 3 + 4 +

F#|-----------------------------------------------------------------|
C#|-----------------------------------------------------------------|
G#|-2-2---2---2---2-4-4---4---4---4-5-5---5---5---5-6-------4-------|
C#|-----------------------------------------------------------------|
    1 + 2 + 3 + 4 + 1 + 2 + 3 + 4 + 1 + 2 + 3 + 4 + 1 + 2 + 3 + 4 +

F#|-----------------------------------------------------------------|
C#|-----------------------------------------------------------------|
G#|-2---2---2---2---2---2---2---2---4-4-4-4-4-4-4-4-4\--------------|
C#|-----------------------------------------------------------------|
    1 + 2 + 3 + 4 + 1 + 2 + 3 + 4 + 1 + 2 + 3 + 4 + 1 + 2 + 3 + 4 +

Chorus 2:15
F#|-----------------------------------------------------------------|
C#|-----------------------------------------------------------------|
G#|-2---2---2---2---2---2---2---2---4---4---4---4-4-4---4-4-4-4-4-4-|
C#|-----------------------------------------------------------------|
    1 + 2 + 3 + 4 + 1 + 2 + 3 + 4 + 1 + 2 + 3 + 4 + 1 + 2 + 3 + 4 +

F#|-----------------------------------------------------------------|
C#|-4---4-4-4---4-6-3---3---3h4-3h4---------------------------------|
G#|---------------------------------6---6---6---6---4---4---4---4---|
C#|-----------------------------------------------------------------|
    1 + 2 + 3 + 4 + 1 + 2 + 3 + 4 + 1 + 2 + 3 + 4 + 1 + 2 + 3 + 4 +

F#|-----------------------------------------------------------------|
C#|-------------------------------------------------------------3---|
G#|-2---2---2---2-2-2---2---2---2---4---4-4-4---4-4-4---4---6-6-----|
C#|-----------------------------------------------------------------|
    1 + 2 + 3 + 4 + 1 + 2 + 3 + 4 + 1 + 2 + 3 + 4 + 1 + 2 + 3 + 4 +

F#|-----------------------------------------------------------------|
C#|-4---4-4-4---4-6-3---3---3h4-3h4---------------------------------|
G#|---------------------------------6---6-6-6---6-6-4---4-4-4---4---|
C#|-----------------------------------------------------------------|
    1 + 2 + 3 + 4 + 1 + 2 + 3 + 4 + 1 + 2 + 3 + 4 + 1 + 2 + 3 + 4 +

F#|-----------------------------------------------------------------|
C#|-----------------------------------------------------------------|
G#|-2---2---2---2---2---2---2---2---4---4---4---4---4\--------------|
C#|-----------------------------------------------------------------|
    1 + 2 + 3 + 4 + 1 + 2 + 3 + 4 + 1 + 2 + 3 + 4 + 1 + 2 + 3 + 4 +

Verse 2:48
F#|-------------------------------------------------------------------------------------------------|
C#|-1-------1-------1-------0-------0-------0-------------------------------1-----------------------|
G#|-----1-------1-------1-------1-------1-------1---0---3---0---3---0---3-------1---1---------------|
C#|-------------------------------------------------------------------------------------4---3---2---|
    1 + 2 + 3 + 4 + 5 + 6 + 1 + 2 + 3 + 4 + 5 + 6 + 1 + 2 + 3 + 4 + 5 + 6 + 1 + 2 + 3 +
4 + 5 + 6 +

F#|-------------------------------------------------------------------------------------------------|
C#|-------------------------0-------0-------0-------------------------------1-----------------------|
G#|-----1-------1-------1-------1-------1-------1---0---3---0---3---0---3-------1---1---------------|
C#|-1-------1-------1-------------------------------------------------------------------4---3---2---|
    1 + 2 + 3 + 4 + 5 + 6 + 1 + 2 + 3 + 4 + 5 + 6 + 1 + 2 + 3 + 4 + 5 + 6 + 1 + 2 + 3 +
4 + 5 + 6 +

3:08
F#|-------------------------------------------------------------------------------------------------|
C#|-------------------------------------------------------------------------------------------------|
G#|---------1-------0---4---3-----------0---3---0-----------1-------0---4---6-----------------------|
C#|-1-3-4-6-----4-6---------------------------------1-3-4-6-----4-6---------------------------------|
    1 + 2 + 3 + 4 + 5 + 6 + 1 + 2 + 3 + 4 + 5 + 6 + 1 + 2 + 3 + 4 + 5 + 6 + 1 + 2 + 3 +
4 + 5 + 6 +

3:18
F#|---------------------------------------------------|-------------------------|
C#|o-------------------------------------------------o|-------------------------|
G#|o-6-----------5-----------------------------------o|-0--/3---0--/3---0--/3---|
C#|--------------------------4--/7---4--/7---4--/7----|-------------------------|
     1 + 2 + 3 + 4 + 5 + 6 + 1 + 2 + 3 + 4 + 5 + 6 +    1 + 2 + 3 + 4 + 5 + 6 +

F#|-----------------------4-3-----------------------------4-3-------|
C#|-1-------1-------1-3-4-----6-4-3-0-------0-------0-3-4-----6-4-3-|
G#|-------1-------1-----------------------1-------1-----------------|
C#|-----------------------------------------------------------------|
    1 + 2 + 3 + 4 + 1 + 2 + 3 + 4 + 1 + 2 + 3 + 4 + 1 + 2 + 3 + 4 +

3:37
F#|-------------------------------------------------------------------|
C#|o-----------------------------------------------------------------o|
G#|o-----------------------------------------------------------------o|
C#|--1-----3-----3-/-9-----8---------6-----8-----4-----6-----3---0----|
     1 + 2 + 3 + 4 + 1 + 2 + 3 + 4 + 1 + 2 + 3 + 4 + 1 + 2 + 3 + 4 +

Pre Chorus 3:50
F#|-----------------------------------------------------------------|
C#|---------4---1---------------------------8-----------------------|
G#|-2---------------4-------------/-9-----------9---6-6-6-6-6-6-6-6-|
C#|-----------------------------------------------------------------|
    1 + 2 + 3 + 4 + 1 + 2 + 3 + 4 + 1 + 2 + 3 + 4 + 1 + 2 + 3 + 4 +

F#|-----------------------------------------------------------------|
C#|-----------------------------------------------------------------|
G#|-2---2-2---2-2---4-4-4-4---4-4-/-9---9-9---9-9---6-6-6-6---6-6---|
C#|-----------------------------------------------------------------|
    1 + 2 + 3 + 4 + 1 + 2 + 3 + 4 + 1 + 2 + 3 + 4 + 1 + 2 + 3 + 4 +

F#|-----------------------------------------------------------------|
C#|-----------------------------------------------------------------|
G#|-2-2---2---2---2-4-4---4---4---4-5-5---5---5---5-6-------4-------|
C#|-----------------------------------------------------------------|
    1 + 2 + 3 + 4 + 1 + 2 + 3 + 4 + 1 + 2 + 3 + 4 + 1 + 2 + 3 + 4 +

F#|-----------------------------------------------------------------|
C#|-----------------------------------------------------------------|
G#|-2---2---2---2---2---2---2---2---4---4---4-4-4-4-4---------------|
C#|-----------------------------------------------------------------|
    1 + 2 + 3 + 4 + 1 + 2 + 3 + 4 + 1 + 2 + 3 + 4 + 1 + 2 + 3 + 4 +

Chorus 4:16
F#|-----------------------------------------------------------------|
C#|-------------------------------------------------------------3---|
G#|-2---2---2---2---2---2---2---2---4---4---4---4-4-4---4-4-6-------|
C#|-----------------------------------------------------------------|
    1 + 2 + 3 + 4 + 1 + 2 + 3 + 4 + 1 + 2 + 3 + 4 + 1 + 2 + 3 + 4 +

F#|-----------------------------------------------------------------|
C#|-4---4-4-4---4-6-3---3---3h4-3h4---------------------------------|
G#|---------------------------------6---6-6-6---6---4---4---4---4---|
C#|-----------------------------------------------------------------|
    1 + 2 + 3 + 4 + 1 + 2 + 3 + 4 + 1 + 2 + 3 + 4 + 1 + 2 + 3 + 4 +

F#|-----------------------------------------------------------------|
C#|-------------------------------------------------------------3-3-|
G#|-2---2-2-2---2---2---2---2---2---4---4-4-4---4-4-4---4---6-6-----|
C#|-----------------------------------------------------------------|
    1 + 2 + 3 + 4 + 1 + 2 + 3 + 4 + 1 + 2 + 3 + 4 + 1 + 2 + 3 + 4 +

F#|-----------------------------4-3---------------------------------|
C#|-4---4-4-4---6-4-3---3---6-4-------------------4-----------------|
G#|---------------------------------6---6-6-6---6---4---4-4-4---4---|
C#|-----------------------------------------------------------------|
    1 + 2 + 3 + 4 + 1 + 2 + 3 + 4 + 1 + 2 + 3 + 4 + 1 + 2 + 3 + 4 +

F#|-----------------------------------------------------------------|
C#|-----------------------------------------------------------------|
G#|-2---2---2---2-2-2---2---2-2-2-2-4---4---4---4-4-4---------------|
C#|-----------------------------------------------------------------|
    1 + 2 + 3 + 4 + 1 + 2 + 3 + 4 + 1 + 2 + 3 + 4 + 1 + 2 + 3 + 4 +

Bridge 4:50
F#|---------------------------------------------------------------------------------------------------|
C#|o-------------------------------------------------------------------------------------------------o|
G#|o-------------------------------------------------------------------------------------------------o|
C#|--1-------1---4-------4---3-------3---0-------0---4-------4---7-------7---6-------6---3-------3----|
     1 + 2 + 3 + 4 + 5 + 6 + 1 + 2 + 3 + 4 + 5 + 6 + 1 + 2 + 3 + 4 + 5 + 6 + 1 + 2 + 3 +
4 + 5 + 6 +

5:10
F#|-------------------------------------------------------------------------------------------------|
C#|-1-----1-----1-------1---1---1-1---1-1---3---4---------------------------------------------------|
G#|-----------1-------------------------------------2-----2-----2-------2---2---2-2---2-2-----2-----|
C#|-----------------------------------------------------------4---------------------------------4-4-|
    1 + 2 + 3 + 4 + 5 + 6 + 1 + 2 + 3 + 4 + 5 + 6 + 1 + 2 + 3 + 4 + 5 + 6 + 1 + 2 + 3 +
4 + 5 + 6 +

F#|-------------------------------------------------------------------------------------------------|
C#|-------------------------------------------------------------------------------------------------|
G#|-------------------------------------------------4-----------4-----------4-----------5-----------|
C#|-6---6-6---6-6-------6---6---6-6---6-6-------6---------------------------------------------------|
    1 + 2 + 3 + 4 + 5 + 6 + 1 + 2 + 3 + 4 + 5 + 6 + 1 + 2 + 3 + 4 + 5 + 6 + 1 + 2 + 3 +
4 + 5 + 6 +

5:30
F#|-------------------------------------------------------------------------------------------------|
C#|-1-----1-----1---1---1---1---1-1---1-1---3---4-----------------------------------------------4---|
G#|-----------1-------------------------------------2-----2-----2-------2---2---2-2---2-2---2-------|
C#|-----------------------------------------------------------4-------------------------------------|
    1 + 2 + 3 + 4 + 5 + 6 + 1 + 2 + 3 + 4 + 5 + 6 + 1 + 2 + 3 + 4 + 5 + 6 + 1 + 2 + 3 +
4 + 5 + 6 +

F#|-------------------------------------------------------------------------------------------------|
C#|-------------------------------------------------------------------------------------------------|
G#|-------------------------------------------------4---4-4---4-4---4---4---4---4---4---5---5---8---|
C#|-6---6-6---6-6---6---6---6---6-6---6-6---6---6---------------------------------------------------|
    1 + 2 + 3 + 4 + 5 + 6 + 1 + 2 + 3 + 4 + 5 + 6 + 1 + 2 + 3 + 4 + 5 + 6 + 1 + 2 + 3 +
4 + 5 + 6 +

F#|-------------------------------------------------------------------------------------|
C#|-------------------------------------------------------------------------------------|
G#|-6-----------------1---------------------4-------------------4---------------------1-|
C#|---------------------1-----------------4-------------------4-------------------------|
    1 + 2 + 3 + 4 + 5 + 1 + 2 + 3 + 4 + 5 + 1 + 2 + 3 + 4 + 5 + 1 + 2 + 3 + 4 + 5 + 6 +

Interlude 5:58
F#|--------------------------------------------------------------------|
C#|o------------------------------------------------------------------o|
G#|o------------------------------------------------------------------o|
C#|--1-1-11111-1-11111-1-11111-1-11114-4-44444-4-44444-4-44444-4-4444--|
     1 + 2 + 3 + 4 + 1 + 2 + 3 + 4 + 1 + 2 + 3 + 4 + 1 + 2 + 3 + 4 +

F#|----------------------------------|
C#|----------------------------------|
G#|-000000000000000000000000000000000|
C#|----------------------------------|
    1 + 2 + 3 + 4 + 1 + 2 + 3 + 4 +

Bridge 6:14
F#|-4-------3---------------------------------------------------3---|
C#|-----------------3-------1---------------------------------------|
G#|---------------------------------------------------------1-------|
C#|---------------------------------6-------4-------3---------------|
    1 + 2 + 3 + 4 + 1 + 2 + 3 + 4 + 1 + 2 + 3 + 4 + 1 + 2 + 3 + 4 +

F#|-4-------3-----------------------------------------------|
C#|-----------------3-------1-------------------------------|
G#|---------------------------------------------------------|
C#|---------------------------------6-------4-------3-------|
    1 + 2 + 3 + 4 + 1 + 2 + 3 + 4 + 1 + 2 + 3 + 4 + 1 + 2 +

6:26
F#|-------------------------------------------------------------------|
C#|o-----------------------------------------------------------------o|
G#|o-----------------------------------------------------------------o|
C#|--1-----3-----3-/-9-----8---------6-----8-----4-----6-----3---0----|
     1 + 2 + 3 + 4 + 1 + 2 + 3 + 4 + 1 + 2 + 3 + 4 + 1 + 2 + 3 + 4 +

Pre Chorus 6:40
F#|-----------------------------------------------------------------|
C#|---------4---1---------------------------8-----------------------|
G#|-2---------------4-------------/-9-----------9---6-6-6-6-6-6-6-6-|
C#|-----------------------------------------------------------------|
    1 + 2 + 3 + 4 + 1 + 2 + 3 + 4 + 1 + 2 + 3 + 4 + 1 + 2 + 3 + 4 +

F#|-----------------------------------------------------------------|
C#|-----------------------------------------------------------------|
G#|-2---2-2---2-2---4-4-4-4---4-4-/-9---9-9---9-9---6-6-6-6---6-6---|
C#|-----------------------------------------------------------------|
    1 + 2 + 3 + 4 + 1 + 2 + 3 + 4 + 1 + 2 + 3 + 4 + 1 + 2 + 3 + 4 +

F#|-----------------------------------------------------------------|
C#|-----------------------------------------------------------------|
G#|-2-2---2---2---2-4-4---4---4---4-5-5---5---5---5-6-------4-------|
C#|-----------------------------------------------------------------|
    1 + 2 + 3 + 4 + 1 + 2 + 3 + 4 + 1 + 2 + 3 + 4 + 1 + 2 + 3 + 4 +

F#|-----------------------------------------------------------------|
C#|-----------------------------------------------------------------|
G#|-2---2---2---2---2---2---2---2---4---4---4-4-4-4-4---------------|
C#|-----------------------------------------------------------------|
    1 + 2 + 3 + 4 + 1 + 2 + 3 + 4 + 1 + 2 + 3 + 4 + 1 + 2 + 3 + 4 +

Chorus 7:07
F#|-----------------------------------------------------------------|
C#|-------------------------------------------------------------3---|
G#|-2---2---2---2---2---2---2---2---4---4---4---4-4-4---4-4-6-------|
C#|-----------------------------------------------------------------|
    1 + 2 + 3 + 4 + 1 + 2 + 3 + 4 + 1 + 2 + 3 + 4 + 1 + 2 + 3 + 4 +

F#|-------------------------5---------------------------------------|
C#|-4---4-4-4---6-4-3---3-3---3-4-3---------------------------------|
G#|---------------------------------6---6-6-6---6---4---4---4---4---|
C#|-----------------------------------------------------------------|
    1 + 2 + 3 + 4 + 1 + 2 + 3 + 4 + 1 + 2 + 3 + 4 + 1 + 2 + 3 + 4 +

F#|-----------------------------------------------------------------|
C#|---------------------------------------------------------------3-|
G#|-2---2---2---2---2---2---2---2---4---4---4---4-4-4---4-4-4-4-6---|
C#|-----------------------------------------------------------------|
    1 + 2 + 3 + 4 + 1 + 2 + 3 + 4 + 1 + 2 + 3 + 4 + 1 + 2 + 3 + 4 +

F#|-----------------------------------------------------------------|
C#|-4---4---4---4---3---3-3-3h4-3h4---------------------------------|
G#|---------------------------------6---6-6-6---6---4---4---4---4---|
C#|-----------------------------------------------------------------|
    1 + 2 + 3 + 4 + 1 + 2 + 3 + 4 + 1 + 2 + 3 + 4 + 1 + 2 + 3 + 4 +

F#|-----------------------------------------------------------------|
C#|-----------------------------------------------------------------|
G#|-2---2---2---2-2-2---2---2---2---4---4-4-4-4-4-4-4\--------------|
C#|-----------------------------------------------------------------|
    1 + 2 + 3 + 4 + 1 + 2 + 3 + 4 + 1 + 2 + 3 + 4 + 1 + 2 + 3 + 4 +
Tabbed By Dave Vucko

--------------------------------------------------------------------------------------

Dear God

G|-----------------------------------------------------------------|
D|-3---3-------3h5-------------------------------------------------|
A|-----------------3---3-------0-3h5---5---7-h-8---0-------------0-|
D|-------------------------------------------------------------5---|
   1 + 2 + 3 + 4 + 1 + 2 + 3 + 4 + 1 + 2 + 3 + 4 + 1 + 2 + 3 + 4 +

G|---------------------------------------------------------2-0---0-|
D|-------------------------------0-------------------0-2-3-----3---|
A|-1---1-1-3---1-------------0-1---3---3---3---3---3---------------|
D|-----------------3---3---3---------------------------------------|
   1 + 2 + 3 + 4 + 1 + 2 + 3 + 4 + 1 + 2 + 3 + 4 + 1 + 2 + 3 + 4 +

0:13
G|-----------------------------------------------------------------|
D|-3---3---3---3h5-------------------------------------------------|
A|-----------------3---3---3---0-3h5---5---7-h-8---0-------0-----0-|
D|-------------------------------------------------------------5---|
   1 + 2 + 3 + 4 + 1 + 2 + 3 + 4 + 1 + 2 + 3 + 4 + 1 + 2 + 3 + 4 +

G|-----------------------------------------------------------------|
D|-------------------------------0---------------------------------|
A|-1---1-1-3---1-------------0-1---3---3---3---3---3---3---5---3---|
D|-----------------3---3---3---------------------------------------|
   1 + 2 + 3 + 4 + 1 + 2 + 3 + 4 + 1 + 2 + 3 + 4 + 1 + 2 + 3 + 4 +

0:29
G|-----------------------------------------------------------------|
D|-3---3-------3h5-------------------------------------------------|
A|-----------------3---3-3-3---0-3h5---5---7-h-8---0-------0-0---0-|
D|-------------------------------------------------------------5---|
   1 + 2 + 3 + 4 + 1 + 2 + 3 + 4 + 1 + 2 + 3 + 4 + 1 + 2 + 3 + 4 +

G|-----------------------------------------------------------------|
D|-------------------------------0---------------------------0-2-5-|
A|-1-------3---1-------------0-1---3-------3---3---3---3---3-------|
D|-----------------3---3---3---------------------------------------|
   1 + 2 + 3 + 4 + 1 + 2 + 3 + 4 + 1 + 2 + 3 + 4 + 1 + 2 + 3 + 4 +

0:42
G|-----------------------------------------------------------------|
D|-3---3-------3h5-------------------------------------------------|
A|-----------------3-----------0-3h5---5---7-h-8---0-----------0---|
D|-----------------------------------------------------------------|
   1 + 2 + 3 + 4 + 1 + 2 + 3 + 4 + 1 + 2 + 3 + 4 + 1 + 2 + 3 + 4 +

G|-----------------------------------------------------------------|
D|-------------------------------0---------------------0---2---5---|
A|-1-------3---1-------------0-1---3---3---3---3---3---------------|
D|-----------------3---3---3---------------------------------------|
   1 + 2 + 3 + 4 + 1 + 2 + 3 + 4 + 1 + 2 + 3 + 4 + 1 + 2 + 3 + 4 +

0:55
G|-----------------------------------------------------------------|
D|-3---3---3---3---------------------------------------------------|
A|-------------------3-3---3---3---5---5---5---5-----3-3---3---3---|
D|-----------------------------------------------------------------|
   1 + 2 + 3 + 4 + 1 + 2 + 3 + 4 + 1 + 2 + 3 + 4 + 1 + 2 + 3 + 4 +

G|-----------------------------------------------------------------|
D|----------------------------------------------------/7---5-3-2-2-|
A|-1---1---1---1-------------------3---3---3---3---3---------------|
D|-----------------3---3---3---3-----------------------------------|
   1 + 2 + 3 + 4 + 1 + 2 + 3 + 4 + 1 + 2 + 3 + 4 + 1 + 2 + 3 + 4 +

G|-----------------------------------------------------------------|
D|-3---3---3---3---------------------------------------------------|
A|-------------------3-3---3---3---5---5---5---5-----3-3---3---3---|
D|-----------------------------------------------------------------|
   1 + 2 + 3 + 4 + 1 + 2 + 3 + 4 + 1 + 2 + 3 + 4 + 1 + 2 + 3 + 4 +

G|-----------------------------------------------------------------|
D|-----------------------------------------------------------------|
A|-1---1---1---1-------------------3---3---3---3-------3---3-------|
D|-----------------3---3---3---3-----------------------------------|
   1 + 2 + 3 + 4 + 1 + 2 + 3 + 4 + 1 + 2 + 3 + 4 + 1 + 2 + 3 + 4 +

1:21
G|-----------------------------------------------------------------|
D|-----------------------------------------------------------------|
A|-1---1-1-1---1---3---3-3-3---3---0---0-0-0---0---5---5-5-3---3-3-|
D|-----------------------------------------------------------------|
   1 + 2 + 3 + 4 + 1 + 2 + 3 + 4 + 1 + 2 + 3 + 4 + 1 + 2 + 3 + 4 +

G|-----3---------------------------|
D|-------3-------------------------|
A|-1-------3-1-1-0-1---------------|
D|---------------------------------|

1:30
G|-----------------------------------------------------------------|
D|-3---3-------3h5-------------------------------------------------|
A|-----------------3---3-3-3-3-0-3h5---5---7-h-8---0---0-0-0-----0-|
D|-------------------------------------------------------------5---|
   1 + 2 + 3 + 4 + 1 + 2 + 3 + 4 + 1 + 2 + 3 + 4 + 1 + 2 + 3 + 4 +

G|---------------------------------------------------------2-0---0-|
D|-------------------------------0-------------------0-2-3-----3---|
A|-1---1-1-3---1-------------0-1---3---3-3-3---3-3-3---------------|
D|-----------------3---3---3---------------------------------------|
   1 + 2 + 3 + 4 + 1 + 2 + 3 + 4 + 1 + 2 + 3 + 4 + 1 + 2 + 3 + 4 +

1:43
G|-----------------------------------------------------------------|
D|-3---3-------3h5-------------------------------------------------|
A|-----------------3---3-3-3---0-3h5---5---7-h-8---0-------0-----0-|
D|-------------------------------------------------------------5---|
   1 + 2 + 3 + 4 + 1 + 2 + 3 + 4 + 1 + 2 + 3 + 4 + 1 + 2 + 3 + 4 +

G|-----------------------------------------------------------------|
D|-------------------------------0---------------------0-0-2-2-5-5-|
A|-1---1-1-3---1-------------0-1---3---3---3---3---3-3-------------|
D|-----------------3---3---3---------------------------------------|
   1 + 2 + 3 + 4 + 1 + 2 + 3 + 4 + 1 + 2 + 3 + 4 + 1 + 2 + 3 + 4 +

1:56
G|-----------------------------------------------------------------|
D|-3---3---3---3---------------------------------------------------|
A|-------------------3-3---3---3---5---5---5---5-----3-3---3---3---|
D|-----------------------------------------------------------------|
   1 + 2 + 3 + 4 + 1 + 2 + 3 + 4 + 1 + 2 + 3 + 4 + 1 + 2 + 3 + 4 +

G|-----------------------------------------------------------------|
D|----------------------------------------------------/7---5-3-2-2-|
A|-1---1---1---1-------------------3---3---3---3---3---------------|
D|-------------------3-3---3---3-----------------------------------|
   1 + 2 + 3 + 4 + 1 + 2 + 3 + 4 + 1 + 2 + 3 + 4 + 1 + 2 + 3 + 4 +

2:09
G|-----------------------------------------------------------------|
D|-3---------------------------------------------------------------|
A|-------------------3-3---3---3-------------------3---3---3---3---|
D|---------------------------------0-------0---0-------------------|
   1 + 2 + 3 + 4 + 1 + 2 + 3 + 4 + 1 + 2 + 3 + 4 + 1 + 2 + 3 + 4 +

G|-----------------------------------------------------------------|
D|-----------------------------------------------------------------|
A|-1-------1---1-------------------3---------3-3-3---3-3-3-3-3-3-2-|
D|-----------------3-------3---------------------------------------|
   1 + 2 + 3 + 4 + 1 + 2 + 3 + 4 + 1 + 2 + 3 + 4 + 1 + 2 + 3 + 4 +

2:22
G|-----------------------------------------------------------------|
D|-----------------------------------------------------------------|
A|-1---1-1-1---1---3---3-3-3---3---0---0-0-0---0---5---5-5-3---3-3-|
D|-----------------------------------------------------------------|
   1 + 2 + 3 + 4 + 1 + 2 + 3 + 4 + 1 + 2 + 3 + 4 + 1 + 2 + 3 + 4 +

G|-----------------------------------------------------------------|
D|-----------------------------------------------------------------|
A|-1---------------1-----------------------------------------------|
D|---------------------------------3-------------------------------|
   1 + 2 + 3 + 4 + 1 + 2 + 3 + 4 + 1 + 2 + 3 + 4 + 1 + 2 + 3 + 4 +

2:34
G|-----------------------------------------------------------------|
D|---------------------------------------------------------5-3-----|
A|-5-5---------5/7-4-4---------4-\-1-1-----3-1-0-------------------|
D|-----------------------------------------------5-3-3-3-3-----3-/-|
   1 + 2 + 3 + 4 + 1 + 2 + 3 + 4 + 1 + 2 + 3 + 4 + 1 + 2 + 3 + 4 +

2:40
G|-------------------------------------------------------------------|
D|-----------------------------------------------------------5-3-----|
A|---------------5/7-4-4-----4-5-4-\-1-1-------1-1-3-----------------|
D|-12-12---------------------------------------------3-3-3-3-----3-/-|
   1  +  2 + 3 + 4 + 1 + 2 + 3 + 4 + 1 + 2 + 3 + 4 + 1 + 2 + 3 + 4 +

2:48
G|-------------------------------------------------------------------|
D|-----------------------------------------------------------5-3-----|
A|---------------5/7-4-4---------4-\-1-1-----3-1-0-------------------|
D|-12-12-------------------------------------------5-3-3-3-3-----3-/-|
   1  +  2 + 3 + 4 + 1 + 2 + 3 + 4 + 1 + 2 + 3 + 4 + 1 + 2 + 3 + 4 +

2:55
G|-------------------------------------------------------------------|
D|-----------------------------------------------------------5-3-----|
A|-5-5-5-5-5-5-5-5-7-4-4-4-4-5-4-3---1-1-1-1-1-1-1-3-----------------|
D|---------------------------------------------------3-3-3-3-----3-/-|
   1  +  2 + 3 + 4 + 1 + 2 + 3 + 4 + 1 + 2 + 3 + 4 + 1 + 2 + 3 + 4 +

G|-----------------------------------------------------------------|
D|-----------------------------------------------------------------|
A|---------------------------------3-3-3-3-3-3-3-3-3---------------|
D|-5-5-5-5-5-5-5-5-5-5-5-5-5-5-5-5---------------------------------|
   1 + 2 + 3 + 4 + 1 + 2 + 3 + 4 + 1 + 2 + 3 + 4 + 1 + 2 + 3 + 4 +

Rest

3:22
G|-----------------------------------------------------------------|
D|-3---3---3---3---------------------------------------------------|
A|-------------------3-3---3---3---5---5---5---5-----3-3---3---3---|
D|-----------------------------------------------------------------|
   1 + 2 + 3 + 4 + 1 + 2 + 3 + 4 + 1 + 2 + 3 + 4 + 1 + 2 + 3 + 4 +

G|-----------------------------------------------------------------|
D|----------------------------------------------------/7---5-3-2-2-|
A|-1---1-1-1---1-------------------3---------------3---------------|
D|---------------5-3-------3---3-----------------------------------|
   1 + 2 + 3 + 4 + 1 + 2 + 3 + 4 + 1 + 2 + 3 + 4 + 1 + 2 + 3 + 4 +

G|-----------------------------------------------------------------|
D|-3---3---3---3---------------------------------------------------|
A|-------------------3-3---3---3---5---5---5---5---3---3-----------|
D|-----------------------------------------------------------------|
   1 + 2 + 3 + 4 + 1 + 2 + 3 + 4 + 1 + 2 + 3 + 4 + 1 + 2 + 3 + 4 +

G|-----------------------------------------------------------------|
D|-----------------------------------------------------------------|
A|-1-------1---1-------------------3---3-----------3---3---3---3---|
D|-----------------3---3---3---------------------------------------|
   1 + 2 + 3 + 4 + 1 + 2 + 3 + 4 + 1 + 2 + 3 + 4 + 1 + 2 + 3 + 4 +

3:46
G|-----------------------------------------------------------------|
D|-----------------------------------------------------------------|
A|-1---1-1-1---1---3-------3---3---0---0-0-0---0---5---5-5-3---3-3-|
D|-----------------------------------------------------------------|
   1 + 2 + 3 + 4 + 1 + 2 + 3 + 4 + 1 + 2 + 3 + 4 + 1 + 2 + 3 + 4 +

G|---------------------------------|
D|---------------------------------|
A|-1---------------1---------------|
D|---------------------------------|
   1 + 2 + 3 + 4 + 1 + 2 + 3 + 4 +

3:56
G|-----------------------------------------------------------------|
D|-------------------------------------------------------2-5---2-3-|
A|-5-5-----5-5-----4-4-----4-4-----1-1-1---1-1-1-------------3-----|
D|-------------------------------------------------3-3-3-----------|
   1 + 2 + 3 + 4 + 1 + 2 + 3 + 4 + 1 + 2 + 3 + 4 + 1 + 2 + 3 + 4 +

G|-----------------------------------------------------------------|
D|-------------------------------------------------3-3-3-2-5---2-3-|
A|-5-5-----5-5-----4-4-----4-4-----1-1-1---1-1-1-------------3-----|
D|-----------------------------------------------------------------|
   1 + 2 + 3 + 4 + 1 + 2 + 3 + 4 + 1 + 2 + 3 + 4 + 1 + 2 + 3 + 4 +

4:09
G|-----------------------------------------------------------------|
D|-------------------------------------------------------2-5---2-3-|
A|-5-5-5---5-5-5---4-4-4---4-4-4---1-1-1---1-1-1-------------3-----|
D|-------------------------------------------------3-3-3-----------|
   1 + 2 + 3 + 4 + 1 + 2 + 3 + 4 + 1 + 2 + 3 + 4 + 1 + 2 + 3 + 4 +

G|-----------------------------------------------------------------|
D|-------------------------------------------------3-3-3-2-5---2-3-|
A|-5-5-5---5-5-5---4-4-4---4-4-4---1-1-1---1-1-1-------------3-----|
D|-----------------------------------------------------------------|
   1 + 2 + 3 + 4 + 1 + 2 + 3 + 4 + 1 + 2 + 3 + 4 + 1 + 2 + 3 + 4 +

4:24
G|-----------------------------------------------------------------|
D|-------------------------------------------------------2-5---2-3-|
A|-5-5-5-5-5-5-5-5-4-4-4-4-4-4-4-4-1-1-1---1-1-1-------------3-----|
D|-------------------------------------------------3-3-3-----------|
   1 + 2 + 3 + 4 + 1 + 2 + 3 + 4 + 1 + 2 + 3 + 4 + 1 + 2 + 3 + 4 +

G|-----------------------------------------------------------------|
D|-------------------------------------------------3-3-3-2-5---2-3-|
A|-5-5-5-5-5-5-5-5-4-4-4-4-4-4-4-4-1-1-1---1-1-1-------------3-----|
D|-----------------------------------------------------------------|
   1 + 2 + 3 + 4 + 1 + 2 + 3 + 4 + 1 + 2 + 3 + 4 + 1 + 2 + 3 + 4 +

4:38
G|-----------------------------------------------------------------|
D|-------------------------------------------------------2-5---2-3-|
A|-5-5---5-5-5---5-4-4---4-4-4---4-1-1-1---1-1-1-------------3-----|
D|-------------------------------------------------3-3-3-----------|
   1 + 2 + 3 + 4 + 1 + 2 + 3 + 4 + 1 + 2 + 3 + 4 + 1 + 2 + 3 + 4 +

G|-----------------------------------------------------------------|
D|-------------------------------------------------3-3-3-2-5---2-3-|
A|-5-5-5-5-5-5-5-5-4-4-4-4-4-4-4-4-1-1-1---1-1-1-------------3-----|
D|-----------------------------------------------------------------|
   1 + 2 + 3 + 4 + 1 + 2 + 3 + 4 + 1 + 2 + 3 + 4 + 1 + 2 + 3 + 4 +

4:54
G|-----------------------------------------------------------------|
D|-------------------------------------------------3-3-3-2-5---2-3-|
A|-5-5---5-5-5---5-4-4---4-4-4---4-1-1-1---1-1-1-------------3-----|
D|-----------------------------------------------------------------|
   1 + 2 + 3 + 4 + 1 + 2 + 3 + 4 + 1 + 2 + 3 + 4 + 1 + 2 + 3 + 4 +

G|-----------------------------------------------------------------|
D|-------------------------------------------------------2-5---2-3-|
A|-5-5-5-5-5-5-5-5-4-4-4-4-4-4-4-4-1-1-1---1-1-1-------------3-----|
D|-------------------------------------------------3-3-3-----------|
   1 + 2 + 3 + 4 + 1 + 2 + 3 + 4 + 1 + 2 + 3 + 4 + 1 + 2 + 3 + 4 +

5:08
G|-----------------------------------------------------------------|
D|-------------------------------------------------------2-5---2-3-|
A|-5-5-5---5-5-5---4-4-4---4-4-4---1-1-1---1-1-1-------------3-----|
D|-------------------------------------------------3-3-3-----------|
   1 + 2 + 3 + 4 + 1 + 2 + 3 + 4 + 1 + 2 + 3 + 4 + 1 + 2 + 3 + 4 +

G|-----------------------------------------------------------------|
D|-------------------------------------------------3-3-3-2-5---2-3-|
A|-5-5-5---5-5-5---4-4-4---4-4-4---1-1-1---1-1-1-------------3-----|
D|-----------------------------------------------------------------|
   1 + 2 + 3 + 4 + 1 + 2 + 3 + 4 + 1 + 2 + 3 + 4 + 1 + 2 + 3 + 4 +

5:24
G|-----------------------------------------------------------------|
D|-------------------------------------------------3-3-3-2-5---2-3-|
A|-5-5-5-5-5-5-5-5-4-4-4-4-4-4-4-4-1-1-1-1-1-1-1-1-----------3-----|
D|-----------------------------------------------------------------|
   1 + 2 + 3 + 4 + 1 + 2 + 3 + 4 + 1 + 2 + 3 + 4 + 1 + 2 + 3 + 4 +

G|-----------------------------------------------------------------|
D|-------------------------------------------------------2-5---2-3-|
A|-5-5-5-5-5-5-5-5-4-4-4-4-4-4-4-4-1-1-1-1-1-1-1-1-----------3-----|
D|-------------------------------------------------3-3-3-----------|
   1 + 2 + 3 + 4 + 1 + 2 + 3 + 4 + 1 + 2 + 3 + 4 + 1 + 2 + 3 + 4 +

5:40
G|-----------------------------------------------------------------|
D|-------------------------------------------------3-3-3-2-5---2-3-|
A|-5-5-5---5-5-5-5-4-4-4---4-4-4-4-1-1-1-1-1-1-1-------------3-----|
D|-----------------------------------------------------------------|
   1 + 2 + 3 + 4 + 1 + 2 + 3 + 4 + 1 + 2 + 3 + 4 + 1 + 2 + 3 + 4 +

G|-----------------------------------------------------------------|
D|-------------------------------------------------------2-5---2-3-|
A|-5-5-5---5-5-5-5-4-4-4---4-4-4-4-1-1-1-1-1-1-1-------------3-----|
D|-------------------------------------------------3-3-3-----------|
   1 + 2 + 3 + 4 + 1 + 2 + 3 + 4 + 1 + 2 + 3 + 4 + 1 + 2 + 3 + 4 +

5:55
G|-----------------------------------------------------------------|
D|-------------------------------------------------------2-5---2-3-|
A|-5-5-5---5-5-5-5-4-4-4---4-4-4-4-1-1-1---1-1-1-------------3-----|
D|-------------------------------------------------3-3-3-----------|
   1 + 2 + 3 + 4 + 1 + 2 + 3 + 4 + 1 + 2 + 3 + 4 + 1 + 2 + 3 + 4 +

G|-----------------------------------------------------------------|
D|-------------------------------------------------3-3-3-2-5---2-3-|
A|-5-5-5---5-5-5-5-4-4-4---4-4-4-4-1-1-1---1-1-1-------------3-----|
D|-----------------------------------------------------------------|
   1 + 2 + 3 + 4 + 1 + 2 + 3 + 4 + 1 + 2 + 3 + 4 + 1 + 2 + 3 + 4 +
Tabbed by Dave Vucko
comments
We did not receive enough feedback on this tab! Please rate:
print report bad tab
1 2 3 4 5
I want to post or [tab]
guest
You may want to rate the tab now too:
select rating
Please do not post tabs as comments. Select "correction" instead!