Oops, an error
Loading. Please wait.

Avenged Sevenfold Tab

ver1
ver1

Album

More versions @911Tabs.com
156,659 views 150 this week
21 commentsread comments
1 2 3 4 5
excellent!
x 23
add to favorites launch autoscroll
font size
0
reset
Autoscroll
+/-
esc
set tempo
stop
Contributor
WARNING: You are trying to view
                                    content from Ultimate-Guitar.com
                                    in an unauthorized application,
                                    which is prohibited.

                                    Please use an official Ultimate
                                    Guitar Tabs application for iPhone,
                                    iPad or Android to access legitimate
                                    chords, guitar, bass, and drum tabs
                                    from Ultimate-Guitar.com database.

                                    Type "ultimate guitar tabs" in Apple
                                    App Store's or Android Market's
                                    search to find the application.
---------------------------------------
          Avenged Sevenfold
---------------------------------------

The Full, New, Self titled album is finally completly tabbed!
This is monstrous in size so I suggest you get a new ink cartridge before
attempting to print this.

Artist: Avenged Sevenfold
Album: Self Titled
Track Number: 10

In order:

 1) Critical Acclaim         - Seth Shadows
 2) Almost Easy              - Seth Shadows
 3) Scream                   - Seth Shadows
 4) Afterlife                - Seth Shadows
 5) Gunslinger               - Seth Shadows
 6) Unbound (The Wild Ride)  - Rockford_rocks
 7) Brompton Cocktail        - Seth Shadows
 8) Lost                     - Seth Shadows
 9) A Little Peice Of Heaven - adammn6661
10) Dear God                 - Seth Shadows

All Music Recorded by: Avenged Sevenfold
Avenged Sevenfold Is: Matthew Sanders, Brian Haner Jr., Zachary Baker, James
Sullivan and Johnny Gera
Produced by Avenged Sevenfold & Warners Bros.

To See the tablature legend, See bottom of the tab.
Thank you to Rockford_rocks and adammn6661 for contributing.
If you have a problem with your tab being on here, comment or pm me and I'll
remove it asap.

UPDATES:
Added unbound solo.
Fixed some slides in Scream.
Almost Easy in Drop C#

To be Updated:
Critical Acclaim needs the whole framework redone.
Finish A Little Piece Of Heaven.

Anything else, Leave a comment.

---------------------------------------
          Critical Acclaim
---------------------------------------

Transcribed by Seth Shadows {F.u.c.kallyourfalsebeauty@hotmail.com}

Gtr I (D A D G B E) - 'Rhythm Left'
Gtr II (D A D G B E) - 'Rhythm Right'
Gtr III (D A D G B E) - 'Lead Left'
Gtr IV (D A D G B E) - 'Lead Right'
Gtr V (D A D G B E) - 'Lead Neutral'
Gtr VI (D A D G B E) - 'Organ'
Gtr VII (D A D G B E) - 'Lead Neutral Two'

 Intro
  Q=92
 4/4
  Gtr VI
   W           Q.     S    S    H        H     H       W
|-----------|-------------------------|-------------|-------|
|-15--------|-------------------------|-------------|-15----|
|-14--------|-12----------------------|-10----12----|-12----|
|--0--------|-10-----10----8---10-----|--8----10----|--0----|
|--0--------|-10----(10)-(10)-(10)----|--8----10----|--0----|
|--0--------|-10----(10)-(10)-(10)----|--8----10----|--0----|
   W           W                         H     H       W


   +W            Q.     S    S    H        H     H       W
|-------------|-------------------------|-------------|-------||
|-(15)--------|-------------------------|-------------|-15----||
|-(12)--------|-12----------------------|-10----12----|-12----||
|--(0)--------|-10-----10----8---10-----|--8----10----|--0----||
|--(0)--------|-10----(10)-(10)-(10)----|--8----10----|--0----||
|--(0)--------|-10----(10)-(10)-(10)----|--8----10----|--0----||
   +W            W                         H     H


 Intro Harmony
  Q=132
  Gtr V
                                   ~~
    Q.    Q.    Q     +E     Q.    H
|-/13--------------|-------/13----12----|
|--------15--------|--------------------|
|--------------14--|-(14)\--------------|
|------------------|--------------------|
|------------------|--------------------|
|------------------|--------------------|
|
| Gtrs I, II
|   W                 +H           H
|------------------|--------------------|
|------------------|--------------------|
|------------------|---------------5----|
|---0--------------|--(0)----------5----|
|---0--------------|--(0)----------3----|
|---0--------------|--(0)---------------|
|
| Gtr VI
|  +W                 +H           H
|------------------|--------------------|
|-(15)-------------|-(15)---------------|
|-(12)-------------|-(12)---------12----|
|--(0)-------------|--(0)---------10----|
|--(0)-------------|--(0)---------10----|
|--(0)-------------|--(0)---------10----|
   +W                 +H           H


                                  ~~~~
    |4:2|  |--3--|
    Q   Q  Q  Q  Q  E.  +S        H      +Q      Q
|-/15--17p15------------------|-/13-----(13)\--/12--|
|------------18p17------------|---------------------|
|------------------17--(17)\--|---------------------|
|-----------------------------|---------------------|
|-----------------------------|---------------------|
|-----------------------------|---------------------|
|
|  +W                             H.             Q
|-----------------------------|---------------------|
|-----------------------------|---------------------|
|--(5)------------------------|---3--------------5--|
|--(5)------------------------|---3--------------5--|
|--(3)------------------------|---1--------------3--|
|-----------------------------|---------------------|
|
|   >
|  +W                            +W
|-----------------------------|---------------------|
|-----------------------------|---------------------|
|-(12)------------------------|-(12)----------------|
|-(10)------------------------|-(10)----------------|
|-(10)------------------------|-(10)----------------|
|-(10)------------------------|-(10)----------------|
   +W                            +W


                ~~~~~~~~~~~~
   +Q.    E  E  Q.      +W
|-(12)---10h12p10----:-(10)---------|
|--------------------:--------------|
|--------------------:--------------|
|--------------------:--------------|
|--------------------:--------------|
|--------------------:--------------|
|
|  +H        H          +H   +H
|--------------------:--------------|
|--------------------:--------------|
|--(5)-------7-------:--(7)--(7)----|
|--(5)-------7-------:--(7)--(7)----|
|--(3)-------5-------:--(5)--(5)----|
|------------0-------:--(0)--(0)----|


 4/4
  Gtr III
                                   ~~~
    Q.    Q.    Q     +E     Q.    H
|-/13--------------|-------/13----12----------|
|--------15--------|--------------------------|
|--------------14--|-(14)\--------------------|
|------------------|--------------------------|
|------------------|--------------------------|
|------------------|--------------------------|
|
| Gtr IV
|                                  ~~~
|   Q.    Q.    Q     +E     Q.    Q.    +E
|-/17--------------|-------/22----20----(20)\-|
|--------18--------|--------------------------|
|--------------19--|-(19)\--------------------|
|------------------|--------------------------|
|------------------|--------------------------|
|------------------|--------------------------|
|
| Gtrs I, II, VI
|   W                 +H           H
|------------------|--------------------------|
|------------------|--------------------------|
|------------------|---------------5----------|
|---0--------------|--(0)----------5----------|
|---0--------------|--(0)----------3----------|
|---0--------------|--(0)---------------------|


                                  ~~~~~~
    |4:2|  |--3--|
    Q   Q  Q  Q  Q  E.  +S        H                +Q      Q
|-/15--17p15------------------|-/13---------------(13)\--/12---|
|------------18p17------------|--------------------------------|
|------------------17--(17)\--|--------------------------------|
|-----------------------------|--------------------------------|
|-----------------------------|--------------------------------|
|-----------------------------|--------------------------------|
|
|                                 ~~~~~~~~~~~~~~~
|   |4:2|  |--3--|
|   Q   Q  Q  Q  Q  E.  +S        Q      +H.
|-----------------------------|-/15b17--(15)pb17---------------|
|-/17h=18-17p15---------------|--------------------------------|
|---------------17p14--(14)\--|--------------------------------|
|-----------------------------|--------------------------------|
|-----------------------------|--------------------------------|
|-----------------------------|--------------------------------|
|
|  +W                             H.                       Q
|-----------------------------|--------------------------------|
|-----------------------------|--------------------------------|
|--(5)------------------------|---3------------------------5---|
|--(5)------------------------|---3------------------------5---|
|--(3)------------------------|---1------------------------3---|
|-----------------------------|--------------------------------|


    ~~~~~~~~        ~~~~~~~~~~~~~~~
   +Q.        E  E  Q.         +W
|-(12)-------10h12p10-------:-(10)----||
|---------------------------:---------||
|---------------------------:---------||
|---------------------------:---------||
|---------------------------:---------||
|---------------------------:---------||
|
|   ~~~~~~~~        ~~~~~~~~~~~~~~~
|  +Q.        E  E  Q.         +W
|-(15)pb17---13h15p13-------:-(13)----||
|---------------------------:---------||
|---------------------------:---------||
|---------------------------:---------||
|---------------------------:---------||
|---------------------------:---------||
|
|  +H            Q     +Q      +W
|---------------------------:---------||
|---------------------------:---------||
|--(5)----------------------:---------||
|--(5)-----------0-----(0)--:--(0)----||
|--(3)-----------0-----(0)--:--(0)----||
|----------------0-----(0)--:--(0)----||


   PreVerse
   3/4
    Gtr V
     Q           +Q            +Q            6x
||-------------------------------------------||
||o-18----------(18)----------(18)----------o||
||--20b22r======(20)b22r======(20)b23r=======||
||-------------------------------------------||
||o-----------------------------------------o||
||-------------------------------------------||
|    Gtr VII
|    Q           +Q            +Q            6x
||--16----------(16)----------(16)-----------||
||o-19b21=======(21)==========(21)==========o||
||-------------------------------------------||
||-------------------------------------------||
||o-----------------------------------------o||
||-------------------------------------------||
|   Gtrs I, II
|    PM----------------------------------------
|    S    S S S   S     S S S   S     S S S  6x
||-------------------------------------------||
||o-----------------------------------------o||
||-------------------------------------------||
||-------------------------------------------||
||o-----------------------------------------o||
||---0----0-0-0---0-----0-0-0---0-----0-0-0--||


                           ~~~~~
   Q           Q           Q
|-------------16----------16----------|
|-18----------19b21-------19b21-------|
|-20b22-------------------------------|
|-------------------------------------|
|-------------------------------------|
|-------------------------------------|

|-16----------18---------(18)---------|
|-19b21-------22b25======(22)---------|
|-------------------------------------|
|-------------------------------------|
|-------------------------------------|
|-------------------------------------|
|
|-----------------------------------|
|  S    S S S  S    S S S  S    S S S
|-------------------------------------|
|-------------------------------------|
|-------------------------------------|
|-------------------------------------|
|-------------------------------------|
|--0----0-0-0--0----0-0-0--0----0-0-0-|


   E        E     E      E  E    E
|-16-------16S===18-----18-18---18\----|
|-19b21====19rS==22b25==22-22---22r\---|
|--------------------------------------|
|--------------------------------------|
|--------------------------------------|
|--------------------------------------|
|  +W                               a
|-(18)------------------------------x--|
|-(22)------------------------------x--|
|--------------------------------------|
|--------------------------------------|
|--------------------------------------|
|--------------------------------------|
|
|  PM--------------------------------|
|  S     S  S  S  E      E  S S  S   S
|--------------------------------------|
|--------------------------------------|
|--------------------------------------|
|--------------------------------------|
|--------------------------------------|
|--0-----0--0--0--0------0--0-0--0---0-|


    Gtr I
    PM------------|            PM------------|
    S S S S S S S S  Q      6x S S S S S S S S  Q        +H.
||--------------------------||------------------------:---------||
||o-----------------18-----o||-----------------18-----:-(18)----||
||------------------20b22---||-----------------20b22--:-(20)----||
||--------------------------||------------------------:---------||
||o------------------------o||------------------------:---------||
||--0-0-0-0-0-0-0-0---------||-0-0-0-0-0-0-0-0--------:---------||
|
|   Gtr II
|   PM------------|            PM------------|
|   S S S S S S S S  Q      6x S S S S S S S S  Q        +H.
||------------------16------||-----------------18-----:-(18)----||
||o-----------------19b21--o||-----------------22b25--:-(22)----||
||--------------------------||------------------------:---------||
||--------------------------||------------------------:---------||
||o------------------------o||------------------------:---------||
||--0-0-0-0-0-0-0-0---------||-0-0-0-0-0-0-0-0--------:---------||


   Verse
   4/4
    Gtrs I, II
         PM|                PM|
    Q  E S S E E E E   Q.   S S q  Q   4x
||-------------------|-----------------||
||o------------------|----------------o||
||-------------------|-----------------||
||--0----------------|-----------------||
||o-0--------1p0---0-|----------1--1--o||
||--0----0-0-1p0---0-|------0-0-1--1---||


           PM|           PM----|
      Q  E S S E E E E   E E E E q  Q   3x
|-||-------------------|----------------||
|-||o------------------|---------------o||
|-||-------------------|----------------||
|-||--0----------------|----------------||
|-||o-0--------1p0---0-|---------1--1--o||
|-||--0----0-0-1p0---0-|-0-0-0-0-1--1---||


 Pre Chorus
  Gtrs I, II
            PM|                PM------|      PM
   Q     E  S S  E  E  E  E    E  E  E  E  E  E  E  E
|---------------------------|-------------------------|
|---------------------------|-------------------------|
|---------------------------|-------------------------|
|--0------------------------|-------------------------|
|--0-------------1p=0-----0-|--------------1-----1--1-|
|--0--------0-0--1p=0-----0-|--0--0--0--0--1--0--1--1-|
|
| Gtr III
|  E  E  E  E    E  E  E  E    E  E  E  E  E  E  E  E
|-13------------13----------|-------------------------|
|----15------------15-------|-------------------------|
|-------14------------14----|-------------------------|
|----------15------------15-|-15----14-------------15-|
|---------------------------|----17----16p13-16-17----|
|---------------------------|-------------------------|
|
| Gtr IV
|  E  E  E  E    E  E  E  E    E  E  E  E  E  E  E  E
|-17------------17----------|-------------------------|
|----18------------18-------|-------------------------|
|-------19------------19----|-------------------------|
|----------19------------19-|-19----18-------------19-|
|---------------------------|----20----19p17-19-20----|
|---------------------------|-------------------------|


 Chorus
  Gtrs I, II
   Q     Q  H       Q   Q  H       Q  Q  H       Q   Q  H
|----------------|---------------|------------|---------------|
|----------------|---------------|------------|---------------|
|----------------|---------------|------------|---------------|
|--0-----0--0----|--0---0--0-----|-2--2--2----|--2---2--2-----|
|--0-----0--0----|--0---0--0-----|-3--3--3----|--3---3--3-----|
|--0-----0--0----|--0---0--0-----|-2--2--2----|--2---2--2-----|
|
| Gtr V
|  W               +H.        Q    W            +H.        Q
|----------------|---------------|------------|---------------|
|----------------|---------------|------------|---------------|
|--7-------------|-(7)--------7S=|=9----------|-(9)--------9--|
|--x-------------|-(x)--------x--|-x----------|-(x)--------x--|
|--5-------------|-(5)--------5S=|=7----------|-(7)--------7--|
|----------------|---------------|------------|---------------|
|
| Gtr III
|  W                W              W             W
|----------------|---------------|------------|---------------|
|----------------|---------------|------------|---------------|
|-21b22----------|---------------|------------|---------------|
|----------------|---------------|------------|---------------|
|----------------|---------------|------------|---------------|
|----------------|---------------|------------|---------------|
|
| Gtr IV
|  W                W              W             W
|-20b22----------|---------------|------------|---------------|
|----------------|---------------|------------|---------------|
|----------------|---------------|------------|---------------|
|----------------|---------------|------------|---------------|
|----------------|---------------|------------|---------------|
|----------------|---------------|------------|---------------|

   W

  Gtrs I, II
  Q  Q  H       Q   Q  Q.    +E    Q  Q  H      Q   Q   H
|------------|-------------------|------------|----------------|
|------------|-------------------|------------|----------------|
|-3--3--3----|--3---3--3-----(3)S|=2--2--2----|-2---2---2------|
|-3--3--3----|--3---3--3-----(3)-|-3--3--3----|-3---3---3------|
|-1--1--1----|--1---1--1-----(1)-|-0--0--0----|-0---0---0------|
|------------|-------------------|------------|----------------|
|
| Gtr V
| W            +H.         Q       W            Q   Q   Q   Q
|------------|-------------------|------------|----------------|
|------------|-------------------|------------|----------------|
|-7----------|-(7)---------7S====|=6----------|-6---7---9--12--|
|-x----------|-(x)---------x-----|-x----------|-x---x---x---x--|
|-5----------|-(5)---------5S====|=4----------|-4---5---7--10--|
|------------|-------------------|------------|----------------|
|
|  Gtr III
| W             W                  W            Q   Q   Q   Q
|------------|-------------------|------------|----------------|
|------------|-------------------|------------|----------------|
|------------|-------------------|------------|-9--10--12--15--|
|------------|-------------------|------------|-x---x---x---x--|
|------------|-------------------|------------|-7---8--10--13--|
|------------|-------------------|------------|----------------|


                             1.,2.,3.        4.
    Gtrs I, II
           PM------------|                          PM----|
    E E Q  S S S S S S S S   E E H.       4x E E Q  S S S S E E   W
||-------------------------|--------------||--------------------|------||
||o------------------------|-------------o||--------------------|------||
||-------------------------|--------------||--------------------|------||
||-------------------------|--------------||----------------1-3-|-1----||
||o-1p0--------------------|-3p0---------o||-3p0------------1-3-|-1----||
||--1p0----0-0-0-0-0-0-0-0-|-3p0----------||-3p0----0-0-0-0-1-3-|-1----||
|
|  Gtr V                /\
|    E   +Q  +Q  +E +Q /  \  +W               W                   W
||--------------------/=3=-\--------------||--------------------|------||
||o-<3>-(3)-(3)~(3)-(3)-----\(3)--------/o||--------------------|------||
||-----\----/-----\.5/----------\=4.5=-/--||--------------------|------||
||------\.7/-------\/------------\----/---||--------------------|------||
||o------\/-----------------------\--/---o||--------------------|------||
||---------------------------------\/-----||--------------------|------||
     D#

   PreVerse
   3/4
    Gtr I
    PM------------|            PM------------|
    S S S S S S S S  Q         S S S S S S S S  Q        +H.
||--------------------------||------------------------:---------||
||o-----------------18-----o||-----------------18-----:-(18)----||
||------------------20b22---||-----------------20b22--:-(20)----||
||--------------------------||------------------------:---------||
||o------------------------o||------------------------:---------||
||--0-0-0-0-0-0-0-0---------||-0-0-0-0-0-0-0-0--------:---------||
|
|   Gtr II
|   PM------------|            PM------------|
|   S S S S S S S S  Q         S S S S S S S S  Q        +H.
||------------------16------||-----------------18-----:-(18)----||
||o-----------------19b21--o||-----------------22b25--:-(22)----||
||--------------------------||------------------------:---------||
||--------------------------||------------------------:---------||
||o------------------------o||------------------------:---------||
||--0-0-0-0-0-0-0-0---------||-0-0-0-0-0-0-0-0--------:---------||


   Verse
   4/4
    Gtrs I, II
         PM|                PM|
    Q  E S S E E E E   Q.   S S q  Q   4x
||-------------------|-----------------||
||o------------------|----------------o||
||-------------------|-----------------||
||--0----------------|-----------------||
||o-0--------1p0---0-|----------1--1--o||
||--0----0-0-1p0---0-|------0-0-1--1---||


           PM|           PM----|
      Q  E S S E E E E   E E E E q  Q   3x
||-------------------|----------------||
||o------------------|---------------o||
||-------------------|----------------||
||--0----------------|----------------||
||o-0--------1p0---0-|---------1--1--o||
||--0----0-0-1p0---0-|-0-0-0-0-1--1---||


 Pre Chorus
  Gtrs I, II
            PM|                PM------|      PM
   Q     E  S S  E  E  E  E    E  E  E  E  E  E  E  E
|---------------------------|-------------------------|
|---------------------------|-------------------------|
|---------------------------|-------------------------|
|--0------------------------|-------------------------|
|--0-------------1p=0-----0-|--------------1-----1--1-|
|--0--------0-0--1p=0-----0-|--0--0--0--0--1--0--1--1-|
|
| Gtr III
|  E  E  E  E    E  E  E  E    E  E  E  E  E  E  E  E
|-13------------13----------|-------------------------|
|----15------------15-------|-------------------------|
|-------14------------14----|-------------------------|
|----------15------------15-|-15----14-------------15-|
|---------------------------|----17----16p13-16-17----|
|---------------------------|-------------------------|
|
| Gtr IV
|  E  E  E  E    E  E  E  E    E  E  E  E  E  E  E  E
|-17------------17----------|-------------------------|
|----18------------18-------|-------------------------|
|-------19------------19----|-------------------------|
|----------19------------19-|-19----18-------------19-|
|---------------------------|----20----19p17-19-20----|
|---------------------------|-------------------------|


 Chorus
  Gtrs I, II
   Q     Q  H       Q   Q  H       Q  Q  H       Q   Q  H
|----------------|---------------|------------|---------------|
|----------------|---------------|------------|---------------|
|----------------|---------------|------------|---------------|
|--0-----0--0----|--0---0--0-----|-2--2--2----|--2---2--2-----|
|--0-----0--0----|--0---0--0-----|-3--3--3----|--3---3--3-----|
|--0-----0--0----|--0---0--0-----|-2--2--2----|--2---2--2-----|
|
| Gtr V
|  W               +H.        Q    W            +H.        Q
|----------------|---------------|------------|---------------|
|----------------|---------------|------------|---------------|
|--7-------------|-(7)--------7S=|=9----------|-(9)--------9--|
|--x-------------|-(x)--------x--|-x----------|-(x)--------x--|
|--5-------------|-(5)--------5S=|=7----------|-(7)--------7--|
|----------------|---------------|------------|---------------|
|
| Gtr III
|  W                W              W             W
|----------------|---------------|------------|---------------|
|----------------|---------------|------------|---------------|
|-21b22----------|---------------|------------|---------------|
|----------------|---------------|------------|---------------|
|----------------|---------------|------------|---------------|
|----------------|---------------|------------|---------------|
|
| Gtr IV
|  W                W              W             W
|-20b22----------|---------------|------------|---------------|
|----------------|---------------|------------|---------------|
|----------------|---------------|------------|---------------|
|----------------|---------------|------------|---------------|
|----------------|---------------|------------|---------------|
|----------------|---------------|------------|---------------|

   W

  Gtrs I, II
  Q  Q  H       Q   Q  Q.    +E    Q  Q  H      Q   Q   H
|------------|-------------------|------------|----------------|
|------------|-------------------|------------|----------------|
|-3--3--3----|--3---3--3-----(3)S|=2--2--2----|-2---2---2------|
|-3--3--3----|--3---3--3-----(3)-|-3--3--3----|-3---3---3------|
|-1--1--1----|--1---1--1-----(1)-|-0--0--0----|-0---0---0------|
|------------|-------------------|------------|----------------|
|
| Gtr V
| W            +H.         Q       W            Q   Q   Q   Q
|------------|-------------------|------------|----------------|
|------------|-------------------|------------|----------------|
|-7----------|-(7)---------7S====|=6----------|-6---7---9--12--|
|-x----------|-(x)---------x-----|-x----------|-x---x---x---x--|
|-5----------|-(5)---------5S====|=4----------|-4---5---7--10--|
|------------|-------------------|------------|----------------|
|
|  Gtrs III
| W             W                  W            Q   Q   Q   Q
|------------|-------------------|------------|----------------|
|------------|-------------------|------------|----------------|
|------------|-------------------|------------|-9--10--12--15--|
|------------|-------------------|------------|-x---x---x---x--|
|------------|-------------------|------------|-7---8--10--13--|
|------------|-------------------|------------|----------------|


                             1.,2.,3.        4.
    Gtrs I, II
           PM------------|                          PM----|
    E E Q  S S S S S S S S   E E H.       4x E E Q  S S S S E E   W
||-------------------------|--------------||--------------------|------||
||o------------------------|-------------o||--------------------|------||
||-------------------------|--------------||--------------------|------||
||-------------------------|--------------||----------------1-3-|-1----||
||o-1p0--------------------|-3p0---------o||-3p0------------1-3-|-1----||
||--1p0----0-0-0-0-0-0-0-0-|-3p0----------||-3p0----0-0-0-0-1-3-|-1----||
|
|  Gtr V                /\
|    E   +Q  +Q  +E +Q /  \  +W               W                   W
||--------------------/=3=-\--------------||-[3]----/~~~\-------|------||
||o-<3>-(3)-(3)~(3)-(3)----|\(3)--------/o||-[3]---/-p.4-\------|------||
||-----\----/-----\.5/-----|----\=4.5=-/--||------/-------\-----|------||
||------\.7/-------\/------|-----\----/---||-----/---------\----|------||
||o------\/----------------|------\--/---o||----/-----------\---|------||
||-------------------------|-------\/-----||---/n.4-----n.3--\~~|------||
     D#                                     F,D#

 Interlude
 3/4
  Gtrs I, II
  Q.   Q  E   H.        Q.   Q  E   H.
|-----------|---------|-----------|-------|
|-----------|---------|-----------|-------|
|-----------|---------|-5----5--5-|-5-----|
|-5----5--5-|-5-------|-5----5--5-|-5-----|
|-5----5--5-|-5-------|-3----3--3-|-3-----|
|-5----5--5-|-5-------|-----------|-------|


  Q.   Q  E   H.      a    Q.   Q  E   H.       a
|-----------|------------|-----------|--------------|
|-----------|------------|-----------|--------------|
|-----------|------------|-----------|--------------|
|-3----3--3-|-3------(3)S|=8----8--8-|-8-------(8)S=|
|-3----3--3-|-3------(3)S|=8----8--8-|-8-------(8)S=|
|-3----3--3-|-3------(3)S|=8----8--8-|-8-------(8)S=|


  Q.   Q  E   H.      a    Q.   Q  E   H.       a
|-----------|------------|-----------|--------------|
|-----------|------------|-----------|--------------|
|-----------|------------|-----------|-5-------(5)S=|
|-6----6--6-|-6------(6)S|=5----5--5-|-5-------(5)S=|
|-6----6--6-|-6------(6)S|=5----5--5-|-3-------(3)S=|
|-6----6--6-|-6------(6)S|=5----5--5-|--------------|


  Q.   Q  E   H.        Q.   Q  E   H.
|-----------|---------|-----------|-------||
|-----------|---------|-----------|-------||
|-7----7--7-|---------|-----------|-------||
|-7----7--7-|-0-------|-5----5--5-|-5-----||
|-5----5--5-|-0-------|-5----5--5-|-5-----||
|-----------|-0-------|-5----5--5-|-5-----||


 Guitar Solo
  Gtr V
                       ~~~                     ~~
   a  Q    Q    Q      H.         E   E  E  E  Q      E   E  E  E  E  +E
|-------------------|----------|-------------------|-15--------------------|
|-13s15---13---12---|----------|-13-----13-15-16---|-----16-------16-(16)\-|
|-------------------|-12-------|-----12------------|--------17-------------|
|-------------------|----------|-------------------|-----------17----------|
|-------------------|----------|-------------------|-----------------------|
|-------------------|----------|-------------------|-----------------------|
|
| Gtrs I, II
|     Q.     Q    E    H.         Q.        Q    E    H.
|-------------------|----------|-------------------|-----------------------|
|-------------------|----------|-------------------|-----------------------|
|-------------------|----------|--5---------5----5-|--5--------------------|
|-----5------5----5-|--5-------|--5---------5----5-|--5--------------------|
|-----5------5----5-|--5-------|--3---------3----3-|--3--------------------|
|-----5------5----5-|--5-------|-------------------|-----------------------|


                     ~~~
    Q    Q    Q      H.             E   E  E  E  E  E    E   E  E  E  E  E
|-----------------|----------|------------------------|--------------------|
|-----------------|----------|------------------18p16-|-15-----------------|
|-/17---15---14---|----------|-----15-----15h17-------|-----15----15h17----|
|-----------------|-15-------|---------15-------------|--------15-------15-|
|-----------------|----------|------------------------|--------------------|
|-----------------|----------|------------------------|--------------------|
|
|   Q.     Q    E    H.         a   Q.        Q     E    H.
|-----------------|----------|------------------------|--------------------|
|-----------------|----------|------------------------|--------------------|
|-----------------|----------|------------------------|--------------------|
|---3------3----3-|--3-------|-(3)S=8---------8-----8-|--8-----------------|
|---3------3----3-|--3-------|-(3)S=8---------8-----8-|--8-----------------|
|---3------3----3-|--3-------|-(3)S=8---------8-----8-|--8-----------------|


                         ~~~
   Q      +H             Q.   a  E  Q     a   Q.    Q.       H.
|---------------------|----------------|--x---------------|----------|
|---------------------|---------15h16--|-----15-----------|-15b16----|
|-17b19r=(17)b20r=====|=17----x--------|-----------17-----|----------|
|---------------------|----------------|------------------|----------|
|---------------------|----------------|------------------|----------|
|---------------------|----------------|------------------|----------|
|
|  Q.            Q  E    H.               a   Q.    Q   E    H.
|---------------------|----------------|------------------|----------|
|---------------------|----------------|------------------|----------|
|---------------------|----------------|------------------|--5-------|
|--6-------------6--6-|--6-------------|-(6)S=5-----5---5-|--5-------|
|--6-------------6--6-|--6-------------|-(6)S=5-----5---5-|--3-------|
|--6-------------6--6-|--6-------------|-(6)S=5-----5---5-|----------|


                                                                      ~~~
                                                              6:3|
   Q.    E  Q     a     Q    Q   Q    a a  H         +E       E  E    H.
|--------------------|--------------|-----17b18-----(17)pb18r17p15h|=17-----||
|-14----15h17---(17)S|=18---17--18--|---x--------------------------|--------||
|--------------------|--------------|-x----------------------------|--------||
|--------------------|--------------|------------------------------|--------||
|--------------------|--------------|------------------------------|--------||
|--------------------|--------------|------------------------------|--------||
|
|  Q.    Q    E         H.                 Q.     Q           E       H.
|--------------------|--------------|------------------------------|--------||
|--------------------|--------------|------------------------------|--------||
|--------------------|--------------|------------------------------|--------||
|-/7-----7----7------|--7-----------|------7------7-----------7----|--7-----||
|-/7-----7----7------|--7-----------|------8------8-----------8----|--8-----||
|-/7-----7----7------|--7-----------|------7------7-----------7----|--7-----||


 Pre-Duet
 4/4
  Gtr III
                              \3.5/
  W                           W
|------------------------|--------------------|
|-x----------------------|--(<3>)-------------|
|-x----------------------|--------------------|
|------------------------|--------------------|
|------------------------|--------------------|
|------------------------|--------------------|
|                            C#
| Gtr IV
|                             \3.5/
| W                           W
|------------------------|--------------------|
|-x----------------------|-(<10>)-------------|
|-x----------------------|--------------------|
|------------------------|--------------------|
|------------------------|--------------------|
|------------------------|--------------------|
|   <                        C#
| Gtr VII                   /1
|   W                       +W
|-(<5>)------------------|-(5)--------|
|-(<5>)------------------|-(5)--------|
|------------------------|------------|
|------------------------|------------|
|------------------------|------------|
|------------------------|------------|
|  F,G#
|
| Gtrs I, II
|        PM------------|
| E E Q  S S S S S S S S      E     E H.
|------------------------|--------------------|
|------------------------|--------------------|
|------------------------|--------------------|
|------------------------|--------------------|
|-1p0--------------------|----1p====0---------|
|-1p0----0-0-0-0-0-0-0-0-|----1p====0---------|


    \1
   +W                         +H       H
|--------------------------|----------------||
|--(3)---------------------|--(3)------x----||
|--------------------------|----------------||
|--------------------------|----------------||
|--------------------------|----------------||
|--------------------------|----------------||
|
|   \1
|  +W                         +H       H
|--------------------------|----------------||
|-(10)---------------------|-(10)------x----||
|--------------------------|----------------||
|--------------------------|----------------||
|--------------------------|----------------||
|--------------------------|----------------||
|
|   \0.5
| +W                         W
|-(5)----------------------|-x--------------||
|-(5)----------------------|-x--------------||
|--------------------------|----------------||
|--------------------------|----------------||
|--------------------------|----------------||
|--------------------------|----------------||
|
|
|          PM------------|
|   E E Q  S S S S S S S S     E E H.
|--------------------------|----------------||
|--------------------------|----------------||
|--------------------------|----------------||
|--------------------------|----------------||
|---1p0--------------------|---1p0----------||
|---1p0----0-0-0-0-0-0-0-0-|---1p0----------||


 Duet   FOR PULL-OFF RUNS (background "sweeps"), PLEASE SEE BOTTOM OF TAB
  Q     Q   Q        Q          Q    Q    Q   Q
|----------------------------|-------------------|
|----------------------------|-------------------|
|-x---/11--12-------14-------|-12---11---12--14--|
|-x--------------------------|-------------------|
|-x--------------------------|-------------------|
|----------------------------|-------------------|
|
| Q     Q   Q        Q          Q    Q    Q   Q
|----------------------------|-------------------|
|----------------------------|-------------------|
|-x----/7---8-------10-------|--8----7----8--10--|
|-x--------------------------|-------------------|
|-x--------------------------|-------------------|
|----------------------------|-------------------|
|
|           PM-------------|
| E E   Q   S S S S  S S S S    E E  H.
|----------------------------|-------------------|
|----------------------------|-------------------|
|----------------------------|-------------------|
|----------------------------|-------------------|
|-1p0------------------------|--1p0--------------|
|-1p0-------0-0-0-0--0-0-0-0-|--1p0--------------|


   ~~~          ~~~~~~~~~~~~~~~~~~~~~~~
   Q.     S  S  H                  +W
|-------------------------------|----------------------|
|-------------------------------|----------------------|
|-12-----14p12p11---------------|-(11)-----------------|
|-------------------------------|----------------------|
|-------------------------------|----------------------|
|-------------------------------|----------------------|
|
|  ~~~          ~~~~~~~~~~~~~~~~~~~~~~~
|  Q.     S  S  H                  +W
|-------------------------------|----------------------|
|-------------------------------|----------------------|
|--8-----10p=8p=7---------------|--(7)-----------------|
|-------------------------------|----------------------|
|-------------------------------|----------------------|
|-------------------------------|----------------------|
|
|               PM------------|              PM|
|  E E Q        S S S S S S S S     E E Q.   S S E E
|-------------------------------|----------------------|
|-------------------------------|----------------------|
|-------------------------------|----------------------|
|-------------------------------|----------------------|
|--1p0--------------------------|---1p0----------1-3---|
|--1p0----------0-0-0-0-0-0-0-0-|---1p0------0-0-1-3---|


  Q    Q   Q        Q          Q    Q    Q   Q
|---------------------------|-------------------|
|-----12--13-------16-------|-13---12---13--16--|
|---------------------------|-------------------|
|---------------------------|-------------------|
|---------------------------|-------------------|
|---------------------------|-------------------|
|
| Q    Q   Q        Q          Q    Q    Q   Q
|---------------------------|-------------------|
|------8---9-------12-------|--9----8----9--12--|
|---------------------------|-------------------|
|---------------------------|-------------------|
|---------------------------|-------------------|
|---------------------------|-------------------|
|
|          PM-------------|
| E E  Q   S S S S  S S S S    E E  H.
|---------------------------|-------------------|
|---------------------------|-------------------|
|---------------------------|-------------------|
|---------------------------|-------------------|
|-7p5-----------------------|--7p5--------------|
|-7p5------5-5-5-5--5-5-5-5-|--7p5--------------|


   ~~~          ~~~~~~~~~~~~~~~~~~~~~~~
   Q.     S  S  H                  +W
|-------------------------------|----------------------|
|-13-----16p13p12---------------|-(12)-----------------|
|-------------------------------|----------------------|
|-------------------------------|----------------------|
|-------------------------------|----------------------|
|-------------------------------|----------------------|
|
|  ~~~          ~~~~~~~~~~~~~~~~~~~~~~~
|  Q.     S  S  H                  +W
|-------------------------------|----------------------|
|--9-----12p=9p=8---------------|--(8)-----------------|
|-------------------------------|----------------------|
|-------------------------------|----------------------|
|-------------------------------|----------------------|
|-------------------------------|----------------------|
|
|               PM------------|              PM|
|  E E Q        S S S S S S S S     E E Q.   S S E E
|-------------------------------|----------------------|
|-------------------------------|----------------------|
|-------------------------------|----------------------|
|-------------------------------|----------------------|
|--7p5--------------------------|---7p5----------7-8---|
|--7p5----------5-5-5-5-5-5-5-5-|---7p5------5-5-7-8---|


   Q     Q   Q           Q             Q     Q    Q   Q
|-------12--13----------15----------|-13----12---13--15--|
|-----------------------------------|--------------------|
|-----------------------------------|--------------------|
|-----------------------------------|--------------------|
|-----------------------------------|--------------------|
|-----------------------------------|--------------------|
|
|  Q     Q   Q           Q             Q     Q    Q   Q
|--------8---9----------11----------|--9-----8----9--11--|
|-----------------------------------|--------------------|
|-----------------------------------|--------------------|
|-----------------------------------|--------------------|
|-----------------------------------|--------------------|
|-----------------------------------|--------------------|
|
|            PM------------------|
|  E  E  Q   S  S  S  S  S  S  S  S    E  E  H.
|-----------------------------------|--------------------|
|-----------------------------------|--------------------|
|-----------------------------------|--------------------|
|-----------------------------------|--------------------|
|-11p10-----------------------------|-11p10--------------|
|-11p10-----10-10-10-10-10-10-10-10-|-11p10--------------|


                                                                              ~~~~
   S  S  S  S  S  S  S  S  S  S  S  S  S  S  S  S    S  S  S  S  S  S  S  S   H
|-12h13-15p13-12h13-15p13-12h13-15p13-12h13-15p13-|-12h13-15p13-12h13-15p13-[13]----------------|
|-------------------------------------------------|---------------------------------------------|
|-------------------------------------------------|---------------------------------------------|
|-------------------------------------------------|---------------------------------------------|
|-------------------------------------------------|---------------------------------------------|
|-------------------------------------------------|---------------------------------------------|
|
|                                                                             ~~~~
|  S  S  S  S  S  S  S  S  S  S  S  S  S  S  S  S    S  S  S  S  S  S  S  S   H
|--8h=9-11p=9--8h=9-11p=9--8h=9-11p=9--8h=9-11p=9-|--8h=9-11p=9--8h=9-11p=9-[10]----------------|
|-------------------------------------------------|---------------------------------------------|
|-------------------------------------------------|---------------------------------------------|
|-------------------------------------------------|---------------------------------------------|
|-------------------------------------------------|---------------------------------------------|
|-------------------------------------------------|---------------------------------------------|
|
|                          PM------------------|                                  PM|
|  E     E     Q           S  S  S  S  S  S  S  S    E     E     Q.               S  S  EE
|-------------------------------------------------|---------------------------------------------|
|-------------------------------------------------|---------------------------------------------|
|-------------------------------------------------|---------------------------------------------|
|-------------------------------------------------|---------------------------------------------|
|-11p===10----------------------------------------|-11p===10---------------------------11p10\---|
|-11p===10----------------10-10-10-10-10-10-10-10-|-11p===10---------------------10-10-11p10\---|


  Q     Q   Q        Q          Q    Q    Q   Q
|----------------------------|-------------------|
|-----/14--15-------17-------|-15---14---15--17--|
|----------------------------|-------------------|
|----------------------------|-------------------|
|----------------------------|-------------------|
|----------------------------|-------------------|
|
| Q     Q   Q        Q          Q    Q    Q   Q
|----------------------------|-------------------|
|-------------------14-------|---------------14--|
|-----/14--15----------------|-15---14---15------|
|----------------------------|-------------------|
|----------------------------|-------------------|
|----------------------------|-------------------|
|
|           PM-------------|
| E E   Q   S S S S  S S S S    E E  H.
|----------------------------|-------------------|
|----------------------------|-------------------|
|----------------------------|-------------------|
|----------------------------|-------------------|
|-7p5------------------------|--7p5--------------|
|-7p5-------5-5-5-5--5-5-5-5-|--7p5--------------|


                                                                       ~~~~
   |--------------3--------------|         |-------3--------|
   Q    Q    Q   Q      Q        Q         Q    Q     S  S  H         +Q
|--------------------------------------|--18p==17-------17-20b22-----(20)----||
|-14---15---17-/20-----18-------17-----|-------------18----------------------||
|--------------------------------------|-------------------------------------||
|--------------------------------------|-------------------------------------||
|--------------------------------------|-------------------------------------||
|--------------------------------------|-------------------------------------||
|
|                                                                      ~~~~
|  |--------------3--------------|         |-------3--------|
|  Q    Q    Q   Q      Q        Q         Q    Q     S  S  H         +Q
|--------------------------------------|-------------------15b17-----(15)----||
|-----------14-/17-----15-------14-----|-/18s==17-------17-------------------||
|-14---15------------------------------|-------------17----------------------||
|--------------------------------------|-------------------------------------||
|--------------------------------------|-------------------------------------||
|--------------------------------------|-------------------------------------||
|
|                PM------------------|                           PM|
|  E E    Q      S S S    S S S    S S     E E    Q.             S S   E  E
|--------------------------------------|-------------------------------------||
|--------------------------------------|-------------------------------------||
|--------------------------------------|-------------------------------------||
|--------------------------------------|-------------------------------------||
|--7p5---------------------------------|---7p5-------------------------5--0--||
|--7p5-----------5-5-5----5-5-5----5-5-|---7p5-------------------5-5---5--0--||


 Verse
  Gtrs I, II
   PM----------------------------------|          PM|
   S    S S S S S S S S S S S S S   S  S     Q  E S S E E E E
|----------------------------------------||-------------------|
|----------------------------------------||o------------------|
|----------------------------------------||-------------------|
|----------------------------------------||--0----------------|
|----------------------------------------||o-0--------1p0---0-|
|--0----0-0-0-0-0-0-0-0-0-0-0-0-0---0--0-||--0----0-0-1p0---0-|
|
| Gtr III
|  H..                             +E        w
|-20b22r==========================(20)p==||==x----------------|
|----------------------------------------||o------------------|
|----------------------------------------||-------------------|
|----------------------------------------||-------------------|
|----------------------------------------||o------------------|
|----------------------------------------||-------------------|
|
| Gtr IV
|  H..                             +E        w
|-15b17r==========================(15)p==||==x----------------|
|----------------------------------------||o------------------|
|----------------------------------------||-------------------|
|----------------------------------------||-------------------|
|----------------------------------------||o------------------|
|----------------------------------------||-------------------|


       PM|                     PM|                          PM|
  Q.   S S q  Q       Q     E  S S  E  E  E  E    Q.        S S  q     Q
|-----------------||---------------------------|-------------------------------||
|----------------o||---------------------------|-------------------------------||
|-----------------||---------------------------|-------------------------------||
|-----------------||--0------------------------|-------------------------------||
|----------1--1--o||--0-------------1p=0-----0-|-----------------1-----1-------||
|------0-0-1--1---||--0--------0-0--1p=0-----0-|------------0-0--1-----1-------||
|
| W                   E  E  E  E    E  E  E  E    E   E  E  E    E  E  E  E
|-----------------||-13------------13----------|-------------------------------||
|----------------o||----15------------15-------|-------------------------------||
|-----------------||-------14------------14----|-------------------------------||
|-----------------||----------15------------15-|-15-----14---------------15----||
|----------------o||---------------------------|-----17----16p==13-16-17-------||
|-----------------||---------------------------|-------------------------------||
|
| W                   E  E  E  E    E  E  E  E    E   E  E  E    E  E  E  E
|-----------------||-17------------17----------|-------------------------------||
|----------------o||----18------------18-------|-------------------------------||
|-----------------||-------19------------19----|-------------------------------||
|-----------------||----------19------------19-|-19-----18---------------19----||
|----------------o||---------------------------|-----20----19p==17-19-20-------||
|-----------------||---------------------------|-------------------------------||


 Chorus
  Gtrs I, II
   Q     Q  H       Q   Q  H       Q  Q  H       Q   Q  H
|----------------|---------------|------------|---------------|
|----------------|---------------|------------|---------------|
|----------------|---------------|------------|---------------|
|--0-----0--0----|--0---0--0-----|-2--2--2----|--2---2--2-----|
|--0-----0--0----|--0---0--0-----|-3--3--3----|--3---3--3-----|
|--0-----0--0----|--0---0--0-----|-2--2--2----|--2---2--2-----|
|
| Gtr V
|  W               +H.        Q    W            +H.        Q
|----------------|---------------|------------|---------------|
|----------------|---------------|------------|---------------|
|--7-------------|-(7)--------7S=|=9----------|-(9)--------9--|
|--x-------------|-(x)--------x--|-x----------|-(x)--------x--|
|--5-------------|-(5)--------5S=|=7----------|-(7)--------7--|
|----------------|---------------|------------|---------------|
|
|  W                W              W             W
|-20b22----------|---------------|------------|---------------|
|----------------|---------------|------------|---------------|
|-21b22----------|---------------|------------|---------------|
|----------------|---------------|------------|---------------|
|----------------|---------------|------------|---------------|
|----------------|---------------|------------|---------------|
   W


  Q  Q  H       Q   Q  Q.    +E    Q  Q  H      Q   Q   H
|------------|-------------------|------------|----------------|
|------------|-------------------|------------|----------------|
|-3--3--3----|--3---3--3-----(3)S|=2--2--2----|-2---2---2------|
|-3--3--3----|--3---3--3-----(3)-|-3--3--3----|-3---3---3------|
|-1--1--1----|--1---1--1-----(1)-|-0--0--0----|-0---0---0------|
|------------|-------------------|------------|----------------|
|
|                                               Gtr III
| W            +H.         Q       W            Q   Q   Q   Q
|------------|-------------------|------------|----------------|
|------------|-------------------|------------|----------------|
|-7----------|-(7)---------7S====|=6----------|-6---7---9--12--|
|-x----------|-(x)---------x-----|-x----------|-x---x---x---x--|
|-5----------|-(5)---------5S====|=4----------|-4---5---7--10--|
|------------|-------------------|------------|----------------|
|
| W             W                  W            Q   Q   Q   Q
|------------|-------------------|------------|----------------|
|------------|-------------------|------------|----------------|
|------------|-------------------|------------|-9--10--12--15--|
|------------|-------------------|------------|-x---x---x---x--|
|------------|-------------------|------------|-7---8--10--13--|
|------------|-------------------|------------|----------------|


  Q   Q     H      Q  Q   H       Q  Q  H       Q     Q     H
|----------------|--------------|------------|------------------------|
|----------------|--------------|------------|------------------------|
|----------------|--------------|------------|------------------------|
|-0---0-----0----|-0--0---0-----|-2--2--2----|--2-----2-----2---------|
|-0---0-----0----|-0--0---0-----|-3--3--3----|--3-----3-----3---------|
|-0---0-----0----|-0--0---0-----|-2--2--2----|--2-----2-----2---------|
|
| Gtr V
| Q.    +E  H      Q  Q   Q  Q    H     H       H.               Q
|----------------|--------------|------------|------------------------|
|----------------|--------------|------------|------------------------|
|-9-----(9)S7----|-7--9--10--7--|-9-----5----|--9----------------9S===|
|-x-----(x)-x----|-x--x---x--x--|-x-----x----|--x----------------xS===|
|-7-----(7)S5----|-5--7---8--5--|-7-----3----|--7----------------7S===|
|----------------|--------------|------------|------------------------|
|
| Gtrs III, IV
|                                               |---------3---------|
| W                W              W             Q   Q    Q  Q  Q    Q
|----------------|--------------|------------|------------------------|
|----------------|--------------|------------|------------------------|
|----------------|--------------|------------|-12--12---12-12-10----9-|
|----------------|--------------|------------|-14--14---14-14-12---10-|
|----------------|--------------|------------|------------------------|
|----------------|--------------|------------|------------------------|
                                                Q   Q    Q  Q  Q    Q
                                                |---------3---------|


   Q  Q   H       Q    Q   Q.     +E     Q    Q  H            Q   Q   H
|--------------|----------------------|--------------------|-----------------||
|--------------|----------------------|--------------------|-----------------||
|--3--3---3----|--3----3---3------(3)S|==2----2--2---------|--2---2---2------||
|--3--3---3----|--3----3---3------(3)-|--3----3--3---------|--3---3---3------||
|--1--1---1----|--1----1---1------(1)-|--0----0--0---------|--0---0---0------||
|--------------|----------------------|--------------------|-----------------||
|
|  W             +H.            Q        W                    Q   Q   Q   Q
|--------------|----------------------|--------------------|-----------------||
|--------------|----------------------|--------------------|-----------------||
|--7-----------|-(7)------------7S====|==6-----------------|--9--10--12--15--||
|--x-----------|-(x)------------x-----|--x-----------------|--x---x---x---x--||
|--5-----------|-(5)------------5S====|==4-----------------|--7---8--10--13--||
|--------------|----------------------|--------------------|-----------------||
|                                                             Q   Q   Q   Q
|
|  H      H       Q    Q   Q    Q        W                    Q   Q   Q   Q
|--------------|----------------------|--------------------|-----------------||
|--------------|----------------------|--------------------|-----------------||
|-10-----------|----------------------|--------------------|-----------------||
|-12-----12----|-12---14--15---12-----|-14-----------(14)\-|-14--15--17--20--||
|--------13----|-13---15--17---13-----|-16-----------------|-16--17--19--20--||
|--------------|----------------------|--------------------|-----------------||
   H      H       Q    Q   Q    Q        H..          +E      Q   Q   Q   Q


 Outro
 3/4
  Gtr IV
   H.           +H.         +H.         +H.         +Q   H
|-16---------:-(16)------:-(16)------:-(16)------:-(16)-------*|
|-19b21------:-(19)------:-(19)------:-(19)------:-(19)-------*|
|------------:-----------:-----------:-----------:------------*|
|------------:-----------:-----------:-----------:------------*|
|------------:-----------:-----------:-----------:------------*|
|------------:-----------:-----------:-----------:------------*|
|
| Gtr III
|  H.           +H.         +H.         +H.         +Q   H
|-13---------:-(13)------:-(13)------:-(13)------:-(13)-------*|
|-16b18------:-(16)------:-(16)------:-(16)------:-(16)-------*|
|------------:-----------:-----------:-----------:------------*|
|------------:-----------:-----------:-----------:------------*|
|------------:-----------:-----------:-----------:------------*|
|------------:-----------:-----------:-----------:------------*|
|
| Gtrs I, II
|  TP            TP          TP          TP
|  H.           +H.         +H.         +H.          Q   H
|------------:-----------:-----------:-----------:------------*|
|------------:-----------:-----------:-----------:------------*|
|------------:-----------:-----------:-----------:------------*|
|------------:-----------:-----------:-----------:------------*|
|------------:-----------:-----------:-----------:---0--------*|
|--0---------:--(0)------:--(0)------:--(0)------:---0--------*|

*****************************************************************
Backing Guitar In The Duet Is:

Gtr VII
 Duet
  H      S    S  Q.     H     S  S  S  S  S  S  S  S
|---------------------|------14p11-14p12p11----11----|
|---------------------|---------------------14----14p|
|------(14)s(11)------|------------------------------|
|---------------------|------------------------------|
|---------------------|------------------------------|
|---------------------|------------------------------|


   S  S  S  S  S  S  S  S  S  S  S  S  S  S  S  S    S  S  S  S  E  +E   H
|-------------------------------------------------|---------------------------|
|-11----------------------------------------------|---------------------------|
|----14p12p11-------------------------------------|---------------------------|
|-------------14p12p11-14p12p11-------------------|---------------------------|
|-------------------------------14p12p11-14p12p11-|---------------------------|
|-------------------------------------------------|-14p12p11-11h12-(12)\------|


  H     S  S Q.     H     S  S  S  S  S  S  S  S
|-----------------|------16p13p12-16p13p12-------|
|------16s13------|------------------------16p13p|
|-----------------|------------------------------|
|-----------------|------------------------------|
|-----------------|------------------------------|
|-----------------|------------------------------|


   S  S  S  S  S  S  S  S  S  S  S  S  S  S  S  S    S  S  S  S  E  +E   H
|-------------------------------------------------|---------------------------|
|-12----------------------------------------------|---------------------------|
|----16p13p12-------------------------------------|---------------------------|
|-------------16p13p12-16p13h16-------------------|---------------------------|
|-------------------------------16p13p12-16p13p12-|---------------------------|
|-------------------------------------------------|-16p13p12-13h16-(16)\------|


----------------------------------------
             Almost Easy
----------------------------------------


Transcribed by Seth "Shadows" Sanders {F.u.c.kallyourfalsebeauty@hotmail.com}

Gtr I (C# G# C# F# A# D#) - 'Rhythm Guitar I'
Gtr II (C# G# C# F# A# D#) - 'Rhythm Guitar II'
Gtr III (C# G# C# F# A# D#) - 'Lead Guitar I'
Gtr IV (C# G# C# F# A# D#) - 'Piano'
Gtr V (C# G# C# F# A# D#) - 'Lead Guitar II'


 Intro
  Q=174
  C#5                           B5
 4/4
  Gtrs I, II
  E E E E E E  E E   E E E E     E  E E  E     E  E  E  E E  E  E E
|------------------|-----------------------|------------------------|
|------------------|-----------------------|------------------------|
|-7-7-7-7-7-7--7-7-|-7-7-7-7-----5--5-5--5-|---5--5--5--5-5--5--5-5-|
|-7-7-7-7-7-7--7-7-|-7-7-7-7-----5--5-5--5-|---5--5--5--5-5--5--5-5-|
|-5-5-5-5-5-5--5-5-|-5-5-5-5-----3--3-3--3-|---3--3--3--3-3--3--3-3-|
|------------------|-----------------------|------------------------|
|
| Gtr III
| W                  H        a  Q.      E    +Q     Q.      Q.
|------------------|---------10s13------12-|-(12)-------------------|
|------------------|-----------------------|--------13--------------|
|------------------|-----------------------|----------------14------|
|------------------|-----------------------|------------------------|
|------------------|-----------------------|------------------------|
|------------------|-----------------------|------------------------|
|
| Gtr IV
| E Q   Q   E  Q     Q   Q       E  Q    E    +E  E  Q    Q     Q
|---6---5-----10---|-6---5----------6----5-|--(5)---10----6-----5---|
|------------------|-----------------------|------------------------|
|------------------|-----------------------|------------------------|
|------------------|-----------------------|------------------------|
|-5---------5------|-------------5---------|------5-----------------|
|------------------|-----------------------|------------------------|


  F#5
   E E   E     E   E     E   E  E
|---------------------------------|
|---------------------------------|
|---------------------------------|
|--5-5---5-----5---5-----5---5--5-|
|--5-5---5-----5---5-----5---5--5-|
|--5-5---5-----5---5-----5---5--5-|
|
|        \0.5/     \0.5/
|  ~~                        ~~~~~~
|  Q    +Q        +Q        +Q
|---------------------------------|
|-15---(15)------(15)------(15)---|
|---------------------------------|
|---------------------------------|
|---------------------------------|
|---------------------------------|
|
|  E Q         Q         E   Q
|----6---------5------------10----|
|---------------------------------|
|---------------------------------|
|---------------------------------|
|--5---------------------5--------|
|---------------------------------|


                    A5                  B5
    E  E E   E       E  E E  E     E  E  E  E E  E  E E
|------------------------------|------------------------|
|------------------------------|------------------------|
|------------------------------|---------5--5-5--5--5-5-|
|---5--5-5---5-------8--8-8--8-|---8--8--5--5-5--5--5-5-|
|---5--5-5---5-------8--8-8--8-|---8--8--3--3-3--3--3-3-|
|---5--5-5---5-------8--8-8--8-|---8--8-----------------|
|
|~~~~~~
|  +Q.      +E    a  Q.      E    +Q     Q.      Q.
|----------------10s13------12-|-(12)-------------------|
|-(15)-----(15)\---------------|--------13--------------|
|------------------------------|----------------14------|
|------------------------------|------------------------|
|------------------------------|------------------------|
|------------------------------|------------------------|
|
|   Q    Q           E  Q    E    +E  E  Q    Q     Q
|---6----5--------------6----5-|--(5)---10----6-----5---|
|------------------------------|------------------------|
|------------------------------|------------------------|
|------------------------------|------------------------|
|--------------------5---------|------5-----------------|
|------------------------------|------------------------|


  C#5                                B5
   E  E E E E E  E E     E  E E E     E  E E  E     E  E  E  E E  E  E E
|--------------------|--------------------------|------------------------|
|--------------------|--------------------------|------------------------|
|--7--7-7-7-7-7--7-7-|---7--7-7-7-----5--5-5--5-|---5--5--5--5-5--5--5-5-|
|--7--7-7-7-7-7--7-7-|---7--7-7-7-----5--5-5--5-|---5--5--5--5-5--5--5-5-|
|--5--5-5-5-5-5--5-5-|---5--5-5-5-----3--3-3--3-|---3--3--3--3-3--3--3-3-|
|--------------------|--------------------------|------------------------|
|
|  \1
|  W                    +Q.     E  a  Q.      E    +Q     Q.      Q.
|-18-----------------|-(18)-----x-12h13------12-|-(12)-------------------|
|--------------------|--------------------------|--------13--------------|
|--------------------|--------------------------|----------------14------|
|--------------------|--------------------------|------------------------|
|--------------------|--------------------------|------------------------|
|--------------------|--------------------------|------------------------|
|
|  E  Q   Q   E  Q       Q    Q       E  Q    E    +E  E  Q    Q     Q
|-----6---5-----10---|---6----5----------6----5-|--(5)---10----6-----5---|
|--------------------|--------------------------|------------------------|
|--------------------|--------------------------|------------------------|
|--------------------|--------------------------|------------------------|
|--5----------5------|----------------5---------|------5-----------------|
|--------------------|--------------------------|------------------------|


  F#5                                            A5
   E E   E     E E   E   E E     E  E E E     E   E E  E
|----------------------------|---------------------------|
|----------------------------|---------------------------|
|----------------------------|---------------------------|
|--5-5---5-----5-5---5---5-5-|---5--5-5-5-----8---8-8--8-|
|--5-5---5-----5-5---5---5-5-|---5--5-5-5-----8---8-8--8-|
|--5-5---5-----5-5---5---5-5-|---5--5-5-5-----8---8-8--8-|
|
|  Q    +Q.         +Q.         +H         a  Q.       E
|----------------------------|------------10s13-------12-|
|-15---(15)b17-----(15)------|-(15)----------------------|
|----------------------------|---------------------------|
|----------------------------|---------------------------|
|----------------------------|---------------------------|
|----------------------------|---------------------------|
|
|  E Q         Q     E   Q       Q    Q       E   Q    E
|----6---------5--------10---|---6----5----------13---12-|
|----------------------------|---------------------------|
|----------------------------|---------------------------|
|----------------------------|---------------------------|
|--5-----------------5-------|----------------5----------|
|----------------------------|---------------------------|


                  B5
    E   E      E  E  E  E   E E
|-------------------------------||
|-------------------------------||
|--------------5--5--5--5---5-5-||
|---8---8------5--5--5--5---5-5-||
|---8---8------3--3--3--3---3-3-||
|---8---8-----------------------||
|
|  +E   E   a  Q.       Q.
|-(12)-12\-15s18-------17\------||
|-------------------------------||
|-------------------------------||
|-------------------------------||
|-------------------------------||
|-------------------------------||
|
|  +E   E      Q     Q      Q
|-(12)--------18----17-----15---||
|-------------------------------||
|-------------------------------||
|-------------------------------||
|-------5-----------------------||
|-------------------------------||


 Pre Verse
  C#5   N.C.            D5  C5    C5A5    C5
  Gtr I
          PM----------|       PM|     PM|
    Q     E  E   E  E E E   E E E E E E E E
|-------------------------|-----------------|
|-------------------------|-----------------|
|---7\--------------------|-----------------|
|---7\------------------8S|=6-----6S3-----6-|
|---5\------------------6S|=4-----4S1-----4-|
|---------0--0---0--0-0---|---0-0-----0-0---|
|
| Gtr II
|         PM----------|       PM|     PM|
|   Q     E  E   E  E E E   E E E E E E E E
|-------------------------|-----------------|
|-------------------------|-----------------|
|---7\--------------------|-----------------|
|---7\------------------8S|=6-----6S3-----6-|
|---5\------------------6S|=4-----4S1-----4-|
|---------0--0---0--0-0---|---0-0-----0-0---|
|
| Gtr III
|   Q     Q      Q    Q     W
|-/17\--/17\---/17\-------|-----------------|
|-------------------------|-----------------|
|-------------------------|-----------------|
|-------------------------|-----------------|
|-------------------------|-----------------|
|-------------------------|-----------------|


  C#5 N.C.
      PM------------------|         PM----|
  Q   E E E E E E   S S S S S S S S S S S S S  S S S
|-----------------|------------------------------------|
|-----------------|------------------------------------|
|-----------------|------------------------------------|
|-7\--------------|------------------------------------|
|-5\--------------|------------------------------------|
|-----0-0-0-0-0-0-|-0-0-0-0-7h8p7h8-0-0-0-0-8h10-8p7---|
|
|     PM------------------|         PM----|
| Q   E E E E E E   S S S S S S S S S S S S S  S S S
|-----------------|------------------------------------|
|-----------------|------------------------------------|
|-----------------|------------------------------------|
|-7\--------------|------------------------------------|
|-5\--------------|------------------------------------|
|-----0-0-0-0-0-0-|-0-0-0-0-3h5h7p5-0-0-0-0-5h=7-8p3---|
|
| W                 W
|-----------------|------------------------------------|
|-----------------|------------------------------------|
|-----------------|------------------------------------|
|-----------------|------------------------------------|
|-----------------|------------------------------------|
|-----------------|------------------------------------|


  C#5           D5  C5    C5A5    C5  C#5
  Gtrs I, II
      PM------|       PM|     PM|         PM--------------------------|     ~
  Q   E E E E E E   E E E E E E E E   Q   E E E E E E   S S S S S S S S E E Q
|-----------------|-----------------|-----------------|-----------------------||
|-----------------|-----------------|-----------------|-----------------------||
|-7\--------------|-----------------|-----------------|-----------------------||
|-7\------------8S|=6-----6S3-----6-|-7\--------------|-----------------------||
|-5\------------6S|=4-----4S1-----4-|-5\--------------|-----------------------||
|-----0-0-0-0-0---|---0-0-----0-0---|-----0-0-0-0-0-0-|-0-0-0-0-0-0-0-0-7h8p7-||


   Verse
    $
    C#5
    Gtrs I, II
       PM--------|      PM--------|
    Q  E E E E E E   Q  E E E E E E
||-----------------|----------------|
||o----------------|----------------|
||-----------------|----------------|
||--0--------------|-0--------------|
||o-0--0-0-0-0-0-0-|-0--0-0-0-0-0-0-|
||--0--0-0-0-0-0-0-|-0--0-0-0-0-0-0-|


                   N.C.
     PM--------------------------|     ~
  Q  E E E E E E   S S S S S S S S E E Q
|----------------|-------------------------||
|----------------|------------------------o||
|----------------|-------------------------||
|-0--------------|-------------------------||
|-0--0-0-0-0-0-0-|------------------------o||
|-0--0-0-0-0-0-0-|-0-0-0-0-0-0-0-0-7h8p7---||


  C#5
     PM------------|      PM------------|
  Q  S S E S S E E E   Q  S S E S S E E E
|--------------------|--------------------|
|--------------------|--------------------|
|--------------------|--------------------|
|-0------------------|-0------------------|
|-0--0-0-0-0-0-0-0-0-|-0--0-0-0-0-0-0-0-0-|
|-0--0-0-0-0-0-0-0-0-|-0--0-0-0-0-0-0-0-0-|


                       N.C.
     PM------------------------------|     ~
  Q  S S E S S E E E   S S S S S S S S E E Q
|--------------------|------------------------|
|--------------------|------------------------|
|--------------------|------------------------|
|-0------------------|------------------------|
|-0--0-0-0-0-0-0-0-0-|------------------------|
|-0--0-0-0-0-0-0-0-0-|-0-0-0-0-0-0-0-0-7h8p7--|


  C#5                                                N.C.
     PM--------|      PM--------|      PM--------------------------|
  Q  E E E E E E   Q  E E E E E E   Q  E E E E E E   S S S S S S S S E E Q
|----------------|----------------|----------------|-----------------------||
|----------------|----------------|----------------|-----------------------||
|----------------|----------------|----------------|-----------------------||
|-0--------------|-0--------------|-0--------------|-----------------------||
|-0--0-0-0-0-0-0-|-0--0-0-0-0-0-0-|-0--0-0-0-0-0-0-|-----------------------||
|-0--0-0-0-0-0-0-|-0--0-0-0-0-0-0-|-0--0-0-0-0-0-0-|-0-0-0-0-0-0-0-0-7h8p7-||


 Pre Chorus
  C#5  C#N.C.B         N.C.E5    N.C.  E5        N.C.C#m          Cm
  Gtr I
     PM  PM|           PM|       PM|             PM|
  Q  E E E E E E   E E E E  E  E E E    Q   E  E E E Q    E E E E Q  E E
|----------------|-------------------|------------------|-----------------|
|----------------|-------------------|------------------|-----------------|
|----------------|-------------------|------------------|-----------------|
|------7-----2-2-|-2-2-----10-10-----|-10--10-10-----3--|-3-3-----2--2-2--|
|-0----5-----3-3-|-3-3------8--8-----|--8---8--8-----5--|-5-5-----4--4-4--|
|-0--0---5-2-----|-----0-0-------8-8-|-----------7-5----|-----0-0---------|
|
| Gtr II
|    PM  PM|           PM|       PM|             PM|          PM|
| Q  E E E E E E   E E E E  E  E E E    Q   E  E E E Q    E E E E Q  E E
|----------------|-------------------|------------------|-----------------|
|----------------|-------------------|------------------|-----------------|
|----------------|-------------------|---------------7--|-7-7-----6--6-6--|
|------7-----5-5-|-5-5-----10-10-----|-10--10-10-----x--|-x-x-----x--x-x--|
|-0----5-----3-3-|-3-3------8--8-----|--8---8--8-----5--|-5-5-----4--4-4--|
|-0--0---5-2-----|-----0-0-------8-8-|-----------7-5----|-----0-0---------|


  C#5  C#5   B             E5            E5            C#m/E         Cm/Eb
     PM  PM|           PM|        PM|              PM|
  Q  E E E E E E   E E E E  E  E  E  E    Q   E  E E E Q     H       Q   Q
|----------------|---------------------|-------------------|------------------|
|----------------|---------------------|-------------------|------------------|
|----------------|---------------------|-------------------|------------------|
|------7-----2-2-|-2-2-----10-10-------|-10--10-10-----3---|-3-------2---2----|
|-0----5-----3-3-|-3-3------8--8-------|--8---8--8-----5---|-5-------4---4----|
|-0--0---0-0-----|-----0-0--------8--8-|-----------7-5-3---|-3-------2---2----|
|
|    PM  PM|           PM|        PM|              PM|
| Q  E E E E E E   E E E E  E  E  E  E    Q   E  E E E E E   E E E E E E E E
|----------------|---------------------|-------------------|------------------|
|----------------|---------------------|-------------------|------------------|
|------------9-9-|-9-9-----10-10-------|-14--12-10-----7-7-|-7-7-7-7-6-6-6-6--|
|------7-----x-x-|-x-x------x--x-------|--x---x--x-----x-x-|-x-x-x-x-x-x-x-x--|
|-0----5-----7-7-|-7-7------8--8-------|-12--10--8-----5-5-|-5-5-5-5-4-4-4-4--|
|-0--0---0-0-----|-----0-0-------12-12-|-----------x-x-----|------------------|


 Chorus
  E5
  Gtrs I, II
   Q   E  E  Q   Q       Q   E  Q    E  E  E
|---------------------|----------------------|
|---------------------|----------------------|
|---------------------|----------------------|
|--3---3--3--3---3----|--3---3--3----3--3--3-|
|--3---3--3--3---3----|--3---3--3----3--3--3-|
|--3---3--3--3---3----|--3---3--3----3--3--3-|
|
| Gtr III
|  Q   E  E  Q   E  E    Q   E  E  Q    E  E
|---------------------|----------------------|
|---------------------|----------------------|
|-10--10-10-12--12-12-|-14--14-14-12---12-12-|
|---------------------|----------------------|
|--8---8--8-10--10-10-|-12--12-12-10---10-10-|
|---------------------|----------------------|


  B5/E                  E5
   Q   E  E  Q   Q       Q   E  Q    E  E  E
|---------------------|-----------------------|
|---------------------|-----------------------|
|---------------------|-----------------------|
|--5---5--5--5---5----|--3---3--3----3--3--3--|
|--3---3--3--3---3----|--3---3--3----3--3--3--|
|--3---3--3--3---3----|--3---3--3----3--3--3--|
|
|  Q   E  E  Q   E  E    Q   E  E  Q    E  E
|---------------------|-----------------------|
|---------------------|-----------------------|
|-10--10-10-14--14-14-|-12--12-12-14---14-14--|
|---------------------|-----------------------|
|--8---8--8-12--12-12-|-10--10-10-12---12-12--|
|---------------------|-----------------------|


                                                                     To Coda
  C#5
  Q  E E Q  Q     Q  E Q    E  E  E    Q   E  E  Q   Q       Q   E  Q   E E E
|---------------|-------------------|---------------------|--------------------|
|---------------|-------------------|---------------------|--------------------|
|---------------|-------------------|---------------------|--------------------|
|-0--0-0-2--2---|-0--0-0----0--0--0-|--0---0--0--0---0----|--0---0--0---0-0-0--|
|-0--0-0-0--0---|-0--0-0----0--0--0-|--0---0--0--0---0----|--0---0--0---0-0-0--|
|-0--0-0-0--0---|-0--0-0----0--0--0-|--0---0--0--0---0----|--0---0--0---0-0-0--|
|
| Q  E E Q  E E   Q  E E  Q    E  E    Q   E  E  Q   E  E    Q   E  E E E E E
|---------------|-------------------|---------------------|--------------------|
|---------------|-------------------|---------------------|--------------------|
|-7--7-7-9--9-9-|-7--7-7-10---10-10-|-14--14-14-12--12-12-|-10--10-10-9-9-9-9--|
|---------------|-------------------|---------------------|--------------------|
|-5--5-5-7--7-7-|-5--5-5--8----8--8-|-12--12-12-10--10-10-|--8---8--8-7-7-7-7--|
|---------------|-------------------|---------------------|--------------------|


          D.S. al Coda
  N.C.
  Gtr I
  PM------------|     ~
  S S S S S S S S E E Q
|------------------------||
|------------------------||
|------------------------||
|------------------------||
|------------------------||
|-0-0-0-0-0-0-0-0-7h8p7--||
|
| Gtr II
| PM------------|     ~
| S S S S S S S S E E Q
|------------------------||
|------------------------||
|------------------------||
|------------------------||
|------------------------||
|-0-0-0-0-0-0-0-0-7h8p7--||


 Chorus Part II
  &
  E5
  Gtrs I, II
   Q   E  E  E E  E  E    Q   E  E  E E  E  E
|----------------------|----------------------|
|----------------------|----------------------|
|----------------------|----------------------|
|--3---3--3--3-3--3--3-|--3---3--3--3-3--3--3-|
|--3---3--3--3-3--3--3-|--3---3--3--3-3--3--3-|
|--3---3--3--3-3--3--3-|--3---3--3--3-3--3--3-|
|
| Gtr III
|  Q   E  E  Q    E  E    Q   E  E  Q    E  E
|----------------------|----------------------|
|----------------------|----------------------|
|-10--10-10-12---12-12-|-14--14-14-12---12-12-|
|----------------------|----------------------|
|--8---8--8-10---10-10-|-12--12-12-10---10-10-|
|----------------------|----------------------|


  B5/E                   E5
   Q   E  E  E E  E  E    Q   E  E  E E  E  E
|----------------------|-----------------------|
|----------------------|-----------------------|
|----------------------|-----------------------|
|--5---5--5--5-5--5--5-|--3---3--3--3-3--3--3--|
|--3---3--3--3-3--3--3-|--3---3--3--3-3--3--3--|
|--3---3--3--3-3--3--3-|--3---3--3--3-3--3--3--|
|
|  Q   E  E  Q    E  E    Q   E  E  Q    E  E
|----------------------|-----------------------|
|----------------------|-----------------------|
|-10--10-10-14---14-14-|-12--12-12-14---14-14--|
|----------------------|-----------------------|
|--8---8--8-12---12-12-|-10--10-10-12---12-12--|
|----------------------|-----------------------|


  D5
  Q  E E E E E E   Q  E E  E E  E  E
|----------------|-------------------|
|----------------|-------------------|
|----------------|-------------------|
|-0--0-0-0-0-0-0-|-0--0-0--0-0--0--0-|
|-0--0-0-0-0-0-0-|-0--0-0--0-0--0--0-|
|-0--0-0-0-0-0-0-|-0--0-0--0-0--0--0-|
|
| Q  E E Q   E E   Q  E E  Q    E  E
|----------------|-------------------|
|----------------|-------------------|
|-7--7-7-9---9-9-|-7--7-7-10---10-10-|
|----------------|-------------------|
|-5--5-5-7---7-7-|-5--5-5--8----8--8-|
|----------------|-------------------|


   Q   E  E  E E  E  E    Q   E  E E E E E
|----------------------|--------------------|
|----------------------|--------------------|
|----------------------|--------------------|
|--0---0--0--0-0--0--0-|--0---0--0-0-0-0-0--|
|--0---0--0--0-0--0--0-|--0---0--0-0-0-0-0--|
|--0---0--0--0-0--0--0-|--0---0--0-0-0-0-0--|
|
|  Q   E  E  Q    E  E    Q   E  E E E E E
|----------------------|--------------------|
|----------------------|--------------------|
|-14--14-14-12---12-12-|-10--10-10-9-9-9-9--|
|----------------------|--------------------|
|-12--12-12-10---10-10-|--8---8--8-7-7-7-7--|
|----------------------|--------------------|


  N.C.
  Gtrs I, II
  PM------------|     ~
  S S S S S S S S E E Q
|-----------------------||
|-----------------------||
|-----------------------||
|-----------------------||
|-----------------------||
|-0-0-0-0-0-0-0-0-7h8p7-||


 Pre Solo
  C#5   N.C.    D5  C5N.C.C5A5N.C.C5  C#5   N.C.
  Gtr I
      PM------|       PM|     PM|         PM-----------
  Q   E E E E E E   E E E E E E E E   Q   E E E E E E
|-----------------|-----------------|-----------------|
|-----------------|-----------------|-----------------|
|-7\--------------|-----------------|-----------------|
|-7\------------8S|=6-----6S3-----6-|-7\--------------|
|-5\------------6S|=4-----4S1-----4-|-5\--------------|
|-----0-0-0-0-0---|---0-0-----0-0---|-----0-0-0-0-0-0-|
|
| Gtr II
|     PM------|       PM|     PM|         PM-----------
| Q   E E E E E E   E E E E E E E E   Q   E E E E E E
|-----------------|-----------------|-----------------|
|-----------------|-----------------|-----------------|
|-7\--------------|-----------------|-----------------|
|-7\------------8S|=6-----6S3-----6-|-7\--------------|
|-5\------------6S|=4-----4S1-----4-|-5\--------------|
|-----0-0-0-0-0---|---0-0-----0-0---|-----0-0-0-0-0-0-|
|
| Gtr V
| W                 W                 W
|-----------------|-----------------|-----------------|
|-----------------|-----------------|-----------------|
|-----------------|-----------------|-----------------|
|-----------------|-----------------|-----------------|
|-----------------|-----------------|-----------------|
|-----------------|-----------------|-----------------|


 -------|         PM----|
  S S S S S S S S S S S S S  S S S
|------------------------------------|
|------------------------------------|
|------------------------------------|
|------------------------------------|
|------------------------------------|
|-0-0-0-0-7h8p7h8-0-0-0-0-8h10-8p7---|
|
|-------|         PM----|
| S S S S S S S S S S S S S  S S S
|------------------------------------|
|------------------------------------|
|------------------------------------|
|------------------------------------|
|------------------------------------|
|-0-0-0-0-3h5h7p5-0-0-0-0-5h=7-8p3---|
|
| W
|------------------------------------|
|------------------------------------|
|------------------------------------|
|------------------------------------|
|------------------------------------|
|------------------------------------|


  C#5           D5  C5    C5A5    C5
  Gtrs I, II
      PM------|       PM|     PM|
  Q   E E E E E E   E E E E E E E E
|-----------------|-----------------|
|-----------------|-----------------|
|-7\--------------|-----------------|
|-7\------------8S|=6-----6S3-----6-|
|-5\------------6S|=4-----4S1-----4-|
|-----0-0-0-0-0---|---0-0-----0-0---|
|
| Gtr V
| W                 W
|-----------------|-----------------|
|-----------------|-----------------|
|-----------------|-----------------|
|-----------------|-----------------|
|-----------------|-----------------|
|-----------------|-----------------|


  C#5 N.C.
      PM--------------------------|             ~
  Q   E E E E E E   S S S S S S S S       E   E Q
|-----------------|--------------------------------||
|-----------------|--------------------------------||
|-----------------|--------------------------------||
|-7\--------------|--------------------------------||
|-5\--------------|--------------------------------||
|-----0-0-0-0-0-0-|-0-0-0-0-0-0-0-0-------7h==8p7--||
|
| W                 H                a    H
|-----------------|--------------------------------||
|-----------------|--------------------------------||
|-----------------|--------------------------------||
|-----------------|-----------------(7)s(15)\------||
|-----------------|--------------------------------||
|-----------------|--------------------------------||


 Guitar Solo I
  C#5                    N.C.               C#5                    N.C.
        PM|                                       PM|
   E    E E   E  S S S S S S    S    S       E    E E E   S  S S S S S S S
|-----------------------------------------|--------------------------------|
|-----------------------------------------|--------------------------------|
|-----------------------------------------|--------------------------------|
|--0----------0---------------------------|--0--------0--------------------|
|--0----------0---------------------------|--0--------0--------------------|
|--0----0-0---0--0-0-0-0-5-8----7----5----|--0----0-0-0---0--0-0-0-8-7-5-7-|
|
|             ~~~~                                        ~~~~
|                               |---3---|
|  Q.        +H              a  S  S    S    H           +H
|-----------------------------------------|--------------------------------|
|-12b14-----(12)---------------15p12------|--------------------------------|
|----------------------------x---------12-|--------------------------------|
|-----------------------------------------|-15b17-------(15)---------------|
|-----------------------------------------|--------------------------------|
|-----------------------------------------|--------------------------------|


  E5    F#5         G#5                    E5          F#5       A5        G#5
   E     Q           E      Q   Q           Q           Q        Q         Q
|----------------------------------------|----------------------------------------------|
|----------------------------------------|----------------------------------------------|
|----------------------------------------|----------------------------------------------|
|----------------------------------------|----------------------------------------------|
|--3-----5-----------7------7---7--------|--3-----------5--------8---------7------------|
|--3-----5-----------7------7---7--------|--3-----------5--------8---------7------------|
|
|                                                                              ~~~~
|  S  S  S  S  S  S  E     +Q.      S  S    S  S  S  S  S  Q.       +E        +E   +S
|----------------13-17b18-(17)----/20h22p|=17-------------------------------------------|
|-------------15-------------------------|----18----------------------------------------|
|----------14----------------------------|-------19-------------------------------------|
|----13-15-------------------------------|----------19----19pb20r==(19)b21r==(19)-(19)\-|
|-15-------------------------------------|-------------20-------------------------------|
|----------------------------------------|----------------------------------------------|


  C#5                                         N.C.C#5
         PM---|
   E     E     E     E    S S S S S S   S     S
|-----------------------------------------------|
|-----------------------------------------------|
|-----------------------------------------------|
|--0-----------------0--------------------------|
|--0-----------------0--------------------------|
|--0-----0-----0-----0----0-0-0-0-5-8---7-----5-|
|
|  S  S  S  S  S  S  H                 +E
|-17h18p17----------15b17r============(15)b17---|
|----------18p15--------------------------------|
|----------------14-----------------------------|
|-----------------------------------------------|
|-----------------------------------------------|
|-----------------------------------------------|


                                               N.C.     E5                G#5  G#5
         PM---|
   E     E     E      E    S S S S   S     S S S         E     Q           E    Q      Q
|-----------------------------------------------------|-----------------------------------------|
|-----------------------------------------------------|-----------------------------------------|
|-----------------------------------------------------|-----------------------------------------|
|--0------------------0-------------------------------|-----------------------------------------|
|--0------------------0-------------------------------|--3-----5-----------7----7------7--------|
|--0-----0-----0------0----0-0-0-0---8-----7-5-7------|--3-----5-----------7----7------7--------|
|
|  S  S  S  S  S  S   Q.            +Q             a     S  S  S  S  S  S  Q       +Q    
+E
|-12h13p12--------------------------------------------|-17-13-----------------------------------|
|----------13S10----/15b17r========(15)b17r======(15)-|-------15--------------------------------|
|----------------10-----------------------------------|----------14-----------------------------|
|-----------------------------------------------------|-------------15-12-13b15---(13)---(13)\--|
|-----------------------------------------------------|-----------------------------------------|
|-----------------------------------------------------|-----------------------------------------|


                                       Guitar Solo II
  E5(type 2)  F#5(type 2) A5(A5pe 2)    C#5(type 2)
  Gtrs I, II
   Q           Q          Q  Q            E   E E E E E  E   E
   |           |          |  |            |   | | | | |  |   |
   /           /          /  /            /   / / / / /  /   /

  Gtr V
                                          ~~~~~
   S  S  S  S  S  S  H          +E        H..               +E
|----------------13-17b18------(17)\-||-/17----------------(17)\-|
|-------------15---------------------||--------------------------|
|----------14------------------------||--------------------------|
|----13-15---------------------------||--------------------------|
|-15---------------------------------||--------------------------|
|------------------------------------||--------------------------|
|
| Gtr III
|                                         ~~~~~
|  W                                      H.             Q
|------------------------------------||--------------------------|
|------------------------------------||--------------------------|
|------------------------------------||--/7----------------------|
|------------------------------------||------------------7-------|
|------------------------------------||--------------------------|
|------------------------------------||--------------------------|
|
| Gtr IV
|  W                                      E   Q   Q   E  Q
|------------------------------------||-------6---5-----10-------|
|------------------------------------||--------------------------|
|------------------------------------||--------------------------|
|------------------------------------||--------------------------|
|------------------------------------||---5-----------5----------|
|------------------------------------||--------------------------|


               B5(type 2)
  E   E E E     E E E E     E   E  E E  E E  E E
  |   | | |     | | | |     |   |  | |  | |  | |
  /   / / /     / / / /     /   /  / /  / /  / /

  W                         W
|-----------------------|-------------------------|
|-----------------------|-------------------------|
|-----------------------|-------------------------|
|-----------------------|-------------------------|
|-----------------------|-------------------------|
|-----------------------|-------------------------|
|
|               ~~~~~~~~~~~~~~~~
| H          a  H          +Q      Q    Q    Q
|-----------------------|-------------------------|
|-----------------------|-------------------10----|
|-7b9r======12s14-------|-(14)\----0---/7---------|
|------------x----------|-------------------------|
|-----------------------|-------------------------|
|-----------------------|-------------------------|
|
| Q     Q       E Q   E    +E   E  Q    Q    Q
|-6-----5---------6---5-|--(5)----10----6----5----|
|-----------------------|-------------------------|
|-----------------------|-------------------------|
|-----------------------|-------------------------|
|---------------5-------|-------5-----------------|
|-----------------------|-------------------------|


  F#5                                  A5              B5
  Gtrs I, II
    E E E E   E   E  E E    E    E E E E E E E    E  E  E E  E    E E E
|------------------------|---------------------|------------------------|
|------------------------|---------------------|------------------------|
|------------------------|---------------------|--------5-5--5----5-5-5-|
|---5-5-5-5---5---5--5-5-|--5----5-5-5-8-8-8-8-|--8--8--5-5--5----5-5-5-|
|---5-5-5-5---5---5--5-5-|--5----5-5-5-8-8-8-8-|--8--8--3-3--3----3-3-3-|
|---5-5-5-5---5---5--5-5-|--5----5-5-5-8-8-8-8-|--8--8------------------|
|
| Gtr III
|   ~~~                                ~~~~~~~~~~~~~~
|   H        +Q      Q      H          H         +Q     Q    H
|------------------------|---------------------|------------------------|
|-/22-------(22)\--------|-10b11r======x-------|------------10b11r======|
|-------------------/7---|-------------7-------|-(7)--------------------|
|------------------------|---------------------|--------7---------------|
|------------------------|---------------------|------------------------|
|------------------------|---------------------|------------------------|
|
| Gtr IV
|   E Q   Q       E  Q      Q      Q   E Q   E   +E  E  Q    Q      Q
|-----6---5---------10---|--6------5-----6---5-|-(5)---10----6------5---|
|------------------------|---------------------|------------------------|
|------------------------|---------------------|------------------------|
|------------------------|---------------------|------------------------|
|---5-------------5------|-------------5-------|-----5------------------|
|------------------------|---------------------|------------------------|


  C#5                              B5
  E  E E E E E  E E   E   E E E     E E E E     E   E  E E  E E  E  E
|-------------------|-----------------------|-------------------------|
|-------------------|-----------------------|-------------------------|
|-7--7-7-7-7-7--7-7-|-7---7-7-7-----5-5-5-5-|---5---5--5-5--5-5--5--5-|
|-7--7-7-7-7-7--7-7-|-7---7-7-7-----5-5-5-5-|---5---5--5-5--5-5--5--5-|
|-5--5-5-5-5-5--5-5-|-5---5-5-5-----3-3-3-3-|---3---3--3-3--3-3--3--3-|
|-------------------|-----------------------|-------------------------|
|
| ~~                                ~~
| H.            Q     H          a  H          +Q      Q    Q    Q
|-------------------|-----------------------|-------------------------|
|-x-----------------|-----------------------|-------------------10/---|
|-7-----------------|-7b9r======12s17-------|-(17)\----0---/7---------|
|---------------7---|------------x----------|-------------------------|
|-------------------|-----------------------|-------------------------|
|-------------------|-----------------------|-------------------------|
|
| E  Q   Q   E  Q     Q     Q       E Q   E    +E   E  Q    Q    Q
|----6---5-----10---|-6-----5---------6---5-|--(5)----10----6----5----|
|-------------------|-----------------------|-------------------------|
|-------------------|-----------------------|-------------------------|
|-------------------|-----------------------|-------------------------|
|-5----------5------|---------------5-------|-------5-----------------|
|-------------------|-----------------------|-------------------------|


  F#5                                A5
    E  E E  E  E E  E E     E  E E E  E     E     E     E
|-----------------------|------------------------------------|
|-----------------------|------------------------------------|
|-----------------------|------------------------------------|
|---5--5-5--5--5-5--5-5-|---5--5-5-5--8-----8-----8-----8----|
|---5--5-5--5--5-5--5-5-|---5--5-5-5--8-----8-----8-----8----|
|---5--5-5--5--5-5--5-5-|---5--5-5-5--8-----8-----8-----8----|
|
|                   ~~~~~~~~~~~
|   Q.      Q.      Q      +H         S  S  S  S  S  S  S  S
|-/18------17-----------|------------18p17p15----------17p13-|
|------------------15---|-(15)----------------18p17p15-------|
|-----------------------|------------------------------------|
|-----------------------|------------------------------------|
|-----------------------|------------------------------------|
|-----------------------|------------------------------------|
|
|   E  Q    Q    E  Q       Q    Q    E     Q           E
|------6----5------10---|---6----5----------6-----------5----|
|-----------------------|------------------------------------|
|-----------------------|------------------------------------|
|-----------------------|------------------------------------|
|---5------------5------|-------------5----------------------|
|-----------------------|------------------------------------|


                           B5
   E      E     E     E     E     E     E     E
|--------------------------------------------------||
|--------------------------------------------------||
|---------------5-----5-----5-----5-----5-----5----||
|--8------8-----5-----5-----5-----5-----5-----5----||
|--8------8-----3-----3-----3-----3-----3-----3----||
|--8------8----------------------------------------||
|
|  S   S  S  S  S  S  S  S  S  S  S  S  S  S  S  S
|-----------13S20p18p17----------18p15-------------||
|-15--------------------20p18p17-------15----------||
|-----14----------------------------------15-------||
|--------15----------------------------------17----||
|-----------------------------------------------15-||
|--------------------------------------------------||
|
| +E      E     Q           Q           Q
|-(5)----------10-----------6-----------5----------||
|--------------------------------------------------||
|--------------------------------------------------||
|--------------------------------------------------||
|---------5----------------------------------------||
|--------------------------------------------------||


 Interlude
  C#5                               E5
  Gtrs I, II
   Q    E E   E   E Q       E E E E  Q  E E
|------------------------|------------------|
|------------------------|------------------|
|------------------------|------------------|
|--0----0-0---0---0-0----|--0-0-0-0--3--3-3-|
|--0----0-0---0---0-0----|--0-0-0-0--3--3-3-|
|--0----0-0---0---0-0----|--0-0-0-0--3--3-3-|
|
| Gtr III
|  ~~~~
|  H         +Q     Q       W
|------------------------|------------------|
|------------------------|------------------|
|------------------------|------------------|
|------------------------|------------------|
|-17--------(17)\--------|------------------|
|------------------------|------------------|
|
| Gtr IV
|  H..                 E    H        H
|------------------------|------------------|
|-10---------------------|-10-------13------|
|---------------------10-|------------------|
|------------------------|------------------|
|------------------------|------------------|
|------------------------|------------------|


                        B5
   E E Q   E  E  E  E    Q  E E  E E Q
|---------------------|----------------|
|---------------------|----------------|
|---------------------|--5--5-5--5-5-5-|
|--3-3-3---3--3--3--3-|--5--5-5--5-5-5-|
|--3-3-3---3--3--3--3-|--3--3-3--3-3-3-|
|--3-3-3---3--3--3--3-|----------------|
|
|  W                     W
|---------------------|----------------|
|---------------------|----------------|
|---------------------|----------------|
|---------------------|----------------|
|---------------------|----------------|
|---------------------|----------------|
|
|  H       E  E  E  E    H       H
|---------------------|-15------15-----|
|-13------13----------|----------------|
|---------------------|----------------|
|------------------15-|----------------|
|---------------15----|----------------|
|------------15-------|----------------|


  B5       G#5
  Gtrs I, II
   E E E E  Q  E E    E E Q   E E E E
|------------------|------------------|
|------------------|------------------|
|--5-5-5-5---------|------------------|
|--5-5-5-5--7--7-7-|--7-7-7---7-7-7-7-|
|--3-3-3-3--7--7-7-|--7-7-7---7-7-7-7-|
|-----------7--7-7-|--7-7-7---7-7-7-7-|
|
| Gtr IV
|  H        H         H       H
|-15-------12------|-12------12-------|
|------------------|------------------|
|------------------|------------------|
|------------------|------------------|
|------------------|------------------|
|------------------|------------------|


                   A5
   Q     E  E  E E  Q      E  E   E  E Q   E E
|----------------------|-----------------------|
|----------------------|-----------------------|
|----------------------|-----------------------|
|--7-----7--7--7-7--8--|---8--8---8--8-8---8-8-|
|--7-----7--7--7-7--8--|---8--8---8--8-8---8-8-|
|--7-----7--7--7-7--8--|---8--8---8--8-8---8-8-|
|
|  Q  E  E  E  E    Q      Q      H        Q
|-12---------------13--|--13-----13-------13---|
|-------------17-------|-----------------------|
|--9-------14----------|------------------14---|
|-------14---------15--|-(15)---(15)-----------|
|----12----------------|-----------------------|
|----------------------|-----------------------|


         B5  E5                              B5
    E  E  Q   E  E  E  E    Q    E  E   E  E  Q
|------------------------|----------------------|
|------------------------|----------------------|
|------------10-10-10-10-|-10---10-10--10-10----|
|---8--8-10--10-10-10-10-|-10---10-10--10-10-10-|
|---8--8-10---8--8--8--8-|--8----8--8---8--8-10-|
|---8--8-10--------------|-------------------10-|
|
|   Q     Q   Q     Q       Q.      Q.        Q
|--13----15--13----------|-18------17-----------|
|------------------13----|-------------------15-|
|-(14)-------------------|----------------------|
|--15--------------------|----------------------|
|------------------------|----------------------|
|------------------------|----------------------|


                                  G#5
    E   E  E  E  Q   E  E    E  E Q  E E E E
|-------------------------|------------------|
|-------------------------|------------------|
|-------------------------|------------------|
|--10--10-10-10-10--10-10-|-10-10-7--7-7-7-7-|
|--10--10-10-10-10--10-10-|-10-10-7--7-7-7-7-|
|--10--10-10-10-10--10-10-|-10-10-7--7-7-7-7-|
|
|  +W                        a  W
|-------------------------|-10-15------------|
|-(15)--------------------|------------------|
|-------------------------|------------------|
|-------------------------|------------------|
|-------------------------|------------------|
|-------------------------|------------------|


   Q  E E E E Q      E  E E E   Q   E E
|----------------|-----------------------|
|----------------|-----------------------|
|----------------|-----------------------|
|--7--7-7-7-7-7--|---7--7-7-7---7---7-7--|
|--7--7-7-7-7-7--|---7--7-7-7---7---7-7--|
|--7--7-7-7-7-7--|---7--7-7-7---7---7-7--|
|
|  W                 H          H
|-15-------------|--15---------15--------|
|----------------|-----------------------|
|-12-------------|-(12)-------(12)-------|
|----------------|-----------------------|
|----------------|-----------------------|
|----------------|-----------------------|


                      A5
    E  E Q  E E E E    Q  E E E E Q
|-------------------|----------------|
|-------------------|----------------|
|-------------------|----------------|
|---7--7-7--7-7-7-7-|--8--8-8-8-8-8--|
|---7--7-7--7-7-7-7-|--8--8-8-8-8-8--|
|---7--7-7--7-7-7-7-|--8--8-8-8-8-8--|
|
|   W                  W
|-(15)--------------|-15-------------|
|-------------------|-13-------------|
|--17---------------|-12-------------|
|-------------------|----------------|
|-------------------|----------------|
|-------------------|----------------|


                                       B5
   E E  E E  Q   E E    E E  Q   E +E   Q
|--------------------|---------------------||
|--------------------|---------------------||
|--------------------|---------------------||
|--8-8--8-8--8---8-8-|--8-8--8---8-(8)h10\-||
|--8-8--8-8--8---8-8-|--8-8--8---8-(8)-10\-||
|--8-8--8-8--8---8-8-|--8-8--8---8-(8)h10\-||
|
|  Q    Q    Q   Q      Q    Q   Q      Q
|-15---13-------18---|-17-------17-----18--||
|-----------15-------|------15-------------||
|--------------------|---------------------||
|--------------------|---------------------||
|--------------------|---------------------||
|--------------------|---------------------||


 Pre Chorus
  C#5       C#5 N.C.B5                 N.C.E5        N.C.
  Gtr I
         PM     PM|                    PM|           PM|
    Q    E   E  E E  E   E      E   E  E E   E    E  E E
|---------------------------|----------------------------|
|---------------------------|----------------------------|
|---------------------------|----------------------------|
|-----------(7)-----(5)-(5)-|--(5)-(5)-----(10)-(10)-----|
|---0-------(5)-----(3)-(3)-|--(3)-(3)------(8)--(8)-----|
|---0----x------x-x---------|----------x-x-----------x-x-|
|
| Gtr II
|   PM----------------------------------------------------
|   E  E H.                     W
|---------------------------|----------------------------|
|---------------------------|----------------------------|
|---------------------------|----------------------------|
|---------------------------|----------------------------|
|---0--0--------------------|----------------------------|
|---0--0--------------------|----------------------------|
|
| Gtr IV
|   W                          +W
|-(18)----------------------|-(18)-----------------------|
|--11-----------------------|-(11)-----------------------|
|---------------------------|----------------------------|
|---------------------------|----------------------------|
|---------------------------|----------------------------|
|---------------------------|----------------------------|


  E5              N.C.C#m/E         Cm/Eb
                  PM|
    Q     E    E  E E  Q      H      H
|--------------------------|---------------|
|--------------------------|---------------|
|--------------------------|---------------|
|-(10)--(10)-(10)-----(3)--|-(3)----(2)----|
|--(8)---(8)--(8)-----(5)--|-(5)----(4)----|
|-----------------x-x-(3)--|-(3)----(2)----|
|
|----------------------------|
|   W                         W
|--------------------------|---------------|
|--------------------------|---------------|
|--------------------------|---------------|
|--------------------------|---------------|
|--------------------------|---------------|
|--------------------------|---------------|
|
|   W                         W
|--------------------------|---------------|
|--------------------------|---------------|
|--------------------------|---------------|
|--------------------------|---------------|
|--------------------------|---------------|
|--------------------------|---------------|


  C#5       C#5     B5  N.C.   B5      N.C.E5        N.C.
  Gtr I
          PM    PM|                    PM|           PM|
  Q       E  E  E E  E   E      E   E  E E   E    E  E E
|----------------------------|---------------------------|
|----------------------------|---------------------------|
|----------------------------|---------------------------|
|-----------(7)-----(5)-(5)--|-(5)-(5)-----(10)-(10)-----|
|-0---------(5)-----(3)-(3)--|-(3)-(3)------(8)--(8)-----|
|-0-------x-----x-x----------|---------x-x-----------x-x-|
|
| Gtr II
| PM------------------------------------------------------
| S S S S E  E  H               W
|----------------------------|---------------------------|
|----------------------------|---------------------------|
|----------------------------|---------------------------|
|----------------------------|---------------------------|
|-0-0-0-0-0--0---------------|---------------------------|
|-0-0-0-0-0--0---------------|---------------------------|


  E5                 N.C#m/E     Cm/Eb
                   PM|
    Q      E    E  E E Q    H    H
|-------------------------|-----------||
|-------------------------|-----------||
|-------------------------|-----------||
|-(10)---(10)-(10)-----3--|-3----2----||
|--(8)----(8)--(8)-----5--|-5----4----||
|------------------x-x-3--|-3----2----||
|
|--------------------|
|   E  E   E    E  E E Q    H    H
|-------------------------|-----------||
|-------------------------|-----------||
|-------------------------|-----------||
|----------------------3--|-3----2----||
|---0--0---0----0--0-0-5--|-5----4----||
|---0--0---0----0--0-0-3--|-3----2----||


 Chorus
  E5
  Gtrs I, II
   Q   E  E  Q   Q       Q   E  Q    E  E  E
|---------------------|----------------------|
|---------------------|----------------------|
|---------------------|----------------------|
|--3---3--3--3---3----|--3---3--3----3--3--3-|
|--3---3--3--3---3----|--3---3--3----3--3--3-|
|--3---3--3--3---3----|--3---3--3----3--3--3-|
|
| Gtr III
|  Q   E  E  Q   E  E    Q   E  E  Q    E  E
|---------------------|----------------------|
|---------------------|----------------------|
|-10--10-10-12--12-12-|-14--14-14-12---12-12-|
|---------------------|----------------------|
|--8---8--8-10--10-10-|-12--12-12-10---10-10-|
|---------------------|----------------------|


  B5/E                  E5
   Q   E  E  Q   Q       Q   E  Q    E  E  E
|---------------------|-----------------------|
|---------------------|-----------------------|
|---------------------|-----------------------|
|--5---5--5--5---5----|--3---3--3----3--3--3--|
|--3---3--3--3---3----|--3---3--3----3--3--3--|
|--3---3--3--3---3----|--3---3--3----3--3--3--|
|
|  Q   E  E  Q   E  E    Q   E  E  Q    E  E
|---------------------|-----------------------|
|---------------------|-----------------------|
|-10--10-10-14--14-14-|-12--12-12-14---14-14--|
|---------------------|-----------------------|
|--8---8--8-12--12-12-|-10--10-10-12---12-12--|
|---------------------|-----------------------|


  C#5
  Q  E E E E E E   Q  E E  E E  E  E
|----------------|-------------------|
|----------------|-------------------|
|----------------|-------------------|
|-0--0-0-0-0-0-0-|-0--0-0--0-0--0--0-|
|-0--0-0-0-0-0-0-|-0--0-0--0-0--0--0-|
|-0--0-0-0-0-0-0-|-0--0-0--0-0--0--0-|
|
| Q  E E Q   E E   Q  E E  Q    E  E
|----------------|-------------------|
|----------------|-------------------|
|-7--7-7-9---9-9-|-7--7-7-10---10-10-|
|----------------|-------------------|
|-5--5-5-7---7-7-|-5--5-5--8----8--8-|
|----------------|-------------------|


   Q   E  E  E E  E  E    Q   E  E E E E E
|----------------------|--------------------|
|----------------------|--------------------|
|----------------------|--------------------|
|--0---0--0--0-0--0--0-|--0---0--0-0-0-0-0--|
|--0---0--0--0-0--0--0-|--0---0--0-0-0-0-0--|
|--0---0--0--0-0--0--0-|--0---0--0-0-0-0-0--|
|
|  Q   E  E  Q    E  E    Q   E  E E E E E
|----------------------|--------------------|
|----------------------|--------------------|
|-14--14-14-12---12-12-|-10--10-10-9-9-9-9--|
|----------------------|--------------------|
|-12--12-12-10---10-10-|--8---8--8-7-7-7-7--|
|----------------------|--------------------|


  E5
  Gtrs I, II
   Q   E  E  E E  E  E    Q   E  E  E E  E  E
|----------------------|----------------------|
|----------------------|----------------------|
|----------------------|----------------------|
|--3---3--3--3-3--3--3-|--3---3--3--3-3--3--3-|
|--3---3--3--3-3--3--3-|--3---3--3--3-3--3--3-|
|--3---3--3--3-3--3--3-|--3---3--3--3-3--3--3-|
|
| Gtr III
|  Q   E  E  Q    E  E    Q   E  E  Q    E  E
|----------------------|----------------------|
|----------------------|----------------------|
|-10--10-10-12---12-12-|-14--14-14-12---12-12-|
|----------------------|----------------------|
|--8---8--8-10---10-10-|-12--12-12-10---10-10-|
|----------------------|----------------------|


  B5/E                   E5
   Q   E  E  E E  E  E    Q   E  E  E E  E  E
|----------------------|-----------------------|
|----------------------|-----------------------|
|----------------------|-----------------------|
|--5---5--5--5-5--5--5-|--3---3--3--3-3--3--3--|
|--3---3--3--3-3--3--3-|--3---3--3--3-3--3--3--|
|--3---3--3--3-3--3--3-|--3---3--3--3-3--3--3--|
|
|  Q   E  E  Q    E  E    Q   E  E  Q    E  E
|----------------------|-----------------------|
|----------------------|-----------------------|
|-10--10-10-14---14-14-|-12--12-12-14---14-14--|
|----------------------|-----------------------|
|--8---8--8-12---12-12-|-10--10-10-12---12-12--|
|----------------------|-----------------------|


  C#5
  Q  E E E E E E   Q  E E  E E  E  E
|----------------|-------------------|
|----------------|-------------------|
|----------------|-------------------|
|-0--0-0-0-0-0-0-|-0--0-0--0-0--0--0-|
|-0--0-0-0-0-0-0-|-0--0-0--0-0--0--0-|
|-0--0-0-0-0-0-0-|-0--0-0--0-0--0--0-|
|
| Q  E E Q   E E   Q  E E  Q    E  E
|----------------|-------------------|
|----------------|-------------------|
|-7--7-7-9---9-9-|-7--7-7-10---10-10-|
|----------------|-------------------|
|-5--5-5-7---7-7-|-5--5-5--8----8--8-|
|----------------|-------------------|


   Q   E  E  E E  E  E    Q   E  E E E E E
|----------------------|--------------------|
|----------------------|--------------------|
|----------------------|--------------------|
|--0---0--0--0-0--0--0-|--0---0--0-0-0-0-0--|
|--0---0--0--0-0--0--0-|--0---0--0-0-0-0-0--|
|--0---0--0--0-0--0--0-|--0---0--0-0-0-0-0--|
|
|  Q   E  E  Q    E  E    Q   E  E E E E E
|----------------------|--------------------|
|----------------------|--------------------|
|-14--14-14-12---12-12-|-10--10-10-9-9-9-9--|
|----------------------|--------------------|
|-12--12-12-10---10-10-|--8---8--8-7-7-7-7--|
|----------------------|--------------------|


  N.C.
  Gtrs I, II
  PM------------|     ~
  S S S S S S S S E E Q
|-----------------------||
|-----------------------||
|-----------------------||
|-----------------------||
|-----------------------||
|-0-0-0-0-0-0-0-0-7-8p7-||


 Pre Verse
  C#5 N.C.      D5  C5    C5A5    C5  C#5 N.C.
  Gtr I
      PM------|       PM|     PM|         PM-----------
  Q   E E E E E E   E E E E E E E E   Q   E E E E E E
|-----------------|-----------------|-----------------|
|-----------------|-----------------|-----------------|
|-7\--------------|-----------------|-----------------|
|-7\------------8S|=6-----6S3-----6-|-7\--------------|
|-5\------------6S|=4-----4S1-----4-|-5\--------------|
|-----0-0-0-0-0---|---0-0-----0-0---|-----0-0-0-0-0-0-|
|
| Gtr II
|     PM------|       PM|     PM|         PM-----------
| Q   E E E E E E   E E E E E E E E   Q   E E E E E E
|-----------------|-----------------|-----------------|
|-----------------|-----------------|-----------------|
|-7\--------------|-----------------|-----------------|
|-7\------------8S|=6-----6S3-----6-|-7\--------------|
|-5\------------6S|=4-----4S1-----4-|-5\--------------|
|-----0-0-0-0-0---|---0-0-----0-0---|-----0-0-0-0-0-0-|


 -------|         PM----|
  S S S S S S S S S S S S S  S S S
|------------------------------------|
|------------------------------------|
|------------------------------------|
|------------------------------------|
|------------------------------------|
|-0-0-0-0-7h8p7h8-0-0-0-0-8h10-8p7---|
|
|-------|         PM----|
| S S S S S S S S S S S S S  S S S
|------------------------------------|
|------------------------------------|
|------------------------------------|
|------------------------------------|
|------------------------------------|
|-0-0-0-0-3h5h7p5-0-0-0-0-5h=7-8p3---|


  C#5 N.C.      D5  C5    C5A5    C5
  Gtrs I, II
      PM------|       PM|     PM|
  Q   E E E E E E   E E E E E E E E
|-----------------|-----------------|
|-----------------|-----------------|
|-7\--------------|-----------------|
|-7\------------8S|=6-----6S3-----6-|
|-5\------------6S|=4-----4S1-----4-|
|-----0-0-0-0-0---|---0-0-----0-0---|


  C#5 N.C.
                   7/4
      PM--------------------------|     ~~
  Q   E E E E E E   S S S S S S S S E E Q.   +E  H
|-----------------|----------------------------------*|
|-----------------|----------------------------------*|
|-----------------|----------------------------------*|
|-7\--------------|----------------------------------*|
|-5\--------------|----------------------------------*|
|-----0-0-0-0-0-0-|-0-0-0-0-0-0-0-0-7-8p7----(7)sx---*|

--------------------------------------------
                Scream
--------------------------------------------

Transcribed by Seth "Shadows" Sanders {F.u.c.kallyourfalsebeauty@hotmail.com}


C#5
0 0 0 x x x

Cm/Eb
2 4 2 x x x

F#5
5 5 5 x x x

Eb/G
6 7 6 x x x

G#5
7 7 7 x x x


Gtr I (C# G# C# F# A# D#) - 'Rhythm I'
Gtr II (C# G# C# F# A# D#) - 'Rhythm II'
Gtr III (C# G# C# F# A# D#) - 'Lead I'
Gtr IV (C# G# C# F# A# D#) - 'Lead II'
Gtr V (C# G# C# F# A# D#) - 'Lead III'
Gtr VI (C# G# C# F# A# D#) - 'Clean Lead'


 Intro
  Q=127
  N.C.
 4/4
  Gtrs I, II
  Wx2
|--------|
|--------|
|--------|
|--------|
|--------|
|--------|


  C#5
  Gtrs I, II
  E  q  E q   Q
|------------------------|
|------------------------|
|------------------------|
|-0--0--0-0--------------|
|-0--0--0-0--------------|
|-0--0--0-0--------------|
|
| Gtr V
|             PM----------
| H.          S  S  S  S
|------------------------|
|------------------------|
|------------------------|
|------------------12-12-|
|------------12-12-------|
|------------------------|


   W
|---------------------------------------------------------|
|---------------------------------------------------------|
|---------------------------------------------------------|
|---------------------------------------------------------|
|---------------------------------------------------------|
|---------------------------------------------------------|
|
|-------------------------|                         ~~~~~
|  S  S  S  S  S  S  S  S  S  S       S      S      Q
|-------------------10-10-13-13b13.5-13pb14-14pb16-16b17--|
|-------------13-13---------------------------------------|
|-10-10-13-13---------------------------------------------|
|---------------------------------------------------------|
|---------------------------------------------------------|
|---------------------------------------------------------|


  E  q  E q   Q             W
|------------------------|----------------------------------------------|
|------------------------|----------------------------------------------|
|------------------------|----------------------------------------------|
|-0--0--0-0--------------|----------------------------------------------|
|-0--0--0-0--------------|----------------------------------------------|
|-0--0--0-0--------------|----------------------------------------------|
|
|             PM-----------------------------------------------------|~~
| H.          S  S  S  S    S  S  S  S  S  S  S  S  S  S  S  S  S  S  E
|------------------------|----------------------------------------------|
|------------------------|----------------------------------------------|
|------------------------|----------------------------------------------|
|------------------------|-15-15-15-15-12-12-12-12----------------------|
|------------12-12-12-12-|-------------------------12-12-12-12-11-11-11-|
|------------------------|----------------------------------------------|


  E  q  E q   Q             W
|------------------------|---------------------------------------------|
|------------------------|---------------------------------------------|
|------------------------|---------------------------------------------|
|-0--0--0-0--------------|---------------------------------------------|
|-0--0--0-0--------------|---------------------------------------------|
|-0--0--0-0--------------|---------------------------------------------|
|
|             PM-----------------------------------|            ~~~~~~
| H.          S  S  S  S    S  S  S  S  S  S  S  S  S  S  S  S  Q
|------------------------|-------------------10-10-13-13-16-16s20b22r==|
|------------------------|-------------13-13---------------------------|
|------------------------|-10-10-13-13---------------------------------|
|------------------12-12-|---------------------------------------------|
|------------12-12-------|---------------------------------------------|
|------------------------|---------------------------------------------|


  E  q  E q   Q      H        E Q.
|----------------|------------------------||
|----------------|------------------------||
|----------------|------------------------||
|-0--0--0-0------|------------x-x---------||
|-0--0--0-0------|------------x-x---------||
|-0--0--0-0------|------------x-x---------||
|
|             TP     TP             ~~~~~~
| H.          Q     +H.             Q
|----------------|------------------------||
|----------------|------------------------||
|------------14--|-(14)b16---------14pb16-||
|----------------|------------------------||
|----------------|------------------------||
|----------------|------------------------||


 Verse I
  $
  C#5
  E  q  E q   Q
|------------------------|
|------------------------|
|------------------------|
|-0--0--0-0--------------|
|-0--0--0-0--------------|
|-0--0--0-0--------------|
|
|             PM----------
| H.          S  S  S  S
|------------------------|
|------------------------|
|------------------------|
|------------------12-12-|
|------------12-12-------|
|------------------------|


   W
|---------------------------------------------------------|
|---------------------------------------------------------|
|---------------------------------------------------------|
|---------------------------------------------------------|
|---------------------------------------------------------|
|---------------------------------------------------------|
|
|-------------------------|                         ~~~~~
|  S  S  S  S  S  S  S  S  S  S       S      S      Q
|-------------------10-10-13-13b13.5-13pb14-14pb16-16b17--|
|-------------13-13---------------------------------------|
|-10-10-13-13---------------------------------------------|
|---------------------------------------------------------|
|---------------------------------------------------------|
|---------------------------------------------------------|


  E  q  E q   Q             W
|------------------------|----------------------------------------------|
|------------------------|----------------------------------------------|
|------------------------|----------------------------------------------|
|-0--0--0-0--------------|----------------------------------------------|
|-0--0--0-0--------------|----------------------------------------------|
|-0--0--0-0--------------|----------------------------------------------|
|
|             PM-----------------------------------------------------|~~
| H.          S  S  S  S    S  S  S  S  S  S  S  S  S  S  S  S  S  S  E
|------------------------|----------------------------------------------|
|------------------------|----------------------------------------------|
|------------------------|----------------------------------------------|
|------------------------|-15-15-15-15-12-12-12-12----------------------|
|------------12-12-12-12-|-------------------------12-12-12-12-11-11-11-|
|------------------------|----------------------------------------------|


  E  q  E q   Q             W
|------------------------|---------------------------------------------|
|------------------------|---------------------------------------------|
|------------------------|---------------------------------------------|
|-0--0--0-0--------------|---------------------------------------------|
|-0--0--0-0--------------|---------------------------------------------|
|-0--0--0-0--------------|---------------------------------------------|
|
|             PM-----------------------------------|            ~~~~~~
| H.          S  S  S  S    S  S  S  S  S  S  S  S  S  S  S  S  Q
|------------------------|-------------------10-10-13-13-16-16s20b22r==|
|------------------------|-------------13-13---------------------------|
|------------------------|-10-10-13-13---------------------------------|
|------------------12-12-|---------------------------------------------|
|------------12-12-------|---------------------------------------------|
|------------------------|---------------------------------------------|


  E q  E q  Q     H           E  E  E   E
|--------------|---------------------------||
|--------------|---------------------------||
|--------------|---------------------------||
|-0-0--0-0-----|--------------x--x--x---x--||
|-0-0--0-0-----|--------------x--x--x---x--||
|-0-0--0-0-----|--------------x--x--x---x--||
|
| Gtr VI
| W               E.  E.  E   Q     E   E
|--------------|---------------------------||
|--------------|-<5>-<7>-<7>-<5>-----------||
|--------------|-------------------<7>-----||
|--------------|-----------------------<7>-||
|--------------|-----------------------<7>-||
|--------------|---------------------------||


   Post-Chorus
    N.C.   C#5    N.C.         C#5   E5 F#G5
    Gtrs I, II
        ~~ PM         ~~~~~~~~~
    E   Q  E S E. E   E    +E  e. E. Q  E E
||----------------------|-------------------|
||o---------------------|-------------------|
||----------------------|-------------------|
||----------------------|------------3--5-6-|
||o--------0-x-0--------|------0--0--3--5-6-|
||--0sp12--0-x-0--0sp12-|-(12)-0--0--3--5-6-|


  1.
  N.C.   C#5    N.C.         C#5   C5/F#E5
      ~~ PM         ~~~~~~~~~
  E   Q  E S E. E   E    +E  e. E. Q  E E
|---------------------|--------------------||
|---------------------|-------------------o||
|---------------------|--------------------||
|---------------------|--------------------||
|--------0-x-0--------|------0--0--6--5-3-o||
|-0sp12--0-x-0--0sp12-|-(12)-0--0--6--5-3--||


  2.
                          D.S.
  D5
  Q  E E E Q  E   E E Q  q  Q
|---------------|--------------||
|---------------|--------------||
|---------------|--------------||
|-1--1-1-1-1--1-|-1-1-1--1-----||
|-1--1-1-1-1--1-|-1-1-1--1-----||
|-1--1-1-1-1--1-|-1-1-1--1-----||


 Pre-Chorus
  F#5              G#5
  Gtrs I, II
  Q  Q   E E E E   Q   Q     E  E  E E
|----------------|---------------------|
|----------------|---------------------|
|----------------|---------------------|
|-5--5---5-5-5-5-|-7---7-----7--7--7-7-|
|-5--5---5-5-5-5-|-7---7-----7--7--7-7-|
|-5--5---5-5-5-5-|-7---7-----7--7--7-7-|
|
| Gtr V
| H      H         Q.    +E  E +E  Q
|----------------|---------------------|
|----------------|---------------------|
|-------/7-------|-6-----(6)s2-(2)s5---|
|--------x-------|-x-------------------|
|-------/5-------|-4-----(4)s0-(0)s3---|
|----------------|---------------------|


  F#5                G#5
   Q   Q   E E E E   Q   Q     E  E  E E
|------------------|----------------------|
|------------------|----------------------|
|------------------|----------------------|
|--5---5---5-5-5-5-|-7---7-----7--7--7-7--|
|--5---5---5-5-5-5-|-7---7-----7--7--7-7--|
|--5---5---5-5-5-5-|-7---7-----7--7--7-7--|
|
| +H       H         Q.    +E  E +E  Q
|------------------|----------------------|
|------------------|----------------------|
|-(5)-----/7-------|-6-----(6)s2-(2)s5----|
|----------x-------|-x--------------------|
|-(3)-----/5-------|-4-----(4)s0-(0)s3----|
|------------------|----------------------|


  F#5                    G#5
   Q    Q   E  E E  E    Q   Q     E  E  E E
|----------------------|---------------------|
|----------------------|---------------------|
|----------------------|---------------------|
|--5----5---5--5-5--5--|-7---7-----7--7--7-7-|
|--5----5---5--5-5--5--|-7---7-----7--7--7-7-|
|--5----5---5--5-5--5--|-7---7-----7--7--7-7-|
|
| +Q    Q   Q.     +E    Q.    +E  E +E  Q
|----------------------|---------------------|
|----------------------|---------------------|
|-(5)s=10\--7------(7)S|=6-----(6)s2-(2)s5---|
|-----------x----------|-x-------------------|
|-(3)s==8\--5------(5)S|=4-----(4)s0-(0)s3---|
|----------------------|---------------------|


  F#5                G#5
   Q   Q   E E E E   E  E E E  E  E  E  E
|------------------|-----------------------||
|------------------|-----------------------||
|------------------|-----------------------||
|--5---5---5-5-5-5-|-7--7-7-7--7--7--7--7--||
|--5---5---5-5-5-5-|-7--7-7-7--7--7--7--7--||
|--5---5---5-5-5-5-|-7--7-7-7--7--7--7--7--||
|
|                           PM
| +H       H         Q.     E  E  E  E  E
|------------------|-----------------------||
|------------------|-----------------------||
|-(5)-----/7-------|-6--------14-14-14-14--||
|----------x-------|-x---------x--x--x--x--||
|-(3)-----/5-------|-4--------12-12-12-12--||
|------------------|--------0--------------||


   Chorus
                                      1.
    F#5    C#5E       A5     B5  A5   C#5
    Gtr I
         PM
    Q  E E Q   E  E   Q  E E  Q  Q    W
||------------------|---------------|------------|
||o-----------------|---------------|------------|
||---------7--10-10-|---------------|------------|
||--5--x---7---x--x-|-8--x-8-10--8--|-0----------|
||o-5--x-5-5---8--8-|-8--x-8-10--8--|-0----------|
||--5--x-5----------|-8--x-8-10--8--|-0----------|
|
|   Gtr II
|        PM
|   Q  E E Q   E  E   Q  E E  Q  Q    Q  Q  Q  Q
||------------------|---------------|------------|
||o-----------------|---------------|------------|
||---------7---7--7-|---------------|------------|
||--5--x---7---7--7-|-8--x-8-10--8--|-0--0--0--0-|
||o-5--x-5-5---5--5-|-8--x-8-10--8--|-0--0--0--0-|
||--5--x-5----------|-8--x-8-10--8--|-0--0--0--0-|


                  2.
  D5
  W               Wx2
|--------------||--------||
|-------------o||--------||
|--------------||--------||
|-1------------||--------||
|-1-----------o||--------||
|-1------------||--------||
|
| Q  Q  Q  Q      Wx2
|--------------||--------||
|-------------o||--------||
|--------------||--------||
|-1--1--1--1---||--------||
|-1--1--1--1--o||--------||
|-1--1--1--1---||--------||


 Verse II
  C#5
  Gtrs I, II
  E  q  E q   Q
|------------------------|
|------------------------|
|------------------------|
|-0--0--0-0--------------|
|-0--0--0-0--------------|
|-0--0--0-0--------------|
|
| Gtr V
|             PM----------
| H.          S  S  S  S
|------------------------|
|------------------------|
|------------------------|
|------------------12-12-|
|------------12-12-------|
|------------------------|


   W
|---------------------------------------------------------|
|---------------------------------------------------------|
|---------------------------------------------------------|
|---------------------------------------------------------|
|---------------------------------------------------------|
|---------------------------------------------------------|
|
|-------------------------|                         ~~~~~
|  S  S  S  S  S  S  S  S  S  S       S      S      Q
|-------------------10-10-13-13b13.5-13pb14-14pb16-16b17--|
|-------------13-13---------------------------------------|
|-10-10-13-13---------------------------------------------|
|---------------------------------------------------------|
|---------------------------------------------------------|
|---------------------------------------------------------|


  E  q  E q   Q             W
|------------------------|----------------------------------------------|
|------------------------|----------------------------------------------|
|------------------------|----------------------------------------------|
|-0--0--0-0--------------|----------------------------------------------|
|-0--0--0-0--------------|----------------------------------------------|
|-0--0--0-0--------------|----------------------------------------------|
|
|             PM-----------------------------------------------------|~~
| H.          S  S  S  S    S  S  S  S  S  S  S  S  S  S  S  S  S  S  E
|------------------------|----------------------------------------------|
|------------------------|----------------------------------------------|
|------------------------|----------------------------------------------|
|------------------------|-15-15-15-15-12-12-12-12----------------------|
|------------12-12-12-12-|-------------------------12-12-12-12-11-11-11-|
|------------------------|----------------------------------------------|


  E  q  E q   Q             W
|------------------------|---------------------------------------------|
|------------------------|---------------------------------------------|
|------------------------|---------------------------------------------|
|-0--0--0-0--------------|---------------------------------------------|
|-0--0--0-0--------------|---------------------------------------------|
|-0--0--0-0--------------|---------------------------------------------|
|
|             PM-----------------------------------|            ~~~~~~
| H.          S  S  S  S    S  S  S  S  S  S  S  S  S  S  S  S  Q
|------------------------|-------------------10-10-13-13-16-16s20b22r==|
|------------------------|-------------13-13---------------------------|
|------------------------|-10-10-13-13---------------------------------|
|------------------12-12-|---------------------------------------------|
|------------12-12-------|---------------------------------------------|
|------------------------|---------------------------------------------|


  Gtrs I, II
  E q  E q  Q    H    E E E E
|--------------|--------------||
|--------------|--------------||
|--------------|--------------||
|-0-0--0-0-----|------x-x-x-x-||
|-0-0--0-0-----|------x-x-x-x-||
|-0-0--0-0-----|------x-x-x-x-||


   Post-Chorus
    N.C.   C#5    N.C.         C#5   E5 F#G5
    Gtrs I, II
        ~~ PM         ~~~~~~~~~
    E   Q  E S E. E   E    +E  e. E. Q  E E
||----------------------|-------------------|
||o---------------------|-------------------|
||----------------------|-------------------|
||----------------------|------------3--5-6-|
||o--------0-x-0--------|------0--0--3--5-6-|
||--0sp12--0-x-0--0sp12-|-(12)-0--0--3--5-6-|


  1.
  N.C.   C#5    N.C.         C#5   C5/F#E5
      ~~ PM         ~~~~~~~~~
  E   Q  E S E. E   E    +E  e. E. Q  E E
|---------------------|--------------------||
|---------------------|-------------------o||
|---------------------|--------------------||
|---------------------|--------------------||
|--------0-x-0--------|------0--0--6--5-3-o||
|-0sp12--0-x-0--0sp12-|-(12)-0--0--6--5-3--||


  2.
  D5                     C#5
                         PM  ~~~ ~
  Q  E E E Q  E   E E Q  E   E E E
|---------------|------------------||
|---------------|------------------||
|---------------|------------------||
|-1--1-1-1-1--1-|-1-1-1--0---0-0-0-||
|-1--1-1-1-1--1-|-1-1-1--0---0-0-0-||
|-1--1-1-1-1--1-|-1-1-1--0-/10-0-0-||


   Chorus
    F#5    C#5E       A5     B5  A5   C#5           D5
    Gtr I
         PM
    Q  E E Q   E  E   Q  E E  Q  Q    W             W
||------------------|---------------|-------------|--------------||
||o-----------------|---------------|-------------|-------------o||
||---------7--10-10-|---------------|-------------|--------------||
||--5--x---7---x--x-|-8--x-8-10--8--|-0-----------|-1------------||
||o-5--x-5-5---8--8-|-8--x-8-10--8--|-0-----------|-1-----------o||
||--5--x-5----------|-8--x-8-10--8--|-0-----------|-1------------||
|
|   Gtr II
|        PM
|   Q  E E Q   E  E   Q  E E  Q  Q    Q  Q  Q  Q    Q  Q  Q  Q
||------------------|---------------|-------------|--------------||
||o-----------------|---------------|-------------|-------------o||
||---------7---7--7-|---------------|-------------|--------------||
||--5--x---7---7--7-|-8--x-8-10--8--|-0--0--0--0--|-1--1--1--1---||
||o-5--x-5-5---5--5-|-8--x-8-10--8--|-0--0--0--0--|-1--1--1--1--o||
||--5--x-5----------|-8--x-8-10--8--|-0--0--0--0--|-1--1--1--1---||


 Guitar Solo
  C#5
  Gtr V
   T                T                T                T
   |-------------------------------3--------------------------------|
   S  S  S S  S  S  S  S  S S  S  S  S  S  S S  S  S  S  S  S S  S  S
|-18p13p10p9h10h13-17p13p10p9h10h13-17p13p10p9h10h13-17p13p10p9h10h13-|
|---------------------------------------------------------------------|
|---------------------------------------------------------------------|
|---------------------------------------------------------------------|
|---------------------------------------------------------------------|
|---------------------------------------------------------------------|
|
| Gtrs I, II
|  E       q                E        E       q                E
|---------------------------------------------------------------------|
|---------------------------------------------------------------------|
|---------------------------------------------------------------------|
|--0-------0----------------0--------0-------0----------------0-------|
|--0-------0----------------0--------0-------0----------------0-------|
|--0-------0----------------0--------0-------0----------------0-------|


  Cm/Eb
   |---------------------------------3----------------------------------|
   S  S  S  S  S  S  S  S  S  S  S  S  S  S  S  S  S  S  S  S  S  S  S  S
|-17----------------17----------------17----------------17----------------|
|----17----------17----17----------17----17----------17----17----------17-|
|-------18----18----------18----18----------18----18----------18----18----|
|----------19----------------19----------------19----------------19-------|
|-------------------------------------------------------------------------|
|-------------------------------------------------------------------------|
|
|  E        q                 E        E        q                 E
|-------------------------------------------------------------------------|
|-------------------------------------------------------------------------|
|-------------------------------------------------------------------------|
|--2--------2-----------------2--------2--------2-----------------2S======|
|--4--------4-----------------4--------4--------4-----------------4S======|
|--2--------2-----------------2--------2--------2-----------------2S======|


  A5
   T                T                T                T
   |-------------------------------3--------------------------------|
   S  S  S S  S  S  S  S  S S  S  S  S  S  S S  S  S  S  S  S S  S  S
|-18p13p10p9h10h13-17p13p10p9h10h13-17p13p10p9h10h13-17p13p10p9h10h13-|
|---------------------------------------------------------------------|
|---------------------------------------------------------------------|
|---------------------------------------------------------------------|
|---------------------------------------------------------------------|
|---------------------------------------------------------------------|
|
|  E       q                E        E       q                E
|---------------------------------------------------------------------|
|---------------------------------------------------------------------|
|---------------------------------------------------------------------|
|--8-------8----------------8--------8-------8----------------8-------|
|--8-------8----------------8--------8-------8----------------8-------|
|--8-------8----------------8--------8-------8----------------8-------|


  Eb/G                                 G#5
                                                          ~~
    |------------------------3-------------------------|
    S  S  S  S  S  S  S  S  S  S  S  S  S  S  S  S  S  S  Q
|-/18-15p14p13-14h15h17-15p14p13-14h15-18p15p14-13h14h16-17---|
|-------------------------------------------------------------|
|-------------------------------------------------------------|
|-------------------------------------------------------------|
|-------------------------------------------------------------|
|-------------------------------------------------------------|
|
|   E        q                 E        E        q          E
|-------------------------------------------------------------|
|-------------------------------------------------------------|
|-------------------------------------------------------------|
|---6--------6-----------------6--------7--------7----------7-|
|---7--------7-----------------7--------7--------7----------7-|
|---6--------6-----------------6--------7--------7----------7-|


  C#5
   T                T                T                T
   |-------------------------------3--------------------------------|
   S  S  S S  S  S  S  S  S S  S  S  S  S  S S  S  S  S  S  S S  S  S
|-18p13p10p9h10h13-17p13p10p9h10h13-17p13p10p9h10h13-17p13p10p9h10h13-|
|---------------------------------------------------------------------|
|---------------------------------------------------------------------|
|---------------------------------------------------------------------|
|---------------------------------------------------------------------|
|---------------------------------------------------------------------|
|
|  E       q                E        E       q                E
|---------------------------------------------------------------------|
|---------------------------------------------------------------------|
|---------------------------------------------------------------------|
|--0-------0----------------0--------0-------0----------------0-------|
|--0-------0----------------0--------0-------0----------------0-------|
|--0-------0----------------0--------0-------0----------------0-------|


  Cm/Eb
   |---------------------------------3----------------------------------|
   S  S  S  S  S  S  S  S  S  S  S  S  S  S  S  S  S  S  S  S  S  S  S  S
|-17----------------17----------------17----------------17----------------|
|----17----------17----17----------17----17----------17----17----------17-|
|-------18----18----------18----18----------18----18----------18----18----|
|----------19----------------19----------------19----------------19-------|
|-------------------------------------------------------------------------|
|-------------------------------------------------------------------------|
|
|  E        q                 E        E        q                 E
|-------------------------------------------------------------------------|
|-------------------------------------------------------------------------|
|-------------------------------------------------------------------------|
|--2--------2-----------------2--------2--------2-----------------2S======|
|--4--------4-----------------4--------4--------4-----------------4S======|
|--2--------2-----------------2--------2--------2-----------------2S======|


  A5
   |---------------------------------3----------------------------------|
   S  S  S  S  S  S  S  S  S  S  S  S  S  S  S  S  S  S  S  S  S  S  S  S
|-18p17----------17h18p17----------17h18p17----------17h18p17----------18p|
|-------15----15----------15----15----------15----15----------15----15----|
|----------15----------------15----------------15----------------15-------|
|-------------------------------------------------------------------------|
|-------------------------------------------------------------------------|
|-------------------------------------------------------------------------|
|
|  E        q                 E        E        q                 E
|-------------------------------------------------------------------------|
|-------------------------------------------------------------------------|
|-------------------------------------------------------------------------|
|--8--------8-----------------8--------8--------8-----------------8-------|
|--8--------8-----------------8--------8--------8-----------------8-------|
|--8--------8-----------------8--------8--------8-----------------8-------|


  Eb/G                                G#5
                                                          ~~~~
   |------------------------3-------------------------|
   S  S  S  S  S  S  S  S  S  S  S  S  S  S  S  S  S  S   Q
|-17-15p14h17-14h15h18-20p17p15-17h18-21p20p17-18h21p18-[18]---||
|--------------------------------------------------------------||
|--------------------------------------------------------------||
|--------------------------------------------------------------||
|--------------------------------------------------------------||
|--------------------------------------------------------------||
|
|  E        q                 E        E        E         E  E
|--------------------------------------------------------------||
|--------------------------------------------------------------||
|--------------------------------------------------------------||
|--6--------6-----------------6--------7--------7---------7--7-||
|--7--------7-----------------7--------7--------7---------7--7-||
|--6--------6-----------------6--------7--------7---------7--7-||


 Guitar Duet
  C#5                               Cm/Eb
  Gtrs I, II
    Q      E    E  E  E   E   E      Q     E  E  E E  E  E
    |      |    |  |  |   |   |      |     |  |  | |  |  |
    /      /    /  /  /   /   /      /     /  /  / /  /  /

  Gtr V
   +E   e  H.                        W
|-(18)s=x-------------------------|------------------------|
|---------------------------------|------------------------|
|---------------------------------|------------------------|
|---------------------------------|------------------------|
|---------------------------------|------------------------|
|---------------------------------|------------------------|
|
| Gtr III
|                         ~~~
|   E   E  E    E  E  E   Q          E  E  E  E  Q    Q
|---------------------------------|------------------------|
|---------------------------------|------------------------|
|-------9h10-------9h10-/14-------|--------9----12s==10----|
|-/12---------/12-----------------|-11-12----11------------|
|---------------------------------|------------------------|
|---------------------------------|------------------------|
|
| Gtr IV
|                         ~~~                         ~~
|   E   E  E    E  E  E   E  +E      E  E  E  E  Q    Q
|------------------------10-(10)\-|------------------------|
|---------10---------10-----------|------------------------|
|-/10h=12------10h12--------------|-------15----15S==14----|
|---------------------------------|-14-15----14------------|
|---------------------------------|------------------------|
|---------------------------------|------------------------|


  F#5                        Eb/G         G#5
    Q     E  E  E  E  E  E     Q     E  E  Q     E  E
    |     |  |  |  |  |  |     |     |  |  |     |  |
    /     /  /  /  /  /  /     /     /  /  /     /  /

    W                          W
|--------------------------|--------------------------|
|--------------------------|--------------------------|
|--------------------------|--------------------------|
|--------------------------|--------------------------|
|--------------------------|--------------------------|
|--------------------------|--------------------------|
|
|   E  E  E  E  E  E  E  E     E  E  E  E  E  E  E  E
|-/18p15-------------------|--------------------------|
|--------15----------15----|-/17p14----------------14-|
|-----------15----15----15-|-----------13h14----14----|
|--------------17----------|--------14-------14-------|
|--------------------------|--------------------------|
|--------------------------|--------------------------|
|
|   E  E  E  E  E  E  E  E     E  E  E  E  E  E  E  E
|--15----------------------|--15----------------------|
|-----15-------------------|-----17----------------17-|
|--------15----------15----|--------15-17-18----18----|
|-----------17----17----17-|-----------------19-------|
|--------------17----------|--------------------------|
|--------------------------|--------------------------|


  C#5                             Cm/Eb
  Gtrs I, II
    E  E  E   E  E  E   E   E      E  E  E  E  E E  E E
    |  |  |   |  |  |   |   |      |  |  |  |  | |  | |
    /  /  /   /  /  /   /   /      /  /  /  /  / /  / /

  Gtr III
                        ~~~                         ~~
    E  E  E   E  E  E   E  +E      E  E  E  E  Q    Q
|-------------------------------|-----------------------|
|-------------------------------|-----------------------|
|------9h10------9h10-/14-(14)\-|--------9----12---10---|
|-/12-------/12-----------------|-11-12----11-----------|
|-------------------------------|-----------------------|
|-------------------------------|-----------------------|
|
| Gtr IV
|                       ~~~                         ~~
|   E  E  E   E  E  E   E  +E      E  E  E  E  Q    Q
|----------------------10-(10)\-|-----------------------|
|--------10--------10-----------|-----------------------|
|-/10h12-----10h12--------------|-------15----15S==14---|
|-------------------------------|-14-15----14-----------|
|-------------------------------|-----------------------|
|-------------------------------|-----------------------|


  F#5                        Eb/G         G#5
    E  E  E  E  E  E  E  E     Q     Q     Q     Q
    |  |  |  |  |  |  |  |     |     |     |     |
    /  /  /  /  /  /  /  /     /     /     /     /

    E  E  E  E  E  E  E  E     E  E  E  E  E  E  E  E
|-/18p15-------------------|---------------------------|
|--------15----------15----|-/17p14----------------14--|
|-----------15----15----15-|-----------13h14----14-----|
|--------------17----------|--------14-------14--------|
|--------------------------|---------------------------|
|--------------------------|---------------------------|
|
|   E  E  E  E  E  E  E  E     E  E  E  E  E  E  E  E
|--15----------------------|--15-----------------------|
|-----15-------------------|-----17----------------17--|
|--------15----------15----|--------15-17-18----18-----|
|-----------17----17----17-|-----------------19--------|
|--------------17----------|---------------------------|
|--------------------------|---------------------------|


  C#5                             Cm/Eb
    E  E  E   E  E  E   E   E      E  E  E  E    E E  E E
    |  |  |   |  |  |   |   |      |  |  |  |    | |  | |
    /  /  /   /  /  /   /   /      /  /  /  /    / /  / /

                        ~~~                      ~~~~~~~
    E  E  E   E  E  E   Q          E  E  E  E    Q    Q
|-------------------------------|-------------------------|
|-------------------------------|-------------------------|
|------9h10------9h10-/14-------|--------9-----/12---10---|
|-/12-------/12-----------------|-11-12----11-------------|
|-------------------------------|-------------------------|
|-------------------------------|-------------------------|
|
|                       ~~~                      ~~~
|   E  E  E   E  E  E   E  +E      E  E  E  E    H
|----------------------10-(10)\-|-------------------------|
|--------10--------10-----------|-------------------------|
|-/10h12-----10h12--------------|-------15-----/15--------|
|-------------------------------|-14-15----14\------------|
|-------------------------------|-------------------------|
|-------------------------------|-------------------------|


  F#5                        Eb/G         G#5
    E  E  E  E  E  E  E  E     Q     Q     Q     Q
    |  |  |  |  |  |  |  |     |     |     |     |
    /  /  /  /  /  /  /  /     /     /     /     /

    E  E  E  E  E  E  E  E     E  E  E  E  E  E  E  E
|-/18p15-------------------|---------------------------|
|--------15----------15----|-/17p14----------------14--|
|-----------15----15----15-|-----------13h14----14-----|
|--------------17----------|--------14-------14--------|
|--------------------------|---------------------------|
|--------------------------|---------------------------|
|
|   E  E  E  E  E  E  E  E     E  E  E  E  E  E  E  E
|--15----------------------|--15-----------------------|
|-----15-------------------|-----17----------------17--|
|--------15----------15----|--------15-17-18----18-----|
|-----------17----17----17-|-----------------19--------|
|--------------17----------|---------------------------|
|--------------------------|---------------------------|


  C#5                             Cm/Eb
    E  E  E   E  E  E   E   E      E  E  E  E    E E  E E
    |  |  |   |  |  |   |   |      |  |  |  |    | |  | |
    /  /  /   /  /  /   /   /      /  /  /  /    / /  / /

                        ~~~                      ~~~~~~~
    E  E  E   E  E  E   Q          E  E  E  E    Q    Q
|-------------------------------|-------------------------|
|-------------------------------|-------------------------|
|------9h10------9h10-/14-------|--------9------12---10---|
|-/12-------/12-----------------|-11-12----11-------------|
|-------------------------------|-------------------------|
|-------------------------------|-------------------------|
|
|                       ~~~                      ~~~
|   E  E  E   E  E  E   E  +E      E  E  E  E    H
|----------------------10-(10)\-|-------------------------|
|--------10--------10-----------|-------------------------|
|-/10h12-----10h12--------------|-------15-----/15--------|
|-------------------------------|-14-15----14\------------|
|-------------------------------|-------------------------|
|-------------------------------|-------------------------|


  F#5                        Eb/G         G#5
    E  E  E  E  E  E  E  E     Q     Q     Q     Q
    |  |  |  |  |  |  |  |     |     |     |     |
    /  /  /  /  /  /  /  /     /     /     /     /

    E  E  E  E  E  E  E  E     E  E  E  E  E  E  E  E
|-/18p15-------------------|----------------------------||
|--------15----------15----|-/17p14---------------------||
|-----------15----15----15-|-----------13h14----14p12\--||
|--------------17----------|--------14-------14---------||
|--------------------------|----------------------------||
|--------------------------|----------------------------||
|
|   E  E  E  E  E  E  E  E     E  E  E  E  E  E  E  E
|--15----------------------|--15------------------------||
|-----15-------------------|-----17---------------------||
|--------15----------15----|--------15-17-18----18-17\--||
|-----------17----17----17-|-----------------19---------||
|--------------17----------|----------------------------||
|--------------------------|----------------------------||


 Verse III
  N.C.                                    E5F#5
  Gtrs I, II
      ~~     ~~     ~~~~~~~~~    ~~
  E   Q  E   Q  E   E    +E  E   Q  E   E E E
|---------------------|-----------------------|
|---------------------|-----------------------|
|---------------------|-----------------------|
|---------------------|-----------------------|
|---------------------|-------------------3-5-|
|-0sp12--0sp12--0sp12-|-(12)-0sp12--0sp12-3-5-|


  N.C.                              C5/F#E5
      ~~     ~~     ~~~~~~~~~    ~~
  E   Q  E   Q  E   E    +E  E   Q  Q  E E
|---------------------|---------------------|
|---------------------|---------------------|
|---------------------|---------------------|
|---------------------|---------------------|
|---------------------|-------------6--5-3--|
|-0sp12--0sp12--0sp12-|-(10)-0sp12--6--5-3--|


  N.C.                                    E5F#5
      ~~     ~~     ~~~~~~~~~    ~~
  E   Q  E   Q  E   E    +E  E   Q  E   E E E
|---------------------|-----------------------|
|---------------------|-----------------------|
|---------------------|-----------------------|
|---------------------|-----------------------|
|---------------------|-------------------3-5-|
|-0sp12--0sp12--0sp12-|-(12)-0sp12--0sp12-3-5-|


  D5                        C#5
  E E E E E E E E   E E E E E E E E
|-----------------|------------------||
|-----------------|------------------||
|-----------------|------------------||
|-1-1-1-1-1-1-1-1-|-1-1-1-1-0-0-0-0--||
|-1-1-1-1-1-1-1-1-|-1-1-1-1-0-0-0-0--||
|-1-1-1-1-1-1-1-1-|-1-1-1-1-0-0-0-0--||

[Repeat Pre-Chorus]

   Chorus
                                      1.
    F#5    C#5E       A5     B5  A5   C#5
    Gtr I
         PM
    Q  E E Q   E  E   Q  E E  Q  Q    W
||------------------|---------------|------------|
||o-----------------|---------------|------------|
||---------7--10-10-|---------------|------------|
||--5--x---7---x--x-|-8--x-8-10--8--|-0----------|
||o-5--x-5-5---8--8-|-8--x-8-10--8--|-0----------|
||--5--x-5----------|-8--x-8-10--8--|-0----------|
|
|   Gtr II
|        PM
|   Q  E E Q   E  E   Q  E E  Q  Q    Q  Q  Q  Q
||------------------|---------------|------------|
||o-----------------|---------------|------------|
||---------7---7--7-|---------------|------------|
||--5--x---7---7--7-|-8--x-8-10--8--|-0--0--0--0-|
||o-5--x-5-5---5--5-|-8--x-8-10--8--|-0--0--0--0-|
||--5--x-5----------|-8--x-8-10--8--|-0--0--0--0-|


                  2.
  D5
  W               Wx2
|--------------||--------||
|-------------o||--------||
|--------------||--------||
|-1------------||--------||
|-1-----------o||--------||
|-1------------||--------||
|
| Q  Q  Q  Q      Wx2
|--------------||--------||
|-------------o||--------||
|--------------||--------||
|-1--1--1--1---||--------||
|-1--1--1--1--o||--------||
|-1--1--1--1---||--------||


 Outro
  C#5
  Gtrs I, II
  E q   E q   Q     W                   E q     E q    Q     W
|-----------------|-----------------|----------------------|-------------------|
|-----------------|-----------------|----------------------|-------------------|
|-----------------|-----------------|----------------------|-------------------|
|-0-0---0-0-------|-----------------|---0-0-----0-0--------|-------------------|
|-0-0---0-0-------|-----------------|---0-0-----0-0--------|-------------------|
|-0-0---0-0-------|-----------------|---0-0-----0-0--------|-------------------|
|
| Gtr VI
| E E E E E E E E   E E E E E E E E     E E  E  E E  E E E   E E  E E E E E E
|---0h1---0h1-5p0-|-----0---3p0-1p0-|--/8p5--------------7p|=5-----------------|
|-3-----3---------|-2h3---2---------|--------5---------5---|---5------5---3----|
|-------------7---|-----------7-----|-----------5----5-----|------5-----5---5--|
|---5h7---5h7---5-|-----5---5---7p5-|-/10-7-------7------9-|-7------7----------|
|-5-----5---------|-4h5---4---------|-------10---------7---|---7------7---5----|
|-----------------|-----------------|----------10p7-10-----|-----10p7---6---6--|
| E E E E E E E E   E E E E E E E E     E E  E  E E  E E E   E E  E E E E E E
|
| Gtr V  At low volume
| E E E E E E E E   E E E E E E E E     E E  E  E E  E E E   E E  E E E E E E
|-5---5---5-------|-5---5---5---5---|---5----5----5----5---|-5--------5---5----|
|---6---8---6---8-|---8---6---8---6-|-----6-----8----6---8-|---6----8---6---8--|
|-------------7---|-----------------|----------------------|------7------------|
|-----------------|-----------------|----------------------|-------------------|
|-----------------|-----------------|----------------------|-------------------|
|-----------------|-----------------|----------------------|-------------------|


   E  q   E q   Q     W                 E q   E q   Q     W
|-------------------|-----------------|-----------------|------------------|
|-------------------|-----------------|-----------------|------------------|
|-------------------|-----------------|-----------------|------------------|
|--0--0---0-0-------|-----------------|-0-0---0-0-------|------------------|
|--0--0---0-0-------|-----------------|-0-0---0-0-------|------------------|
|--0--0---0-0-------|-----------------|-0-0---0-0-------|------------------|
|
|  H        H         W                 W                 W
|--8\-------2-0-----|-------------0---|-5---------------|-3---0------------|
|-----------3---3---|-5---------3---3-|-----------------|---3---1----------|
|---------0-------0-|---------1-------|-2-------2-------|-0-------2--------|
|-------2-----------|-2-----0---------|---2---2-------2-|-----------2------|
|-/3----------------|---3-2-----------|-----0-----2h3---|-------------0h2--|
|-------------------|-----------------|-----------------|------------------|
|  Q    E E E E E E   E E E E E E E E   E E E E E E E E   E E E E E E E E
|
|  E  E E E E E E E   E E E E E E E E   E E E E E E E E   E E E E E E E E
|--5----5---5-------|-5---5---5---5---|-5---5---5---5---|-5-------5---5----|
|-----6---8---6---8-|---8---6---8---6-|---6---8---6---8-|---6---8---6---8--|
|---------------7---|-----------------|-----------------|-----7------------|
|-------------------|-----------------|-----------------|------------------|
|-------------------|-----------------|-----------------|------------------|
|-------------------|-----------------|-----------------|------------------|


   E  q   E q   Q     W                 E q   E q   Q      W
|-------------------|-----------------|-----------------|--------------------|
|-------------------|-----------------|-----------------|--------------------|
|-------------------|-----------------|-----------------|--------------------|
|--0--0---0-0-------|-----------------|-0-0---0-0-------|--------------------|
|--0--0---0-0-------|-----------------|-0-0---0-0-------|--------------------|
|--0--0---0-0-------|-----------------|-0-0---0-0-------|--------------------|
|
|  E  E E E E E E E   E E E E E E E E   E E E E E E E E    E  E E E E E E E
|-----0h1---0h1-5p0-|-----0---3p0-1p0-|---0h1---0h1-5p0-|-------0---3p0-1p0--|
|--3------3---------|-2h3---2---------|-3-----3---------|--2h=3---2----------|
|---------------7---|-----------7-----|-------------7---|-------------7------|
|-----5h7---5h7---5-|-----5---5---7p5-|---5h7---5h7---5-|-------5---5---7p5--|
|--5------5---------|-4-5---4---------|-5-----5---------|--4--5---4----------|
|-------------------|-----------------|-----------------|--------------------|
|  E  E E E E E E E   E E E E E E E E   E E E E E E E E    E  E E E E E E E
|
|  E  E E E E E E E   E E E E E E E E   E E E E E E E E    E  E E E E E E E
|-[5]---5---5-------|-5---5---5---5---|-5---5---5---5---|-[5]-------5---5----|
|-----6---8---6---8-|---8---6---8---6-|---6---8---6---8-|-----6---8---6---8--|
|---------------7---|-----------------|-----------------|-------7------------|
|-------------------|-----------------|-----------------|--------------------|
|-------------------|-----------------|-----------------|--------------------|
|-------------------|-----------------|-----------------|--------------------|


  E q   E q   Q     W                 E q   E q   Q     W
|-----------------|-----------------|-----------------|------------------|
|-----------------|-----------------|-----------------|------------------|
|-----------------|-----------------|-----------------|------------------|
|-0-0---0-0-------|-----------------|-0-0---0-0-------|------------------|
|-0-0---0-0-------|-----------------|-0-0---0-0-------|------------------|
|-0-0---0-0-------|-----------------|-0-0---0-0-------|------------------|
|
| E E E E E E E E   E E E E E E E E   E E E E E E E E   E E E E E E E E
|---0h1---0h1-5p0-|-----0---3p0-1p0-|---0h1---0h1-5p0-|-----0---3p0-1p0--|
|-3-----3---------|-2h3---2---------|-3-----3---------|-2h3---2----------|
|-------------7---|-----------7-----|-------------7---|-----------7------|
|---5h7---5h7---5-|-----5---5---7p5-|---5h7---5h7---5-|-----5---5---7p5--|
|-5-----5---------|-4h5---4---------|-5-----5---------|-4h5---4----------|
|-----------------|-----------------|-----------------|------------------|
| E E E E E E E E   E E E E E E E E   E E E E E E E E   E E E E E E E E
|
| E E E E E E E E   E E E E E E E E   E E E E E E E E   E E E E E E E E
|-5---5---5-------|-5---5---5---5---|-5---5---5---5---|-5-------5---5----|
|---6---8---6---8-|---8---6---8---6-|---6---8---6---8-|---6---8---6---8--|
|-------------7---|-----------------|-----------------|-----7------------|
|-----------------|-----------------|-----------------|------------------|
|-----------------|-----------------|-----------------|------------------|
|-----------------|-----------------|-----------------|------------------|


  E q   E q   Q     W                 E q     E  q   Q    W
|-----------------|-----------------|-------------------|------*|
|-----------------|-----------------|-------------------|------*|
|-----------------|-----------------|-------------------|------*|
|-0-0---0-0-------|-----------------|-0-0-----0--0------|------*|
|-0-0---0-0-------|-----------------|-0-0-----0--0------|------*|
|-0-0---0-0-------|-----------------|-0-0-----0--0------|------*|
|
| E E E E E E E E   E E E E E E E E   E E  E  E +H        W
|---0h1---0h1-5p0-|-----0---3p0-1p0-|---0h=1------------|------*|
|-3-----3---------|-2h3---2---------|-3-------3-(3)-----|------*|
|-------------7---|-----------7-----|-------------------|------*|
|---5h7---5h7---5-|-----5---5---7p5-|-------------------|------*|
|-5-----5---------|-4h5---4---------|-5-----------------|------*|
|-----------------|-----------------|-------------------|------*|
| E E E E E E E E   E E E E E E E E   w
|
|                                          >
|                                       ~~~~~~
| E E E E E E E E   E E E E E E E E   E E +H.             W
|-5---5---5-------|-5---5---5---5---|-5-----------------|------*|
|---6---8---6---8-|---8---6---8---6-|---6-(6)-----------|------*|
|-------------7---|-----------------|-------------------|------*|
|-----------------|-----------------|-------------------|------*|
|-----------------|-----------------|-------------------|------*|
|-----------------|-----------------|-------------------|------*|

----------------------------------------------------
                   Afterlife
----------------------------------------------------

Transcribed by Seth Sanders {F.u.c.kallyourfalsebeauty@hotmail.com}

D5
0 0 0 x x x

Bb5
x 1 3 3 x x

G5
5 5 5 x x x

Eb5
1 1 1 x x x

A5
x 0 2 2 x x


Gtr I (D A D G B E) - 'Rhythm I'
Gtr II (D A D G B E) - 'Rhythm II'
Gtr III (D A D G B E) - 'Lead I'
Gtr IV (D A D G B E) - 'Lead II'
Gtr V (D A D G B E) - 'Lead III'
Gtr VI (D A D G B E) - 'Violin'


 Violin Intro
  Q=114
 4/4
  Gtr VI
  H     Q   Q     +H      Q   Q     +H      Q   Q     +H     Q  Q
|--------------|-----------------|-----------------|---------------|
|--------------|-----------------|-----------------|---------------|
|------14--12--|-(12)----12--10--|-(10)----14--12--|-(12)----8--7--|
|--------------|-----------------|-----------------|---------------|
|------12--10--|-(10)----10---8--|--(8)----12--10--|-(10)----6--5--|
|--------------|-----------------|-----------------|---------------|
  H     Q   Q     +H      Q   Q     +H      Q   Q     +H     Q  Q


  +H      Q   Q     +H      Q   q     Q  q   Q  q      Q   q    Q   q
|----------------|-----------------|---------------|-------------------||
|----------------|-----------------|---------------|-/17--15--/17--15--||
|-(7)----14--12--|-(12)----12--10--|-/9--7--/9--7--|-------------------||
|----------------|-----------------|---------------|-/14--12--/14--12--||
|-(5)----12--10--|-(10)----10---8--|-/7--5--/7--5--|-------------------||
|----------------|-----------------|---------------|-------------------||
  +H      Q   Q     +H      Q   q     Q  q   Q  q      Q   q    Q   q


 Intro
  Gtr III
            ~~~                     ~~~
   E.  E.   Q   E  E  E    E.  E.   H       E
|-----------------------|---------------------|
|---------/17-----------|---------/18---------|
|-12--14\------14-12-14-|-12--14\----------14-|
|-----------------------|---------------------|
|-----------------------|---------------------|
|-----------------------|---------------------|
|
| Gtr IV
|           ~~~                     ~~~
|  E.  E.   Q   E  E  E    E.  E.   H       E
|-----------------------|---------------------|
|-----------------------|---------/15---------|
|---------/17-----------|---------------------|
|-14--15\------15-14-15-|-14--15\----------15-|
|-----------------------|---------------------|
|-----------------------|---------------------|
|
| Gtrs I, II
|  E.  E.   Q   E  Q       E.  E.   Q  E Q
|-----------------------|---------------------|
|-----------------------|---------------------|
|-----------------------|--3---3----3--3-3----|
|--0---0----0---0--0----|--3---3----3--3-3----|
|--0---0----0---0--0----|--1---1----1--1-1----|
|--0---0----0---0--0----|---------------------|


            ~~~                                ~~~~
   E.  E.   H       E    Q        +E    E     +H
|---------------------|----------------17b18-(17)-----|
|---------/20------18-|-20b22r===(20)-----------------|
|-12--14\-------------|-------------------------------|
|---------------------|-------------------------------|
|---------------------|-------------------------------|
|---------------------|-------------------------------|
|
|           ~~~                                ~~~~
|  E.  E.   H       E    Q        +E    E     +H
|---------------------|-------------------------------|
|---------/17------15-|-17b18r===(17)-/18b20-(18)-----|
|---------------------|-------------------------------|
|-14--15\-------------|-------------------------------|
|---------------------|-------------------------------|
|---------------------|-------------------------------|
|
|  E.  E.   Q  E Q       E.   E.        Q         E Q
|---------------------|-------------------------------|
|---------------------|-------------------------------|
|---------------------|-------------------------------|
|--5---5----5--5-5----|--1----1---------1---------1-0-|
|--5---5----5--5-5----|--1----1---------1---------1-0-|
|--5---5----5--5-5----|--1----1---------1---------1-0-|


   S  S  S  S  E  S  S  S  S  E  S  S  S  S
|-12h13p12-------12h13p12-------12h13p12----|
|----------15-------------15-------------15-|
|-------------14-------------14-------------|
|-------------------------------------------|
|-------------------------------------------|
|-------------------------------------------|
|
|  S  S  S  S  E  S  S  S  S  E  S  S  S  S
|-15h17p15-------15h17p15-------15h17p15----|
|----------18p15----------18p15----------18-|
|-------------------------------------------|
|-------------------------------------------|
|-------------------------------------------|
|-------------------------------------------|
|
|  E.       E.    Q           E  Q
|-------------------------------------------|
|-------------------------------------------|
|-------------------------------------------|
|--0--------0-----0-----------0--0----------|
|--0--------0-----0-----------0--0----------|
|--0--------0-----0-----------0--0----------|


   S  S  S  S  E  S  S  S  S  E  S  S  S  S
|-12h13p12-------12h13p12-------12h13p12----|
|----------15-------------15-------------15-|
|-------------15-------------15-------------|
|-------------------------------------------|
|-------------------------------------------|
|-------------------------------------------|
|
|  S  S  S  S  E  S  S  S  S  E  S  S  S  S
|-15h17p15-------15h17p15-------15h17p15----|
|----------18p15----------18p15----------18-|
|-------------------------------------------|
|-------------------------------------------|
|-------------------------------------------|
|-------------------------------------------|
|
|  E.       E.    Q           E  Q
|-------------------------------------------|
|-------------------------------------------|
|--3--------3-----3-----------3--3----------|
|--3--------3-----3-----------3--3----------|
|--1--------1-----1-----------1--1----------|
|-------------------------------------------|


   S  S  S  S  E  S  S  S  S  E  S  S  S  S
|-20h22p20-------20h22p20-------20h22p20----|
|----------23p20----------23p20----------23-|
|-------------------------------------------|
|-------------------------------------------|
|-------------------------------------------|
|-------------------------------------------|
|
|  S  S  S  S  E  S  S  S  S  E  S  S  S  S
|-17h18p17-------17h18p17-------17h18p17----|
|----------20-------------20-------------20-|
|-------------19-------------19-------------|
|-------------------------------------------|
|-------------------------------------------|
|-------------------------------------------|
|
|  E.       E.    Q           E  Q
|-------------------------------------------|
|-------------------------------------------|
|-------------------------------------------|
|--5--------5-----5-----------5--5----------|
|--5--------5-----5-----------5--5----------|
|--5--------5-----5-----------5--5----------|


   S  S  S  S  E  S  S  S  S  E    E     +E
|-20h22p20-------20h22p20----20\-/20b22-(20)\-||
|----------23p20----------23------------------||
|---------------------------------------------||
|---------------------------------------------||
|---------------------------------------------||
|---------------------------------------------||
|
|                                         ~~~~~
|  S  S  S  S  E  S  S  S  S  E    E     +E
|-17h18p17-------17h18p17----17\-/17b18-(17)\-||
|----------20-------------20------------------||
|-------------19------------------------------||
|---------------------------------------------||
|---------------------------------------------||
|---------------------------------------------||
|
|  E.       E.    Q           E    Q
|---------------------------------------------||
|---------------------------------------------||
|---------------------------------------------||
|--1--------1-----1-----------1----0----------||
|--1--------1-----1-----------1----0----------||
|--1--------1-----1-----------1----0----------||


 Pre-Verse
  Gtr II
            PM--|                    PM--|
  E.   E.   e e e E.   S      +E     e e e  H
|---------------------------|----------------------------------||
|---------------------------|----------------------------------||
|---------------------------|----------------------------------||
|---------------------------|----------------------------------||
|-5tr7-5tr8-0-0-0-5tr7-5tr8-|-(5tr8)-0-0-0---------------------||
|-----------0-0-0-----------|--------0-0-0-(3)p(0)-(5)p(0)-(6)-||
|                              H            E   S   E   S   E
|
| Gtr I
|           PM--|                    PM--|
| Q.        e e e Q            E     e e e  H
|---------------------------|----------------------------------||
|---------------------------|----------------------------------||
|---------------------------|----------------------------------||
|---------------------------|----------------------------------||
|-----------0-0-0-----------|--x-----0-0-0---------------------||
|-----------0-0-0-----------|--x-----0-0-0---------------------||


   Verse I
                                             1.,2.,3.
    Gtrs I, II
              PM--|                    PM--|
    E.   E.   e e e E.   S      +E     e e e E. E. E  4x
||----------------------------|-----------------------||
||o---------------------------|----------------------o||
||----------------------------|-----------------------||
||----------------------------|--------------3--5--6--||
||o-5tr7-5tr8-0-0-0-5tr7-5tr8-|-(5tr8)-0-0-0-3--5--6-o||
||------------0-0-0-----------|--------0-0-0-3--5--6--||


  4.
  Gtr II
  E. E. E E. E. E   W
|-----------------|------|
|-----------------|------|
|-----------------|------|
|-3--5--6-6--5--3-|------|
|-3--5--6-6--5--3-|------|
|-3--5--6-6--5--3-|------|
|
| Gtr I
| E. E. E E. E. E   w
|-----------------|------|
|-----------------|------|
|-----------------|------|
|-3--5--6-6--5--3-|-x----|
|-3--5--6-6--5--3-|-x----|
|-3--5--6-6--5--3-|-x----|


  E E S S E E.  E. E   w          E E S S E  E.  E. E
|--------------------|----------|---------------------|
|--------------------|----------|---------------------|
|-5-5-5-5-5S9--10S12-|-x--------|-5-5-5-5-5S12--14S17-|
|-x-x-x-x-x-x---x--x-|-x--------|-x-x-x-x-x--x---x--x-|
|-3-3-3-3-3S7---8S10-|-x--------|-3-3-3-3-3S10--12S15-|
|--------------------|----------|---------------------|
|
|                                 <
| W                    W          W
|--------------------|----------|---------------------|
|--------------------|----------|---------------------|
|--------------------|----------|-5-------------------|
|--------------------|----------|-5-------------------|
|--------------------|----------|-3-------------------|
|--------------------|----------|---------------------|


  Gtr I
  PM            PM|
  E  E  E.    S S S  E  E  S S   E E S S E S S E E E
|------------------------------|---------------------|
|------------------------------|---------------------|
|------------------------------|-5-5-5-5-5-5-5-5-5-5-|
|------------------------------|-5-5-5-5-5-5-5-5-5-5-|
|------------------------------|-3-3-3-3-3-3-3-3-3-3-|
|-0-15-14b15r17-0-0-15p14-15p0-|---------------------|
|
| Gtr II
| PM            PM|
| E  E  E.    S S S  E  E  S S   E E S S E S S E E E
|------------------------------|---------------------|
|------------------------------|---------------------|
|------------------------------|-5-5-5-5-5-5-5-5-5-5-|
|------------------------------|-5-5-5-5-5-5-5-5-5-5-|
|------------------------------|-3-3-3-3-3-3-3-3-3-3-|
|-0-15-14b15r17-0-0--8p=7--8p0-|---------------------|


  E E E E E E Q    E E Q  H
|----------------|-------------||
|----------------|-------------||
|-3-3-3-3-3-3-3--|-5-5-5--6----||
|-3-3-3-3-3-3-3--|-5-5-5--7----||
|-1-1-1-1-1-1-1--|-3-3-3--4----||
|----------------|-------------||
|
| E E E E E E Q    E E Q  H
|----------------|-------------||
|----------------|-------------||
|-3-3-3-3-3-3-3--|-5-5-5--6----||
|-3-3-3-3-3-3-3--|-5-5-5--7----||
|-1-1-1-1-1-1-1--|-3-3-3--4----||
|----------------|-------------||


 Pre-Chorus
  Gtrs I, II
    PM----|   PM|   PM|       PM----|   PM|   PM|
  E S S S S E S S E S S E   E S S S S E S S E S S E
|-------------------------|-------------------------|
|-------------------------|-------------------------|
|-------------------------|-------------------------|
|-------------------------|-3---------3-----5-------|
|-0---------0-----0-----3-|-1-1-1-1-1-1-3-3-3-----3-|
|-0-0-0-0-0-0-0-0-0-3-3-3-|-------------------3-3-3-|


    PM----|   PM|   PM|       PM----|   PM----------|
  E S S S S E S S E S S E   E S S S S E S S S S S S e
|-------------------------|-----------------------------||
|-------------------------|-----------------------------||
|-------------------------|-----------------------------||
|-------------------------|-3---------3-----------------||
|-0---------0-----0-----3-|-1-1-1-1-1-1-1-1-1-1-1-1-1---||
|-0-0-0-0-0-0-0-0-0-3-3-3-|-----------------------------||


 Chorus
  Gtrs I, II
  Q    Q  E E  E E   Q    Q  E E  E E     Q     Q    E  E E E    Q  Q  E E E E
|------------------|------------------|-----------------------|----------------|
|------------------|------------------|-----------------------|----------------|
|------------------|-5----5--5-5--5-5-|---7-----7----7--7-7-7-|--3--3--3-3-3-3-|
|-3----3--3-3--3-3-|-5----5--5-5--5-5-|---7-----7----7--7-7-7-|--3--3--3-3-3-3-|
|-3----3--3-3--3-3-|-3----3--3-3--3-3-|---5-----5----5--5-5-5-|--1--1--1-1-1-1-|
|-3----3--3-3--3-3-|------------------|-----------------------|----------------|
|
| Gtr V
| E E  Q  Q    Q     E E  Q  Q    Q      +E   Q    Q    Q   E    W
|------------------|------------------|-----------------------|----------------|
|------------------|------------------|-----------------------|----------------|
|-5-5S10--9---10---|-5-5S10--9---10---|-(10)S14---12---10---9S|=10-------------|
|-x-x--x--x----x---|-x-x--x--x----x---|-------x----x----x---x-|--x-------------|
|-3-3S=8--7----8---|-3-3S=8--7----8---|--(8)S12---10----8---7S|==8-------------|
|------------------|------------------|-----------------------|----------------|


  Q    Q  E E  E E   Q    Q  E E  E E
|------------------|------------------|
|------------------|------------------|
|------------------|-5----5--5-5--5-5-|
|-3----3--3-3--3-3-|-5----5--5-5--5-5-|
|-3----3--3-3--3-3-|-3----3--3-3--3-3-|
|-3----3--3-3--3-3-|------------------|
|
| E E  Q  Q    Q     E E  Q  Q    Q
|------------------|------------------|
|------------------|------------------|
|-5-5S10--9---10---|-5-5S10--9---10---|
|-x-x--x--x----x---|-x-x--x--x----x---|
|-3-3S=8--7----8---|-3-3S=8--7----8---|
|------------------|------------------|


    Q     Q    E  E E E    Q   Q   E  E  E E
|-----------------------|--------------------|
|-----------------------|--------------------|
|---7-----7----7--7-7-7-|--3---3---3--3--3-3-|
|---7-----7----7--7-7-7-|--3---3---3--3--3-3-|
|---5-----5----5--5-5-5-|--1---1---1--1--1-1-|
|-----------------------|--------------------|
|
|  +E   Q    Q    Q   E    Q   Q   E  Q.
|-----------------------|--------------------|
|-----------------------|--------------------|
|-(10)S14---12---10---9S|=10--10--10-10------|
|-------x----x----x---x-|--x---x---x--x------|
|--(8)S12---10----8---7S|==8---8---8--8------|
|-----------------------|--------------------|


   E  E E E q  Q
|-----------------||
|-----------------||
|--3--3-3-3-3-----||
|--3--3-3-3-3-----||
|--1--1-1-1-1-----||
|-----------------||
|
|  h        H
|-----------------||
|-----------------||
|-10\-------------||
|--x--------------||
|--8\-------------||
|-----------------||


   Verse II
                                             1.,2.,3.
    Gtrs I, II
              PM--|                    PM--|
    E.   E.   e e e E.   S      +E     e e e E. E. E  4x
||----------------------------|-----------------------||
||o---------------------------|----------------------o||
||----------------------------|-----------------------||
||----------------------------|--------------3--5--6--||
||o-5tr7-5tr8-0-0-0-5tr7-5tr8-|-(5tr8)-0-0-0-3--5--6-o||
||------------0-0-0-----------|--------0-0-0-3--5--6--||


  4.
  Gtr II
  E. E. E E. E. E   W
|-----------------|------|
|-----------------|------|
|-----------------|------|
|-3--5--6-6--5--3-|------|
|-3--5--6-6--5--3-|------|
|-3--5--6-6--5--3-|------|
|
| Gtr I
| E. E. E E. E. E   w
|-----------------|------|
|-----------------|------|
|-----------------|------|
|-3--5--6-6--5--3-|-x----|
|-3--5--6-6--5--3-|-x----|
|-3--5--6-6--5--3-|-x----|


  E E S S E E.  E. E   w          E E S S E  E.  E. E
|--------------------|----------|---------------------|
|--------------------|----------|---------------------|
|-5-5-5-5-5S9--10S12-|-x--------|-5-5-5-5-5S12--14S17-|
|-x-x-x-x-x-x---x--x-|-x--------|-x-x-x-x-x--x---x--x-|
|-3-3-3-3-3S7---8S10-|-x--------|-3-3-3-3-3S10--12S15-|
|--------------------|----------|---------------------|
|
|                                 <
| W                    W          W
|--------------------|----------|---------------------|
|--------------------|----------|---------------------|
|--------------------|----------|-5-------------------|
|--------------------|----------|-5-------------------|
|--------------------|----------|-3-------------------|
|--------------------|----------|---------------------|


  Gtr I
  PM            PM|
  E  E  E.    S S S  E  E  S S   E E S S E S S E E E
|------------------------------|---------------------|
|------------------------------|---------------------|
|------------------------------|-5-5-5-5-5-5-5-5-5-5-|
|------------------------------|-5-5-5-5-5-5-5-5-5-5-|
|------------------------------|-3-3-3-3-3-3-3-3-3-3-|
|-0-15-14b15r17-0-0-15p14-15p0-|---------------------|
|
| Gtr II
| PM            PM|
| E  E  E.    S S S  E  E  S S   E E S S E S S E E E
|------------------------------|---------------------|
|------------------------------|---------------------|
|------------------------------|-5-5-5-5-5-5-5-5-5-5-|
|------------------------------|-5-5-5-5-5-5-5-5-5-5-|
|------------------------------|-3-3-3-3-3-3-3-3-3-3-|
|-0-15-14b15r17-0-0--8p=7--8p0-|---------------------|


  E E E E E E Q    E E Q  H
|----------------|-------------||
|----------------|-------------||
|-3-3-3-3-3-3-3--|-5-5-5--6----||
|-3-3-3-3-3-3-3--|-5-5-5--7----||
|-1-1-1-1-1-1-1--|-3-3-3--4----||
|----------------|-------------||
|
| E E E E E E Q    E E Q  H
|----------------|-------------||
|----------------|-------------||
|-3-3-3-3-3-3-3--|-5-5-5--6----||
|-3-3-3-3-3-3-3--|-5-5-5--7----||
|-1-1-1-1-1-1-1--|-3-3-3--4----||
|----------------|-------------||


 Pre-Chorus
  Gtrs I, II
    PM----|   PM|   PM|       PM----|   PM|   PM|
  E S S S S E S S E S S E   E S S S S E S S E S S E
|-------------------------|-------------------------|
|-------------------------|-------------------------|
|-------------------------|-------------------------|
|-------------------------|-3---------3-----5-------|
|-0---------0-----0-----3-|-1-1-1-1-1-1-3-3-3-----3-|
|-0-0-0-0-0-0-0-0-0-3-3-3-|-------------------3-3-3-|


    PM----|   PM|   PM|       PM----|   PM----------|
  E S S S S E S S E S S E   E S S S S E S S S S S S e
|-------------------------|-----------------------------||
|-------------------------|-----------------------------||
|-------------------------|-----------------------------||
|-------------------------|-3---------3-----------------||
|-0---------0-----0-----3-|-1-1-1-1-1-1-1-1-1-1-1-1-1---||
|-0-0-0-0-0-0-0-0-0-3-3-3-|-----------------------------||


   Chorus
    Gtrs I, II
    Q    Q  E E  E E   Q    Q   E E  E E
||-------------------|-------------------|
||o------------------|-------------------|
||-------------------|-5----5---5-5--5-5-|
||--3----3--3-3--3-3-|-5----5---5-5--5-5-|
||o-3----3--3-3--3-3-|-3----3---3-3--3-3-|
||--3----3--3-3--3-3-|-------------------|
|
|   Gtr III
|   E E  Q  Q    Q     E E  Q   Q    Q
||-------------------|-------------------|
||o------------------|-------------------|
||--5-5S10--9---10---|-5-5S10---9---10---|
||--x-x--x--x----x---|-x-x--x---x----x---|
||o-3-3S=8--7----8---|-3-3S=8---7----8---|
||-------------------|-------------------|
|
|   Gtr IV
|   E E  Q  Q    Q     E E  Q   Q    Q
||-------------------|-------------------|
||o------------------|-------------------|
||--9-9S10--9---10---|-9-9S14--12----7---|
||--x-x--x--x----x---|-x-x--x---x----x---|
||o-7-7S=8--7----8---|-7-7S12--10----5---|
||-------------------|-------------------|


    Q     Q    E  E E  E    Q  Q  E E E E
|------------------------|-----------------|
|------------------------|-----------------|
|---7-----7----7--7-7--7-|--3--3--3-3-3-3--|
|---7-----7----7--7-7--7-|--3--3--3-3-3-3--|
|---5-----5----5--5-5--5-|--1--1--1-1-1-1--|
|------------------------|-----------------|
|
|  +E   Q    Q    Q    E    W
|------------------------|-----------------|
|------------------------|-----------------|
|-(10)S14---12---10----9S|=10--------------|
|-------x----x----x----x-|--x--------------|
|--(8)S12---10----8----7S|==8--------------|
|------------------------|-----------------|
|
|  +E   Q    Q    Q    E    W
|------------------------|-----------------|
|------------------------|-----------------|
|--(7)S10----9----7---12S|==7--------------|
|-------x----x----x----x-|--x--------------|
|--(5)S=8----7----5---10S|==5--------------|
|------------------------|-----------------|


  Q    Q   E E  E E   Q    Q   E E  E E
|-------------------|-------------------|
|-------------------|-------------------|
|-------------------|-5----5---5-5--5-5-|
|-3----3---3-3--3-3-|-5----5---5-5--5-5-|
|-3----3---3-3--3-3-|-3----3---3-3--3-3-|
|-3----3---3-3--3-3-|-------------------|
|
| E E  Q   Q    Q     E E  Q   Q    Q
|-------------------|-------------------|
|-------------------|-------------------|
|-5-5S10---9---10---|-5-5S10---9---10---|
|-x-x--x---x----x---|-x-x--x---x----x---|
|-3-3S=8---7----8---|-3-3S=8---7----8---|
|-------------------|-------------------|
|
| E E  Q   Q    Q     E E  Q   Q    Q
|-------------------|-------------------|
|-------------------|-------------------|
|-9-9S14--12----7---|-9-9S14--12---14---|
|-x-x--x---x----x---|-x-x--x---x----x---|
|-7-7S12--10----5---|-7-7S12--10---12---|
|-------------------|-------------------|


    Q     Q    E  E  E  E     Q      Q     E E E E
|-------------------------|-------------------------||
|-------------------------|------------------------o||
|---7-----7----7--7--7--7-|---3------3-----3-3-3-3--||
|---7-----7----7--7--7--7-|---3------3-----3-3-3-3--||
|---5-----5----5--5--5--5-|---1------1-----1-1-1-1-o||
|-------------------------|-------------------------||
|
|  +E   Q    Q    Q     E    +E   E  Q     H
|-------------------------|-------------------------||
|-------------------------|------------------------o||
|-(10)S14---12---10----14-|-(14)-10s12-----7--------||
|-------x----x----x-----x-|-------x--x-----x--------||
|--(8)S12---10----8----12-|-(12)--8s10-----5-------o||
|-------------------------|-------------------------||
|
|  +E   Q    Q    E  E  E    +E   Q     E  H
|-------------------------|-------------------------||
|-------------------------|------------------------o||
|-(14)S10----9---14-14S17-|-(17)-14----12-10--------||
|-------x----x----x--x--x-|-------x-----x--x--------||
|-(12)S=8----7---12-12S15-|-(15)-12----10--8-------o||
|-------------------------|-------------------------||


    E  E E E E E E E
|--------------------||
|--------------------||
|---3--3-3-3-3-3-3-3-||
|---3--3-3-3-3-3-3-3-||
|---1--1-1-1-1-1-1-1-||
|--------------------||
|
|   ~~~~
|  +W
|--------------------||
|--------------------||
|--(7)---------------||
|--------------------||
|--(5)---------------||
|--------------------||
|
|   ~~~~
|  +W
|--------------------||
|--------------------||
|-(10)---------------||
|--------------------||
|--(8)---------------||
|--------------------||


 Interlude
  Gtrs I, II
   PM--------------------------------------------------------------------
   S  S E     S S  E S S  E  S S  E    S  S E     S S  E S S E S S   E
|-----------------------------------|-----------------------------------|
|-----------------------------------|-----------------------------------|
|-----------------------------------|-----------------------------------|
|-----------------------------------|-----------------------------------|
|--0--0-0-----0-0--0-0-0--0--0-0--0-|--8--8-8-----8-8--8-8-8-8-8-8---8--|
|--0--0-0-----0-0--0-0-0--0--0-0--0-|--8--8-8-----8-8--8-8-8-8-8-8---8--|
|
| Gtr VI
|  E.      E.      Q      E  E    E    E.      E.      H            +E
|-----------------------------------|-----------------------------------|
|-----------------17----------------|-----------------15-----------(18)-|
|-12------14------17-----14-12---14-|-12------14------------------------|
|-14------15-------------15-14---15-|-14------15--------------------15--|
|-----------------------------------|-----------------------------------|
|-----------------------------------|-----------------------------------|
   E.      E.      Q      E  E    E    E.      E.      H             E


 ----------------------------------------------------------------|
  S  S E     S S  E S S E S S   E    S  S E     S S  E S S E S S   E
|----------------------------------|-------------------------------------|
|----------------------------------|-------------------------------------|
|----------------------------------|-------------------------------------|
|----------------------------------|-------------------------------------|
|-5--5-5-----5-5--5-5-5-5-5-5---5--|-8--8-8-----8-8--8-7-7-7-7-7---7-----|
|-5--5-5-----5-5--5-5-5-5-5-5---5--|-8--8-8-----8-8--8-7-7-7-7-7---7-----|
|
| E.      E.      H            +E    E.      E.      H            +E
|----------------12-----------(12)-|----------------13-----------(13)----|
|-8------10------13----------------|-8------10------15-------------------|
|-9------10--------------------12--|-9------10--------------------14-----|
|----------------------------------|-------------------------------------|
|----------------------------------|-------------------------------------|
|----------------------------------|-------------------------------------|
  E.      E.      H             E    E.      E.      H             E


   PM--------------------------------------------------------------------
   S  S E     S S  E S S  E  S S  E    S  S E     S S  E S S E S S   E
|-----------------------------------|-----------------------------------|
|-----------------------------------|-----------------------------------|
|-----------------------------------|-----------------------------------|
|-----------------------------------|-----------------------------------|
|--0--0-0-----0-0--0-0-0--0--0-0--0-|--8--8-8-----8-8--8-8-8-8-8-8---8--|
|--0--0-0-----0-0--0-0-0--0--0-0--0-|--8--8-8-----8-8--8-8-8-8-8-8---8--|
|
|  E.      E.      Q      E  E    E    E.      E.      H            +E
|-----------------------------------|-----------------------------------|
|-----------------17----------------|-----------------15-----------(18)-|
|-12------14------17-----14-12---14-|-12------14------------------------|
|-14------15-------------15-14---15-|-14------15--------------------15--|
|-----------------------------------|-----------------------------------|
|-----------------------------------|-----------------------------------|
   E.      E.      Q      E  E    E    E.      E.      H             E


 ----------------------------------------------------------------|
  S  S E     S S  E  S S E  S  S  E       S S E S S E  S S E S S E
|--------------------------------------|------------------------------||
|--------------------------------------|------------------------------||
|--------------------------------------|------------------------------||
|--------------------------------------|------------------------------||
|-5--5-5-----5-5--5--5-5-5--5--5--5----|--8-8-8-8-8-8--7-7-7-7-7-7----||
|-5--5-5-----5-5--5--5-5-5--5--5--5----|--8-8-8-8-8-8--7-7-7-7-7-7----||
|
| E.      E.      Q.        S  S  S  S    H            H
|----------------15--------------13-15-|-17-----------18--------------||
|-8------10------17--------14-17-15-17-|-18-----------20--------------||
|-9------10----------------14-17-------|------------------------------||
|--------------------------------------|------------------------------||
|--------------------------------------|------------------------------||
|--------------------------------------|------------------------------||
  E.      E.      Q.        S  S  S  S    H            H


 Bridge
  Gtr I
   Q  Q  Q  Q    Q  Q  Q  Q    Q  Q  Q  Q     Q  Q   Q  Q
|--------------|-------------|-------------|---------------|
|--------------|-------------|-------------|---------------|
|--------------|-3--3--3--3--|-------------|--3--3---2--2--|
|--0--0--0--0--|-3--3--3--3--|-5--5--5--5--|--3--3---2--2--|
|--0--0--0--0--|-1--1--1--1--|-5--5--5--5--|--1--1---4--4--|
|--0--0--0--0--|-------------|-5--5--5--5--|---------------|
|
| Gtr II
|  W             W             W              H      H
|--------------|-------------|-------------|---------------|
|--------------|-------------|-------------|---------------|
|--------------|-3-----------|-------------|--3------2-----|
|--0-----------|-3-----------|-5-----------|--3------2-----|
|--0-----------|-1-----------|-5-----------|--1------4-----|
|--0-----------|-------------|-5-----------|---------------|
|
| Gtr VI
|  >
|  W             W             W              Q  q   Q  q
|-17-----------|-------------|-------------|---------------|
|-18-----------|-------------|-------------|-10--8--10--8--|
|--------------|-------------|-------------|-10--9--10--9--|
|--------------|-------------|-------------|---------------|
|--------------|-------------|-------------|---------------|
|--------------|-------------|-------------|---------------|
   W                                          Q  q   Q  q


    Q  Q  Q  Q    Q  Q  Q  Q    Q  Q  Q  Q     Q  Q   Q  Q
||--------------|-------------|-------------|-----------------||
||o-------------|-------------|-------------|----------------o||
||--------------|-3--3--3--3--|-------------|--3--3---2--2----||
||--0--0--0--0--|-3--3--3--3--|-5--5--5--5--|--3--3---2--2----||
||o-0--0--0--0--|-1--1--1--1--|-5--5--5--5--|--1--1---4--4---o||
||--0--0--0--0--|-------------|-5--5--5--5--|-----------------||
|
|   W             W             W              H      H
||--------------|-------------|-------------|-----------------||
||o-------------|-------------|-------------|----------------o||
||--------------|-3-----------|-------------|--3------2-------||
||--0-----------|-3-----------|-5-----------|--3------2-------||
||o-0-----------|-1-----------|-5-----------|--1------4------o||
||--0-----------|-------------|-5-----------|-----------------||
|
|   W             W             W              Q  q   Q  q
||--------------|-------------|-------------|-----------------||
||o-------------|-------------|-------------|-10--8--10--8---o||
||--------------|-------------|-------------|-10--9--10--9----||
||--------------|-------------|-------------|-----------------||
||o-------------|-------------|-------------|----------------o||
||--------------|-------------|-------------|-----------------||
                                               Q  q   Q  q


  Q  Q  Q  Q    Q  Q  Q  Q    Q  Q  Q  Q      Q   Q    Q   Q
|-------------|-------------|-------------|-------------------||
|-------------|-------------|-------------|-------------------||
|-------------|-3--3--3--3--|-------------|---3---3----2---2--||
|-0--0--0--0--|-3--3--3--3--|-5--5--5--5--|---3---3----2---2--||
|-0--0--0--0--|-1--1--1--1--|-5--5--5--5--|---1---1----4---4--||
|-0--0--0--0--|-------------|-5--5--5--5--|-------------------||
|
| W             W             W               H        H
|-------------|-------------|-------------|-------------------||
|-------------|-------------|-------------|-------------------||
|-------------|-3-----------|-------------|---3--------2------||
|-0-----------|-3-----------|-5-----------|---3--------2------||
|-0-----------|-1-----------|-5-----------|---1--------4------||
|-0-----------|-------------|-5-----------|-------------------||
|
| W             W             W               Q   q    Q   q
|-------------|-------------|-------------|-------------------||
|-------------|-------------|-------------|-/17--15--/17--15--||
|-------------|-------------|-------------|-------------------||
|-------------|-------------|-------------|-/14--12--/14--12--||
|-------------|-------------|-------------|-------------------||
|-------------|-------------|-------------|-------------------||
                                              Q   q    Q   q


 Guitar Solo
  D5
  Gtrs I, II
   E.       E.          Q           E  Q
   |        |           |           |  |
   /        /           /           /  /

  Gtr V
                                    ~~~
               |--3--|
   S  S  S  S  S  S  S  S  S  S  S  Q.
|-----------------------------------------|
|----------------------------------15-----|
|-------------------------12----12--------|
|----------------12----15----15-----------|
|----------12h15----15--------------------|
|-10s12h15--------------------------------|


  Bb5
   E.       E.          Q           E  Q
   |        |           |           |  |
   /        /           /           /  /

                                    ~~~
               |--3--|
   S  S  S  S  S  S  S  S  S  S  S  Q.
|----------------------------------12-----|
|-----------------------------------------|
|-------------------------12----12--------|
|----------------12----15----15-----------|
|----------12h15----15--------------------|
|-10s12h15--------------------------------|


  G5
   E.       E.          Q           E  Q
   |        |           |           |  |
   /        /           /           /  /

                                    ~~~
               |--3--|
   S  S  S  S  S  S  S  S  S  S  S  Q.
|----------------------------------13-----|
|-----------------------------------------|
|-------------------------12----12--------|
|----------------12----15----15-----------|
|----------12h15----15--------------------|
|-10s12h15--------------------------------|


  Eb5
    E.            E.              Q                 E        Q
    |             |               |                 |        |
    /             /               /                 /        /

    |-----------------------------------3-----------------------------------|
    S  S  S  S  S     S  S  S  S  S  S  S  S  S  S  S  S  S  S  S  S  S  S  S
|------------------------------------------------------------------------------|
|-/17s15s17s15-----------------------------------------------------------------|
|--------------14----17s14-14----17s15s14s17p15s14----17s14--------------------|
|-----------------------------15-------------------15-------17s15----17s15s17--|
|-----------------------------------------------------------------17-----------|
|------------------------------------------------------------------------------|


  D5                               Bb5
  Gtrs I, II
    E.       E.      Q   E  Q       E.  E.   Q  E Q
    |        |       |   |  |       |   |    |  | |
    /        /       /   /  /       /   /    /  / /

  Gtr V
    S   S E     H.                  W
|------17sx----------------------|----------------------|
|------18sx----------------------|----------------------|
|--15----------------------------|----------------------|
|--------------------------------|----------------------|
|--------------------------------|----------------------|
|--------------------------------|----------------------|
|
| Gtr IV
|                    ~~~                     ~~~
|   E.       E.      Q   E  E  E    E.  E.   H       E
|--------------------------------|----------------------|
|------------------/17-----------|---------/18----------|
|-/12-------14\---------14-12-14-|-12--14\----------14--|
|--------------------------------|----------------------|
|--------------------------------|----------------------|
|--------------------------------|----------------------|
|
| Gtr III
|                    ~~~                     ~~~
|   E.       E.      Q   E  E  E    E.  E.   H       E
|--------------------------------|----------------------|
|--------------------------------|---------/15----------|
|------------------/17-----------|----------------------|
|--14-------15\---------15-14-15-|-14--15\----------15--|
|--------------------------------|----------------------|
|--------------------------------|----------------------|


  G5                     Eb5                         D5
   E.  E.   Q  E Q        E.   E.        Q         E Q
   |   |    |  | |        |    |         |         | |
   /   /    /  / /        /    /         /         / /

   W                      H..                            E
|----------------------|-------------------------------------|
|----------------------|-------------------------------/18---|
|----------------------|-------------------------------------|
|----------------------|-------------------------------------|
|----------------------|-------------------------------------|
|----------------------|-------------------------------------|
|
|           ~~~                                 ~~~~
|  E.  E.   H       E     Q        +E    E     +H
|----------------------|----------------17b18-(17)-----------|
|---------/20------18--|-20b22r===(20)-----------------------|
|-12--14\--------------|-------------------------------------|
|----------------------|-------------------------------------|
|----------------------|-------------------------------------|
|----------------------|-------------------------------------|
|
|           ~~~                                 ~~~~
|  E.  E.   H       E     Q        +E    E     +H
|----------------------|-------------------------------------|
|---------/17------15--|-17b18r===(17)-/18b20-(18)-----------|
|----------------------|-------------------------------------|
|-14--15\--------------|-------------------------------------|
|----------------------|-------------------------------------|
|----------------------|-------------------------------------|


  D5
  Gtrs I, II
   E.                E.                Q                       E           Q
   |                 |                 |                       |           |
   /                 /                 /                       /           /

  Gtr V
                                                                           ~~
   T  T  T  T  T  T  T  T  T  T  T  T  T  T  T  T  T  T  T  T  T  T  T  T  Q
|-18s17s15----15h17s18p17p15----15h17s18p17p15----------------------------17--|
|----------18----------------18----------------18p15----------------15h18-----|
|----------------------------------------------------14----------14-----------|
|-------------------------------------------------------15----15--------------|
|----------------------------------------------------------17-----------------|
|-----------------------------------------------------------------------------|


  Bb5
   E.                E.                Q                       E              Q
   |                 |                 |                       |              |
   /                 /                 /                       /              /

                                                                              ~~
   T  T  T  T  T  T  T  T  T  T  T  T  T  T  T  T  T  T  T  T  T  T  T  T  a  Q
|--------------------------------------------------------------------------------|
|-18s17s15----15h17s18p17p15----15h17s18p17p15----15----------------------15h18--|
|----------17----------------17----------------17----15----------------15--------|
|-------------------------------------------------------15----------15-----------|
|----------------------------------------------------------17----17--------------|
|-------------------------------------------------------------17-----------------|


  G5
   E.                E.                Q                       E           Q
   |                 |                 |                       |           |
   /                 /                 /                       /           /

                                                                           ~~
   T  T  T  T  T  T  T  T  T  T  T  T  T  T  T  T  T  T  T  T  T  T  T  T  Q
|-18s17s15----15h17s18p17p15----20p18s17-15h18-15----------------------15h18--|
|----------18----------------18-------------------15----------------15--------|
|----------------------------------------------------15----------15-----------|
|-------------------------------------------------------17----17--------------|
|----------------------------------------------------------17-----------------|
|-----------------------------------------------------------------------------|


  Bb5                                                         A5
   E.                E.                Q                       E           Q
   |                 |                 |                       |           |
   /                 /                 /                       /           /

   T  T  T  T  T  T  T  T  T  T  T  T  T  T  T  T  T  T  T  T  T  T  T  T  T  T
|-18s17s15----15h17s18p17p15----15h17s18p17p15-17h18h20s22s20p17-------20h22-20p18-|
|----------18----------------18----------------------------------20p17-------------|
|----------------------------------------------------------------------------------|
|----------------------------------------------------------------------------------|
|----------------------------------------------------------------------------------|
|----------------------------------------------------------------------------------|

T  T  T  T  T  T
---------------|
20----------20-|
---19----19----|
------20-------|
---------------|
---------------|


  D5
  Gtrs I, II
   E.                   E.                 Q                       E           Q
   |                    |                  |                       |           |
   /                    /                  /                       /           /

  Gtr V
   >
   W
|-20b22----------------------------------------------------------------------------|
|----------------------------------------------------------------------------------|
|----------------------------------------------------------------------------------|
|----------------------------------------------------------------------------------|
|----------------------------------------------------------------------------------|
|----------------------------------------------------------------------------------|

-------------------|
-------------------|
-------------------|
-------------------|
-------------------|
-------------------|


|
| Gtr IV
|  T     T  T  T  T  T  T   T  T  T  T  T  T  T  T  T  T  T  T  T  T  T  T  T  T
|----------------------17-----------------------17----------------------17----------|
|-17----15-18-15-17-15-----15-17-15-18-15-17-15----15-17-15-18-15-17-15----15-17----|
|-----------------------------------------------------------------------------------|
|-----------------------------------------------------------------------------------|
|-----------------------------------------------------------------------------------|
|-----------------------------------------------------------------------------------|

T  T  T  T  T  T  T
18-------17--------|
-15-17----17-15-18-|
-------------------|
-------------------|
-------------------|
-------------------|

  Bb5
   E.                 E.                 Q                       E           Q
   |                  |                  |                       |           |
   /                  /                  /                       /           /

   W
|----------------------------------------------------------------------------------|
|----------------------------------------------------------------------------------|
|----------------------------------------------------------------------------------|
|----------------------------------------------------------------------------------|
|----------------------------------------------------------------------------------|
|----------------------------------------------------------------------------------|

--------------------|
--------------------|
--------------------|
--------------------|
--------------------|
--------------------|

|
|  T   T  T  T  T  T  T   T  T  T  T  T  T  T  T  T  T  T  T  T  T  T  T  T  T  T
|--------------------17-----------------------17----------------------17-------18---|
|-17--15-18-15-17-15-----15-17-15-18-15-17-15----15-17-15-18-15-17-15----15-17------|
|-----------------------------------------------------------------------------------|
|-----------------------------------------------------------------------------------|
|-----------------------------------------------------------------------------------|
|-----------------------------------------------------------------------------------|

T  T  T  T  T  T
-----17-------------|
15-17----17-15-18---|
--------------------|
--------------------|
--------------------|
--------------------|

  G5
   E.                 E.                 Q                       E           Q
   |                  |                  |                       |           |
   /                  /                  /                       /           /

  Gtr IV
   T   T  T  T  T  T  T   T  T  T  T  T  T  T  T  T  T  T  T  T  T  T  T  T  T  T
|--------------------18-----------------------18----------------------18-------20---|
|-18--17-20-17-18-17-----17-18-17-20-17-18-17----17-18-17-20-17-18-17----17-18------|
|-----------------------------------------------------------------------------------|
|-----------------------------------------------------------------------------------|
|-----------------------------------------------------------------------------------|
|-----------------------------------------------------------------------------------|

T  T  T  T  T  T
-----18-------------|
17-18----18-17-20---|
--------------------|
--------------------|
--------------------|
--------------------|


  Bb5                                                          A5
   E.                E.                 Q                       E           Q
   |                 |                  |                       |           |
   /                 /                  /                       /           /

   T  T  T  T  T  T  T   T  T  T  T  T  T  T  T  T  T  T  T  T  T  T  T  T  T  T
|-18s17p15--------------------------15----------------------------------------------|
|----------15-----------------15h18----18h15----------------15h18p15----------------|
|-------------15-----------15----------------14----------14----------15-------15----|
|----------------17-----17----------------------15p12h15----------------17p15-------|
|-------------------17--------------------------------------------------------------|
|-----------------------------------------------------------------------------------|

T  T  T  T  T  T
-------------------||
15----------15h18--||
-15----15----------||
----17-------------||
-------------------||
-------------------||


 Post-Verse
  Gtr IV
   \2.5________/
   E.         +E.    H           +E     +H             +Q.      +E
|------------------------------------|-------------------------------|
|-18---------(18)---20b22=======(20)-|-(20)r==========(20)-----(20)\-|
|------------------------------------|-------------------------------|
|-18---------(18)--------------------|-------------------------------|
|------------------------------------|-------------------------------|
|------------------------------------|-------------------------------|
|
| Gtrs I, II
|                           PM--|                          PM--|
|  S     S S   S  E  Q      E E   E      S  S S S E Q      E E   E
|------------------------------------|-------------------------------|
|------------------------------------|-------------------------------|
|--7-----7-7---7--7------------------|---5--5-5-5-5------------------|
|--7-----7-7---7--7--0---------------|---5--5-5-5-5-3----------------|
|--5-----5-5---5--5--0------0-0---0--|---3--3-3-3-3-3------3-3---3---|
|--------------------0------0-0---0--|--------------3------3-3---3---|


  Gtrs I, II
               PM--|                PM--|
  S S S S E Q  E E E   S S S S E Q  E E E
|--------------------|--------------------|
|--------------------|--------------------|
|-7-7-7-7-7----------|-5-5-5-5-5----------|
|-7-7-7-7-7-0--------|-5-5-5-5-5-3--------|
|-5-5-5-5-5-0--0-0-0-|-3-3-3-3-3-3--3-3-3-|
|-----------0--0-0-0-|-----------3--3-3-3-|


              PM----------|             PM----------|
    S S S S E E E S S E S S   S S S S E E E S S E S S
||--------------------------|--------------------------||
||o-------------------------|-------------------------o||
||--7-7-7-7-7---------------|-5-5-5-5-5----------------||
||--7-7-7-7-7---------------|-5-5-5-5-5----------------||
||o-5-5-5-5-5-0-0-0-0-0-0-0-|-3-3-3-3-3-3-3-3-3-3-3-3-o||
||------------0-0-0-0-0-0-0-|-----------3-3-3-3-3-3-3--||


                >                            <
  Q  Q  Q  Q    W           +W               W
|-------------|-----------:---------------|------------------||
|-------------|-----------:---------------|------------------||
|-------------|-----------:---------------|------------------||
|-0--3--5--6--|-0---------:-(0)-----------|--3---------------||
|-0--3--5--6--|-0---------:-(0)-----------|--3---------------||
|-0--3--5--6--|-0---------:-(0)-----------|--3---------------||
|
| Gtr III
|                    ~~~~~~~~~~~                        ~~
| W             H    H      +H     E E Q    +E  E E E E Q.
|-------------|-----------:---------------|------------------||
|-------------|-----------:---------------|------------------||
|-------------|-5s===3----:-(3)----5s7s5--|-(5)-----3h5p3----||
|-------------|-----------:---------------|-----3h5----------||
|-------------|-----------:---------------|------------------||
|-------------|-----------:---------------|------------------||


   Chorus
    Gtrs I, II
    Q    Q  E E  E E   Q    Q   E E  E E
||-------------------|-------------------|
||o------------------|-------------------|
||-------------------|-5----5---5-5--5-5-|
||--3----3--3-3--3-3-|-5----5---5-5--5-5-|
||o-3----3--3-3--3-3-|-3----3---3-3--3-3-|
||--3----3--3-3--3-3-|-------------------|
|
|   Gtr III
|   E E  Q  Q    Q     E E  Q   Q    Q
||-------------------|-------------------|
||o------------------|-------------------|
||--5-5S10--9---10---|-5-5S10---9---10---|
||--x-x--x--x----x---|-x-x--x---x----x---|
||o-3-3S=8--7----8---|-3-3S=8---7----8---|
||-------------------|-------------------|
|
|   Gtr IV
|   E E  Q  Q    Q     E E  Q   Q    Q
||-------------------|-------------------|
||o------------------|-------------------|
||--9-9S10--9---10---|-9-9S14--12----7---|
||--x-x--x--x----x---|-x-x--x---x----x---|
||o-7-7S=8--7----8---|-7-7S12--10----5---|
||-------------------|-------------------|


    Q     Q    E  E E  E    Q  Q  E E E E
|------------------------|-----------------|
|------------------------|-----------------|
|---7-----7----7--7-7--7-|--3--3--3-3-3-3--|
|---7-----7----7--7-7--7-|--3--3--3-3-3-3--|
|---5-----5----5--5-5--5-|--1--1--1-1-1-1--|
|------------------------|-----------------|
|
|  +E   Q    Q    Q    E    W
|------------------------|-----------------|
|------------------------|-----------------|
|-(10)S14---12---10----9S|=10--------------|
|-------x----x----x----x-|--x--------------|
|--(8)S12---10----8----7S|==8--------------|
|------------------------|-----------------|
|
|  +E   Q    Q    Q    E    W
|------------------------|-----------------|
|------------------------|-----------------|
|--(7)S10----9----7---12S|==7--------------|
|-------x----x----x----x-|--x--------------|
|--(5)S=8----7----5---10S|==5--------------|
|------------------------|-----------------|


  Q    Q   E E  E E   Q    Q   E E  E E
|-------------------|-------------------|
|-------------------|-------------------|
|-------------------|-5----5---5-5--5-5-|
|-3----3---3-3--3-3-|-5----5---5-5--5-5-|
|-3----3---3-3--3-3-|-3----3---3-3--3-3-|
|-3----3---3-3--3-3-|-------------------|
|
| E E  Q   Q    Q     E E  Q   Q    Q
|-------------------|-------------------|
|-------------------|-------------------|
|-5-5S10---9---10---|-5-5S10---9---10---|
|-x-x--x---x----x---|-x-x--x---x----x---|
|-3-3S=8---7----8---|-3-3S=8---7----8---|
|-------------------|-------------------|
|
| E E  Q   Q    Q     E E  Q   Q    Q
|-------------------|-------------------|
|-------------------|-------------------|
|-9-9S14--12----7---|-9-9S14--12---14---|
|-x-x--x---x----x---|-x-x--x---x----x---|
|-7-7S12--10----5---|-7-7S12--10---12---|
|-------------------|-------------------|


    Q     Q    E  E  E  E     Q      Q     E E E E
|-------------------------|-------------------------||
|-------------------------|------------------------o||
|---7-----7----7--7--7--7-|---3------3-----3-3-3-3--||
|---7-----7----7--7--7--7-|---3------3-----3-3-3-3--||
|---5-----5----5--5--5--5-|---1------1-----1-1-1-1-o||
|-------------------------|-------------------------||
|
|  +E   Q    Q    Q     E    +E   E  Q     H
|-------------------------|-------------------------||
|-------------------------|------------------------o||
|-(10)S14---12---10----14-|-(14)-10s12-----7--------||
|-------x----x----x-----x-|-------x--x-----x--------||
|--(8)S12---10----8----12-|-(12)--8s10-----5-------o||
|-------------------------|-------------------------||
|
|  +E   Q    Q    E  E  E    +E   Q     E  H
|-------------------------|-------------------------||
|-------------------------|------------------------o||
|-(14)S10----9---14-14S17-|-(17)-14----12-10--------||
|-------x----x----x--x--x-|-------x-----x--x--------||
|-(12)S=8----7---12-12S15-|-(15)-12----10--8-------o||
|-------------------------|-------------------------||


    E  E E E E E E E     W            +W            +W            +W
|--------------------|-------------:-------------:-------------:---------*|
|--------------------|-------------:-------------:-------------:---------*|
|---3--3-3-3-3-3-3-3-|-------------:-------------:-------------:---------*|
|---3--3-3-3-3-3-3-3-|---0---------:--(0)--------:--(0)--------:--(0)----*|
|---1--1-1-1-1-1-1-1-|---0---------:--(0)--------:--(0)--------:--(0)----*|
|--------------------|---0---------:--(0)--------:--(0)--------:--(0)----*|
|
|                                      ~~~~~~~~~~~~~~~~~~~~~~~~~~~~~~~
|  +W                   +W            +W            +W            +W
|--------------------|-------------:-------------:-------------:---------*|
|--------------------|-------------:-------------:-------------:---------*|
|--(7)---------------|--(7)--------:--(7)--------:--(7)--------:--(7)----*|
|--------------------|-------------:-------------:-------------:---------*|
|--(5)---------------|--(5)--------:--(5)--------:--(5)--------:--(5)----*|
|--------------------|-------------:-------------:-------------:---------*|
|
|                                      ~~~~~~~~~~~~~~~~~~~~~~~~~~~~~~~
|  +W                   +W            +W            +W            +W
|--------------------|-------------:-------------:-------------:---------*|
|--------------------|-------------:-------------:-------------:---------*|
|-(10)---------------|-(10)--------:-(10)--------:-(10)--------:-(10)----*|
|--------------------|-------------:-------------:-------------:---------*|
|--(8)---------------|--(8)--------:--(8)--------:--(8)--------:--(8)----*|
|--------------------|-------------:-------------:-------------:---------*|


----------------------------------------------------
                  Gunslinger
----------------------------------------------------

Transcribed by Seth Sanders {F.u.c.kallyourfalsebeauty@hotmail.com}

Gtr I (D A D G B E) - 'Acoustic I'
Gtr II (D A D G B E) - 'Acoustic II'
Gtr III (D A D G B E) - 'Jazz Guitar'
Gtr IV (D A D G B E) - 'Rhythm Guitar I'
Gtr V (D A D G B E) - 'Rhythm Guitar II'
Gtr VI (D A D G B E) - 'Lead Guitar'


 Intro
  Q=162
 4/4
  Gtr I
                                                          PM|
  E Q  E Q  E E   +E  E E E E E E E   Q  E Q  E E E   Q   E E Q    Q
|---------------|-------------------|---------------|------------------|
|---------------|---------3-3-3-3---|---------3-3-3-|-3----------------|
|-2----2----2---|-----2---2-2-2-2-2-|----2----2-2-2-|-2----------------|
|---0----0----0-|-(0)---3-0-0-0-0---|-0----0--0-0-0-|-0---2-2-3--------|
|---------------|-------------------|---------------|-----0-0------0---|
|---------------|-------------------|---------------|------------------|
|
| Gtr II
| W                W                  W               Q   Q   E  Q   E
|---------------|-------------------|---------------|----/5s==x-/3s==x-|
|---------------|-------------------|---------------|------------------|
|---------------|-------------------|---------------|------------------|
|---------------|-------------------|---------------|------------------|
|---------------|-------------------|---------------|------------------|
|---------------|-------------------|---------------|------------------|


  E Q    E Q  E E   +E   E E E E E E E
|-----------------|----------------------|
|-----------------|----------3-3-3-3-----|
|-2------2----2---|------2---2-2-2-2-2---|
|---0------0----0-|-(0)----3-0-0-0-0-----|
|-----------------|----------------------|
|-----------------|----------------------|
|
|     ~~
| E E H.            +H..             E
|-----------------|----------------------|
|-3s6-6-----------|-(6)------------------|
|-----------------|------------------5b7-|
|-----------------|----------------------|
|-----------------|----------------------|
|-----------------|----------------------|


                            PM|
   Q   E Q  E E E    Q      E  E Q  Q
|-----------------|---------------------|
|-----------3-3-3-|--3------------------|
|------2----2-2-2-|--2------------------|
|--0-----0--0-0-0-|--0------2--2-3------|
|-----------------|---------0--0----0---|
|-----------------|---------------------|
|
| +W                +E   q     H      E
|-----------------|---------------------|
|-----------------|-----/6\---/6s=====x-|
|-(5)-------------|-(5)-----------------|
|-----------------|---------------------|
|-----------------|---------------------|
|-----------------|---------------------|


                                                                 PM-|
  E    Q     E Q  E E   +E  E E E E E E E    Q   E Q  E E E   Q  E  E Q  Q
|---------------------|-------------------|-----------------|---------------|
|---------------------|---------3-3-3-3---|-----------3-3-3-|-3-------------|
|-2----------2----2---|-----2---2-2-2-2-2-|------2----2-2-2-|-2-------------|
|------0-------0----0-|-(0)---3-0-0-0-0---|--0-----0--0-0-0-|-0--2--2-3-----|
|---------------------|-------------------|-----------------|----0--0----0--|
|---------------------|-------------------|-----------------|---------------|
|
|         ~~~~~~~~~~~~~~~~~~~~~~~~~~~~~~~~~~~~~~                 ~~
| Q      +H.            +W                  +W                Q  H.
|-8b10---(8)----------|-(8)---------------|-(8)-------------|-8s=3----------|
|---------------------|-------------------|-----------------|---------------|
|---------------------|-------------------|-----------------|---------------|
|---------------------|-------------------|-----------------|---------------|
|---------------------|-------------------|-----------------|---------------|
|---------------------|-------------------|-----------------|---------------|


                                                           PM|
  E Q    E Q  E E   +E  E E E E E E E   Q  E Q  E E E   Q  E E Q  Q
|-----------------|-------------------|---------------|--------------||
|-----------------|---------3-3-3-3---|---------3-3-3-|-3------------||
|-2------2----2---|-----2---2-2-2-2-2-|----2----2-2-2-|-2------------||
|---0------0----0-|-(0)---3-0-0-0-0---|-0----0--0-0-0-|-0--2-2-3-----||
|-----------------|-------------------|---------------|----0-0----0--||
|-----------------|-------------------|---------------|--------------||
|
| E E H.             W                  W               W
|-x-x-------------|-------------------|---------------|--------------||
|-x-x-------------|-------------------|---------------|--------------||
|-x-x-------------|-------------------|---------------|--------------||
|-----------------|-------------------|---------------|--------------||
|-----------------|-------------------|---------------|--------------||
|-----------------|-------------------|---------------|--------------||


 Verse
  Q        E  E  E Q  E    Q.   E  E  E Q
|-1--------1--1--1-1--1-|--1----1--1--1-1--|
|-3--------3--3--3-3--3-|--3----3--3--3-3--|
|-3--------3--3--3-3--3-|--3----3--3--3-3--|
|-3--------3-(3)-3-3--3-|--3----3-(3)-3-3--|
|-1--------1-(1)-1-1--1-|--1----1-(1)-1-1--|
|-----------------------|------------------|
|
|      ~~~~~~~~~~~~~~~~~~~~~~~
| E   +H..                +W
|-----------------------|------------------|
|-----------------------|------------------|
|-5b7-(5)---------------|-(5)--------------|
|-----------------------|------------------|
|-----------------------|------------------|
|-----------------------|------------------|


  Q        E  E  E Q  E    Q.   E  E  E Q
|-1--------1--1--1-1--1-|--1----1--1--1-1--|
|-1--------1--1--1-1--1-|--1----1--1--1-1--|
|-0--------0--0--0-0--0-|--0----0--0--0-0--|
|-3--------3-(3)-3-3--3-|--3----3-(3)-3-3--|
|-3--------3-(3)-3-3--3-|--3----3-(3)-3-3--|
|-----------------------|------------------|
|
|      ~~~~~~~~~~~~~~~~~~~~~~~
| E   +H..                +W
|-----------------------|------------------|
|-----------------------|------------------|
|-7b9-(7)---------------|-(7)--------------|
|-----------------------|------------------|
|-----------------------|------------------|
|-----------------------|------------------|


  E     Q    E Q  E E   +E  E E E E      E   E  E
|---------------------|---------------------------|
|---------------------|---------3-3------3---3----|
|-2----------2----2---|-----2---2-2------2---2--2-|
|-------0------0----0-|-(0)---3-0-0------0---0----|
|---------------------|---------------------------|
|---------------------|---------------------------|
|
|       ~~~~~~~~~~~~~~~~~~~~                    ~~~
| E    +H..             +H        E     +E  +E  E
|-8b10-(8)------------|-(8)-------8b10==(8)-(8)r8-|
|---------------------|---------------------------|
|---------------------|---------------------------|
|---------------------|---------------------------|
|---------------------|---------------------------|
|---------------------|---------------------------|


                          PM|
   Q   E Q     E E E   Q  E E Q         Q
|--------------------|--------------------------|
|--------------3-3-3-|-3------------------------|
|------2-------2-2-2-|-2------------------------|
|--0-----0-----0-0-0-|-0--2-2-3-----------------|
|--------------------|----0-0-----------0-------|
|--------------------|--------------------------|
|
|~~~~~
| +H       +E  E E E   H      E    +E  +E    E
|-(8)------(8)sx-5s8p|=5------------------------|
|--------------------|--------8b10-(8)-(8)\-/6\-|
|--------------------|--------------------------|
|--------------------|--------------------------|
|--------------------|--------------------------|
|--------------------|--------------------------|


                                                              PM|
  E    Q    E Q  E E   +E  E E E E E E E   Q  E Q  E E E   Q  E E Q  Q
|--------------------|-------------------|---------------|--------------|
|--------------------|---------3-3-3-3---|---------3-3-3-|-3------------|
|-2---------2----2---|-----2---2-2-2-2-2-|----2----2-2-2-|-2------------|
|------0------0----0-|-(0)---3-0-0-0-0---|-0----0--0-0-0-|-0--2-2-3-----|
|--------------------|-------------------|---------------|----0-0----0--|
|--------------------|-------------------|---------------|--------------|
|
|      ~~~~~~~~~~~~~~~~~~~~
| E   +H..             +W                  W               W
|--------------------|-------------------|---------------|--------------|
|--------------------|-------------------|---------------|--------------|
|-5b7-(5)------------|-(5)---------------|---------------|--------------|
|--------------------|-------------------|---------------|--------------|
|--------------------|-------------------|---------------|--------------|
|--------------------|-------------------|---------------|--------------|


                                                         PM|
  E Q  E Q  E E   +E  E E E E E E E   Q  E Q  E E E   Q  E E Q  Q
|---------------|-------------------|---------------|--------------|
|---------------|---------3-3-3-3---|---------3-3-3-|-3------------|
|-2----2----2---|-----2---2-2-2-2-2-|----2----2-2-2-|-2------------|
|---0----0----0-|-(0)---3-0-0-0-0---|-0----0--0-0-0-|-0--2-2-3-----|
|---------------|-------------------|---------------|----0-0----0--|
|---------------|-------------------|---------------|--------------|
|
| W                W                  W               W
|---------------|-------------------|---------------|--------------|
|---------------|-------------------|---------------|--------------|
|---------------|-------------------|---------------|--------------|
|---------------|-------------------|---------------|--------------|
|---------------|-------------------|---------------|--------------|
|---------------|-------------------|---------------|--------------|


  Q        E  E  E Q  E    Q.   E  E  E Q
|-1--------1--1--1-1--1-|--1----1--1--1-1--|
|-3--------3--3--3-3--3-|--3----3--3--3-3--|
|-3--------3--3--3-3--3-|--3----3--3--3-3--|
|-3--------3-(3)-3-3--3-|--3----3-(3)-3-3--|
|-1--------1-(1)-1-1--1-|--1----1-(1)-1-1--|
|-----------------------|------------------|
|
|      ~~~~~~~~~~~~~~~~~~~~~~~
| E   +H..                +W
|-----------------------|------------------|
|-----------------------|------------------|
|-5b7-(5)---------------|-(5)--------------|
|-----------------------|------------------|
|-----------------------|------------------|
|-----------------------|------------------|


  Q        E  E  E Q  E    Q.   E  E  E Q
|-1--------1--1--1-1--1-|--1----1--1--1-1--|
|-1--------1--1--1-1--1-|--1----1--1--1-1--|
|-0--------0--0--0-0--0-|--0----0--0--0-0--|
|-3--------3-(3)-3-3--3-|--3----3-(3)-3-3--|
|-3--------3-(3)-3-3--3-|--3----3-(3)-3-3--|
|-----------------------|------------------|
|
|      ~~~~~~~~~~~~~~~~~~~~~~~
| E   +H..                +W
|-----------------------|------------------|
|-----------------------|------------------|
|-7b9-(7)---------------|-(7)--------------|
|-----------------------|------------------|
|-----------------------|------------------|
|-----------------------|------------------|


    Gtr III
    W                  +W
    |                   |
    o                   /

    Q     E E E Q  E    Q.   E E E Q
||--1-----1-1-1-1--1-|--1----1-1-1-1--|
||o-3-----3-3-3-3--3-|--3----3-3-3-3--|
||--2-----2-2-2-2--2-|--2----2-2-2-2--|
||--0-----0-0-0-0--0-|--0----0-0-0-0--|
||o------------------|----------------|
||-------------------|----------------|
|
|     ~~~~~~~~~~~~~~~~~~~~~
|   E H..              +W
||-------------------|----------------|
||o------------------|----------------|
||--9s7--------------|-(7)------------|
||-------------------|----------------|
||o------------------|----------------|
||-------------------|----------------|


  E      E   H.              +W
  |      |   |                |
  o      o   o                /

  Q          E   E  E Q  E    Q.   E  E  E Q
|-1----------1---1--1-1--1-|--1----1--1--1-1--|
|-1----------1---1--1-1--1-|--1----1--1--1-1--|
|-0----------0---0--0-0--0-|--0----0--0--0-0--|
|-3----------3--(3)-3-3--3-|--3----3-(3)-3-3--|
|-3----------3--(3)-3-3--3-|--3----3-(3)-3-3--|
|--------------------------|------------------|
|
|        ~~~~~~~~~~~~~~~~~~~~~~~~
| S S   +H..                 +W
|--------------------------|------------------|
|--------------------------|------------------|
|-5s7b9-(7)----------------|-(7)--------------|
|--------------------------|------------------|
|--------------------------|------------------|
|--------------------------|------------------|


  W                  +W
  |                   |
  o                   /

  Q     E E E Q  E    Q.   E E E Q
|-0-----0-0-0-0--0-|--0----0-0-0-0--|
|-1-----1-1-1-1--1-|--1----1-1-1-1--|
|-2-----2-2-2-2--2-|--2----2-2-2-2--|
|-2-----2-2-2-2--2-|--2----2-2-2-2--|
|-0-----0-0-0-0--0-|--0----0-0-0-0--|
|------------------|----------------|
|
|   ~~~~~~~~~~~~~~~~~~~~~
| E H..              +W
|------------------|----------------|
|------------------|----------------|
|-9s5--------------|-(5)------------|
|------------------|----------------|
|------------------|----------------|
|------------------|----------------|


  W                        H       H
  |                        |       |
  o                        o       o

  Q        E  E  E Q  E    Q.   E  E  E Q
|-1--------1--1--1-1--1-|--1----1--1--1-1---||
|-3--------3--3--3-3--3-|--3----3--3--3-3--o||
|-3--------3--3--3-3--3-|--3----3--3--3-3---||
|-3--------3-(3)-3-3--3-|--3----3-(3)-3-3---||
|-1--------1-(1)-1-1--1-|--1----1-(1)-1-1--o||
|-----------------------|-------------------||
|
|      ~~~~~~~~~~~~~~~~~~~~~~~
| E   +H..                +W
|-----------------------|-------------------||
|-----------------------|------------------o||
|-5b7-(5)---------------|-(5)---------------||
|-----------------------|-------------------||
|-----------------------|------------------o||
|-----------------------|-------------------||


  W                       +W
  |                        |
  o                        /

  Q        E  E  E Q  E    Q.   E  E  E Q
|-1--------1--1--1-1--1-|--1----1--1--1-1--|
|-3--------3--3--3-3--3-|--3----3--3--3-3--|
|-3--------3--3--3-3--3-|--3----3--3--3-3--|
|-3--------3-(3)-3-3--3-|--3----3-(3)-3-3--|
|-1--------1-(1)-1-1--1-|--1----1-(1)-1-1--|
|-----------------------|------------------|
|
|      ~~~~~~~~~~~~~~~~~~~~~~~
| E   +H..                +W
|-----------------------|------------------|
|-----------------------|------------------|
|-5b7-(5)---------------|-(5)--------------|
|-----------------------|------------------|
|-----------------------|------------------|
|-----------------------|------------------|
|
| Gtr IV
| W                        W
|-----------------------|------------------|
|-----------------------|------------------|
|-----------------------|------------------|
|-----------------------|------------------|
|-----------------------|------------------|
|-----------------------|------------------|


   Q        Q     H        +H     Q  Q
   |        |     |         |     |  |
   o        o     o         /     x  x

   Q        E  E  E Q  E    H.       S S S S
|--1--------1--1--1-1--1-|-^1--------x-x-x-x---||
|--1--------1--1--1-1--1-|-^1--------x-x-x-x---||
|--0--------0--0--0-0--0-|-^0--------x-x-x-x---||
|--3--------3-(3)-3-3--3-|-^3------------------||
|--3--------3-(3)-3-3--3-|-^3------------------||
|------------------------|---------------------||
|
|       ~~~~~~~~~~~~~~~~~~~~~~~
|  E   +H..                +W
|------------------------|---------------------||
|------------------------|---------------------||
|--7b9-(7)---------------|-(7)-----------------||
|------------------------|---------------------||
|------------------------|---------------------||
|------------------------|---------------------||
|
|                           <
|  W                       +W
|------------------------|---------------------||
|------------------------|---------------------||
|------------------------|---------------------||
|------------------------|---------------------||
|-(0)--------------------|-(0)-----------------||
|-(0)--------------------|-(0)-----------------||


 Pre-Verse
  Gtr IV
                                                     PM| ~
  Q.   Q.   Q    +E  Q   E E E E E   Q.   Q.   Q     E E Q   E   E   E   E
|--------------|-------------------|---------------|-------------------------|
|--------------|-------------------|---------------|--------<5>-<5>-<5>-<5>\-|
|--------------|-----------5-5-5-5-|---------------|--------<5>-<5>-<5>-<5>\-|
|-0----3----5--|-(5)-6---6-5-5-5-5-|-0----3----0---|-------------------------|
|-0----3----5--|-(5)-6---6-3-3-3-3-|-0----3----0---|-0-0---------------------|
|-0----3----5--|-(5)-6---6---------|-0----3----0---|-0-0-7-------------------|
|
| Gtr V
|                                                    PM| ~
| Q.   Q.   Q    +E  Q.    E E E E   Q.   Q.   Q     E E Q   E   E   E   E
|--------------|-------------------|---------------|-------------------------|
|--------------|-------------------|---------------|--------<5>-<5>-<5>-<5>\-|
|--------------|-----------5-5-5-5-|---------------|--------<5>-<5>-<5>-<5>\-|
|-0----3----5--|-(5)-6-----5-5-5-5-|-0----3----0---|-------------------------|
|-0----3----5--|-(5)-6-----3-3-3-3-|-0----3----0---|-0-0---------------------|
|-0----3----5--|-(5)-6-------------|-0----3----0---|-0-0-3-------------------|


  Gtrs IV, V
                                                   PM------|
  Q.   Q.   Q    +E  Q  E E E E E   Q.   Q.   Q    S S E E E  E   E   E   E
|--------------|------------------|--------------|---------------------------||
|--------------|------------------|--------------|-----------<5>-<5>-<5>-<5>-||
|--------------|----------5-5-5-5-|--------------|-----------<5>-<5>-<5>-<5>-||
|-0----3----5--|-(5)-6--6-5-5-5-5-|-0----3----0--|---------------------------||
|-0----3----5--|-(5)-6--6-3-3-3-3-|-0----3----0--|-0-0-0-0-0-----------------||
|-0----3----5--|-(5)-6--6---------|-0----3----0--|-0-0-0-0-0-----------------||


   Verse
    Gtrs IV, V
      ~    ~    ~~~~~~~~     ~~~~~     ~    ~    ~   PM------------|
    E Q  E Q  E E   +E  E Q  Q  Q    E Q  E Q  E E   E E E E E E E E
||----------------|----------------|---------------|-------------------||
||o---------------|----------------|---------------|------------------o||
||----------------|----------------|---------------|-------------------||
||----------------|----------------|---------------|-------------------||
||o-5p3--5p3--5p3-|-(3)-5p3S=8--8--|-5p3--5p3--5p3-|-0-0-0-0-0-0-0-0--o||
||----------------|----------------|---------------|-0-0-0-0-0-0-0-0---||


 Pre-Chorus
  Gtrs IV, V
  Q.    Q  E E E    Q       Q  E E Q
|----------------|--------------------|
|----------------|--------------------|
|-3-----3--3-3-3-|--3-------3--3-3-3--|
|-3-----3--3-3-3-|--3-------3--3-3-3--|
|-1-----1--1-1-1-|--1-------1--1-1-1--|
|----------------|--------------------|
|
| Gtr VI
| Q.    Q  Q   E   +E   H..
|----------------|--------------------|
|----------------|--------------------|
|------10--7---5-|-(5)-10-------------|
|-------x--x---x-|------x-------------|
|-------8--5---3-|-(3)--8-------------|
|----------------|--------------------|


    Q.    Q  E E  E     Q       Q  E E E E
|-------------------|----------------------||
|-------------------|----------------------||
|---5-----5--5-5--5-|---5-------5--5-5-5-5-||
|---5-----5--5-5--5-|---5-------5--5-5-5-5-||
|---3-----3--3-3--3-|---3-------3--3-3-3-3-||
|-------------------|----------------------||
|
|  +Q.    Q  Q    E    +E   H..
|-------------------|----------------------||
|-------------------|----------------------||
|-(10)---10--7---10-|-(10)-14--------------||
|---------x--x----x-|-------x--------------||
|--(8)----8--5----8-|--(8)-12--------------||
|-------------------|----------------------||


   Chorus
    Gtrs IV, V
    Q   E E E  E  Q     Q     E  E  E  E Q
||-------------------|----------------------|
||o------------------|----------------------|
||--7---7-7-7--7--7--|--7-----7--7--7--7-7--|
||--7---7-7-7--7--7--|--7-----7--7--7--7-7--|
||o-5---5-5-5--5--5--|--5-----5--5--5--5-5--|
||-------------------|----------------------|
|
|   Gtr VI
|   E E E Q    E  Q     E  E  E  E  E  E Q
||-------------------|----------------------|
||o------------------|----------------------|
||--7-7-7-9---10-12--|-10-10-10-10-10-10-9--|
||--x-x-x-x----x--x--|--x--x--x--x--x--x-x--|
||o-5-5-5-7----8-10--|--8--8--8--8--8--8-7--|
||-------------------|----------------------|


  Q   E  E E  E  Q     Q     E E  E  E  Q
|-------------------|-------------------------|
|-------------------|-------------------------|
|-5---5--5-5--5--5--|--5-----5-5--5--5--5-----|
|-5---5--5-5--5--5--|--5-----5-5--5--5--5-----|
|-3---3--3-3--3--3--|--3-----3-3--3--3--3-----|
|-------------------|-------------------------|
|
| E E E  Q    E  Q     E  E  Q    E  E  E  E
|-------------------|-------------------------|
|-------------------|-------------------------|
|-9-9-9-10---12-14--|-12-12-12---12-12-12-12--|
|-x-x-x--x----x--x--|--x--x--x----x--x--x--x--|
|-7-7-7--8---10-12--|-10-10-10---10-10-10-10--|
|-------------------|-------------------------|


  Q   E E E E Q     Q   E  E  E  E  Q     Q   E E E  E Q     Q  E E  E E Q
|-----------------|--------------------|-------------------|-----------------||
|-----------------|--------------------|-------------------|----------------o||
|-----------------|--------------------|-------------------|-----------------||
|-7---7-7-7-7-7---|-7---7--7--7--7--7--|--8---8-8-8--8-8---|-8--8-8--8-8-8---||
|-7---7-7-7-7-7---|-7---7--7--7--7--7--|--8---8-8-8--8-8---|-8--8-8--8-8-8--o||
|-7---7-7-7-7-7---|-7---7--7--7--7--7--|--8---8-8-8--8-8---|-8--8-8--8-8-8---||
|
| Q   Q   E E E E   Q   E  E  E  E  Q     Q   Q   E  E E E   Q  Q    H
|-----------------|--------------------|-------------------|-----------------||
|-----------------|--------------------|-------------------|----------------o||
|-9--10---9-9-9-9-|-9--12-12-12-12-10--|-10--10---9-10-9-7-|-9--9---10-------||
|-x---x---x-x-x-x-|-x---x--x--x--x--x--|--x---x---x--x-x-x-|-x--x----x-------||
|-7---8---7-7-7-7-|-7--10-10-10-10--8--|--8---8---7--8-7-5-|-7--7----8------o||
|-----------------|--------------------|-------------------|-----------------||


 Post-Chorus
    Q.   Q  E E E     Q      Q  E E Q         Q.   Q  E E E   Q  Q  E E E E
|-----------------|-------------------------|---------------|---------------||
|-----------------|-------------------------|---------------|---------------||
|---3----3--3-3-3-|---3------3--3-3-3-------|-5----5--5-5-5-|-5--5--5-5-5-5-||
|---3----3--3-3-3-|---3------3--3-3-3-------|-5----5--5-5-5-|-5--5--5-5-5-5-||
|---1----1--1-1-1-|---1------1--1-1-1-------|-3----3--3-3-3-|-3--3--3-3-3-3-||
|-----------------|-------------------------|---------------|---------------||
|
|   W                +H..              +E     W               W
|-----------------|-------------------------|---------------|---------------||
|-/15-------------|-(15)b17r==========(15)\-|---------------|---------------||
|-----------------|-------------------------|---------------|---------------||
|-----------------|-------------------------|---------------|---------------||
|-----------------|-------------------------|---------------|---------------||
|-----------------|-------------------------|---------------|---------------||


 Interlude
  Gtr IV
  Q.     Q   E E E   Q   Q   E E Q     Q.     Q   E E E   Q   Q   E E E E
|------------------|-----------------|------------------|-----------------|
|------------------|-----------------|------------------|-----------------|
|-3------3---3-3-3-|-3---3---3-3-3---|-5------5---5-5-5-|-5---5---5-5-5-5-|
|-3------3---3-3-3-|-3---3---3-3-3---|-5------5---5-5-5-|-5---5---5-5-5-5-|
|-1------1---1-1-1-|-1---1---1-1-1---|-3------3---3-3-3-|-3---3---3-3-3-3-|
|------------------|-----------------|------------------|-----------------|
|
| Gtr V
| PM-|   PM  PM--------|   PM  PM---------|   PM  PM--------|       PM--|
| E  E E E E E E E   E E E E E E E E   E  E E E E E E E   E E E E E E E E
|------------------|-----------------|------------------|-----------------|
|------3---3-------|-----3---3-------|------5---5-------|-----5---5-------|
|----3---3-------3-|-------3-------3-|----5---5-------5-|---------------5-|
|------------3-----|---3-------3-----|------------5-----|---5---5---5-----|
|-1------------1---|-1-----------1---|-3------------3---|-3-----------3---|
|------------------|-----------------|------------------|-----------------|


  Q.     Q   E E E   Q.     Q   E E E   Q   Q   E E Q     Q   Q   Q   Q
|------------------|------------------|-----------------|-----------------|
|------------------|------------------|-----------------|-----------------|
|------------------|-5------5---5-5-5-|-7---7---7-7-7---|-5---5---5---5---|
|-3------3---3-3-3-|-5------5---5-5-5-|-7---7---7-7-7---|-5---5---5---5---|
|-3------3---3-3-3-|-3------3---3-3-3-|-5---5---5-5-5---|-3---3---3---3---|
|-3------3---3-3-3-|------------------|-----------------|-----------------|
|
| PM-|   PM  PM---------|   PM  PM--------|   PM  PM--------|   PM  PM--|
| E  E E E E E E E   E  E E E E E E E   E E E E E E E E   E E E E E E E E
|------------------|------------------|-----------------|-----------------|
|------------------|------5---5-------|-----6---6-------|-----5---5-------|
|------5---5-------|----5---5-------5-|---7---7-------7-|---5---5-------5-|
|--------3---3---3-|------------5-----|-----------7-----|-----------5-----|
|----3---------3---|-3------------3---|-5-----------5---|-3-----------3---|
|-3----------------|------------------|-----------------|-----------------|


  Q.     Q   E E E   Q   Q   E E Q     Q.     Q   E E E   Q   Q   E E E E
|------------------|-----------------|------------------|-----------------|
|------------------|-----------------|------------------|-----------------|
|-3------3---3-3-3-|-3---3---3-3-3---|-5------5---5-5-5-|-5---5---5-5-5-5-|
|-3------3---3-3-3-|-3---3---3-3-3---|-5------5---5-5-5-|-5---5---5-5-5-5-|
|-1------1---1-1-1-|-1---1---1-1-1---|-3------3---3-3-3-|-3---3---3-3-3-3-|
|------------------|-----------------|------------------|-----------------|
|
| PM-|   PM  PM--------|   PM  PM---------|   PM  PM--------|       PM--|
| E  E E E E E E E   E E E E E E E E   E  E E E E E E E   E E E E E E E E
|------------------|-----------------|------------------|-----------------|
|------3---3-------|-----3---3-------|------5---5-------|-----5---5-------|
|----3---3-------3-|-------3-------3-|----5---5-------5-|---------------5-|
|------------3-----|---3-------3-----|------------5-----|---5---5---5-----|
|-1------------1---|-1-----------1---|-3------------3---|-3-----------3---|
|------------------|-----------------|------------------|-----------------|


  Q.     Q   E E E   Q.     Q   E E E   Q   Q   E E Q     Q   Q   Q   Q
|------------------|------------------|-----------------|-----------------||
|------------------|------------------|-----------------|-----------------||
|------------------|-5------5---5-5-5-|-7---7---7-7-7---|-5---5---5---5---||
|-3------3---3-3-3-|-5------5---5-5-5-|-7---7---7-7-7---|-5---5---5---5---||
|-3------3---3-3-3-|-3------3---3-3-3-|-5---5---5-5-5---|-3---3---3---3---||
|-3------3---3-3-3-|------------------|-----------------|-----------------||
|
| PM-|   PM  PM---------|   PM  PM--------|   PM  PM--------|   PM  PM--|
| E  E E E E E E E   E  E E E E E E E   E E E E E E E E   E E E E E E E E
|------------------|------------------|-----------------|-----------------||
|------------------|------5---5-------|-----6---6-------|-----5---5-------||
|------5---5-------|----5---5-------5-|---7---7-------7-|---5---5-------5-||
|--------3---3---3-|------------5-----|-----------7-----|-----------5-----||
|----3---------3---|-3------------3---|-5-----------5---|-3-----------3---||
|-3----------------|------------------|-----------------|-----------------||


 Bridge/Pre-Solo
  Q.     Q   E E E   Q   Q   Q   Q     Q.     Q   E E E   Q   Q   Q   Q
|------------------|-----------------|------------------|-----------------|
|-3------3---3-3-3-|-3---3---3---3---|-5------5---5-5-5-|-5---5---5---5---|
|-3------3---3-3-3-|-3---3---3---3---|-5------5---5-5-5-|-5---5---5---5---|
|-3------3---3-3-3-|-3---3---3---3---|-5------5---5-5-5-|-5---5---5---5---|
|-1------1---1-1-1-|-1---1---1---1---|-3------3---3-3-3-|-3---3---3---3---|
|------------------|-----------------|------------------|-----------------|
|
| PM-|   PM  PM--------|   PM  PM---------|   PM  PM--------|       PM--|
| E  E E E E E E E   E E E E E E E E   E  E E E E E E E   E E E E E E E E
|------------------|-----------------|------------------|-----------------|
|------3---3-------|-----3---3-------|------5---5-------|-----5---5-------|
|----3---3-------3-|-------3-------3-|----5---5-------5-|---------------5-|
|------------3-----|---3-------3-----|------------5-----|---5---5---5-----|
|-1------------1---|-1-----------1---|-3------------3---|-3-----------3---|
|------------------|-----------------|------------------|-----------------|


  Gtr VI
  Q    Q   H         H       H
|------------------|-----------------|
|------------------|-----------------|
|-7----7---7-------|-9-------9-------|
|-x----x---x-------|-x-------x-------|
|-5----5---5-------|-7-------7-------|
|------------------|-----------------|
|
| Gtr IV
| Q.     Q   E E E   Q   Q   Q   Q
|------------------|-----------------|
|------------------|-----------------|
|------------------|-----------------|
|-0------0---0-0-0-|-2---2---2---2---|
|-0------0---0-0-0-|-3---3---3---3---|
|-0------0---0-0-0-|-2---2---2---2---|
|
| Gtr V
| PM-|   PM  PM--------|   PM  PM-----
| E  E E E E E E E   E E E E E E E E
|------------------|-----------------|
|------------------|-----------------|
|------2---2-------|-----5---5-------|
|------------0---0-|---------------2-|
|----0---0-----0---|---3---3---3-----|
|-0----------------|-2-----------2---|


   Q     Q    E  E  E  E    Q    Q    Q.    +E
|------------------------|-------------------------||
|------------------------|-------------------------||
|-10----10---10-10-10-10-|-12---12---12----(12)\---||
|--x-----x----x--x--x--x-|--x----x----x------------||
|--8-----8----8--8--8--8-|-10---10---10----(10)\---||
|------------------------|-------------------------||
|
|  Q.      Q     E  E  E    Q    Q    Q      Q
|------------------------|-------------------------||
|------------------------|-------------------------||
|------------------------|-------------------------||
|--3-------3-----3--3--3-|--5----5----5------5-----||
|--3-------3-----3--3--3-|--5----5----5------5-----||
|--3-------3-----3--3--3-|--5----5----5------5-----||
|
|-----|    PM    PM-----------|          PM------|
|  E  E  E E  E  E  E  E    E E  E E  E  E   E   E
|------------------------|-------------------------||
|------------------------|-------------------------||
|--------5----5----------|-------7----7------------||
|----------3-----3-------|---------5-----5---------||
|-----3----------------3-|----5------------------5-||
|--3----------------3----|--5----------------5-----||


 Guitar Solo
  Gtr VI
    ~~~~~                               ~~~~
    H..           +E       Q   Q   Q    Q
|----------------------|-------------------|
|----------------------|------17--18---17--|
|-/19------------(19)\-|-/19---------------|
|----------------------|-------------------|
|----------------------|-------------------|
|----------------------|-------------------|
|
| Gtr IV
|   Q.    Q  E E   E       Q   Q   E E  Q
|----------------------|-------------------|
|----------------------|-------------------|
|---3-----3--3-3---3---|---3---3---3-3--3--|
|---3-----3--3-3---3---|---3---3---3-3--3--|
|---1-----1--1-1---1---|---1---1---1-1--1--|
|----------------------|-------------------|


 ~~~~~~
   +H.          Q      Q   Q   Q        +E   +E
|-------------------|---------17b18====(17)-(17)-|
|-(17)--------------|-17--18---------------------|
|-------------/17---|----------------------------|
|-------------------|----------------------------|
|-------------------|----------------------------|
|-------------------|----------------------------|
|
|   Q.   Q  E   E E    Q   Q   E     E   E    E
|-------------------|----------------------------|
|-------------------|----------------------------|
|---5----5--5---5-5-|--5---5---5-----5---5----5--|
|---5----5--5---5-5-|--5---5---5-----5---5----5--|
|---3----3--3---3-3-|--3---3---3-----3---3----3--|
|-------------------|----------------------------|


                                                     ~~~~~
   +Q.    +Q    +E     Q      +Q        +Q.     +E   Q
|-(17)---(17)r=(17)\-/15---|-(15)b17===(15)r===(15)p13---|
|--------------------------|-----------------------------|
|--------------------------|-----------------------------|
|--------------------------|-----------------------------|
|--------------------------|-----------------------------|
|--------------------------|-----------------------------|
|
|   Q.     Q     E     E E     Q.           Q    E   E E
|--------------------------|-----------------------------|
|--------------------------|-----------------------------|
|--------------------------|---5------------5----5---5-5-|
|---3------3-----3-----3-3-|---5------------5----5---5-5-|
|---3------3-----3-----3-3-|---3------------3----3---3-3-|
|---3------3-----3-----3-3-|-----------------------------|


 ~~~~~~                   ~~~~
   +H.          Q        +H.          Q
|-(13)---------12b13r=|=(12)-------------|
|---------------------|-------------/13--|
|---------------------|------------------|
|---------------------|------------------|
|---------------------|------------------|
|---------------------|------------------|
|
|   Q   Q  E E  Q         Q   Q  Q    Q
|---------------------|------------------|
|---------------------|------------------|
|---7---7--7-7--7-----|---5---5--5----5--|
|---7---7--7-7--7-----|---5---5--5----5--|
|---5---5--5-5--5-----|---3---3--3----3--|
|---------------------|------------------|


                                   ~~~~
   W                  Q   Q   Q    Q
|------------------|------------------|
|-15b17r===========|=15--17--18---17--|
|------------------|------------------|
|------------------|------------------|
|------------------|------------------|
|------------------|------------------|
|
|  Q.     Q  E E E    Q   Q   E E  Q
|------------------|------------------|
|------------------|------------------|
|--3------3--3-3-3-|--3---3---3-3--3--|
|--3------3--3-3-3-|--3---3---3-3--3--|
|--1------1--1-1-1-|--1---1---1-1--1--|
|------------------|------------------|


 ~~~~~~
   +H.          Q      Q   Q   H
|-------------------|---------------------|
|-(17)--------------|---------------------|
|-------------------|-17--15--14b15r======|
|-------------/17---|---------------------|
|-------------------|---------------------|
|-------------------|---------------------|
|
|   Q.   Q  E   E E    Q   Q   E    E E E
|-------------------|---------------------|
|-------------------|---------------------|
|---5----5--5---5-5-|--5---5---5----5-5-5-|
|---5----5--5---5-5-|--5---5---5----5-5-5-|
|---3----3--3---3-3-|--3---3---3----3-3-3-|
|-------------------|---------------------|


    ~~~~             ~~~~~~~~~~~     PM
   +Q     Q     Q    Q      +Q    E  E  Q       +E     E
|-------[15]-------------|-------------------------------|
|------------------------|-------17----17b18r==(17)\-----|
|-(14)---------14--------|---------------------------/17-|
|-------------------17---|-(17)-----17-------------------|
|------------------------|-------------------------------|
|------------------------|-------------------------------|
|
|   Q.       Q    E  E E     Q.      Q       E   E     E
|------------------------|-------------------------------|
|------------------------|-------------------------------|
|------------------------|---5-------5-------5---5-----5-|
|---3--------3----3--3-3-|---5-------5-------5---5-----5-|
|---3--------3----3--3-3-|---3-------3-------3---3-----3-|
|---3--------3----3--3-3-|-------------------------------|


                   PM    PM             ~~~~
   H         +E    E  E  E    Q.       +Q.     Q
|--------------------17----|-17b18r===(17)----15b17r==|
|-17b18-----(17)\----------|--------------------------|
|-----------------17----17-|--------------------------|
|--------------------------|--------------------------|
|--------------------------|--------------------------|
|--------------------------|--------------------------|
|
|  Q     Q    E    E  Q       Q     Q      Q   Q
|--------------------------|--------------------------|
|--------------------------|--------------------------|
|--7-----7----7----7--7----|--5-----5------5---5------|
|--7-----7----7----7--7----|--5-----5------5---5------|
|--5-----5----5----5--5----|--3-----3------3---3------|
|--------------------------|--------------------------|


                ~~~~
   +Q          +H      Q     +H.       Q
|-(15)b17r====(15)--------|---------------|
|---------------------15--|-(15)------15--|
|-------------------------|---------------|
|-------------------------|---------------|
|-------------------------|---------------|
|-------------------------|---------------|
|
|   E     H..                +W
|-------------------------|---------------|
|---5-----3---------------|--(3)----------|
|---5-----3---------------|--(3)----------|
|---5-----3---------------|--(3)----------|
|---3-----1---------------|--(1)----------|
|-------------------------|---------------|


                            ~~~~
   +W                      +W
|-----------------------|--------------------||
|-(15)b17---------------|-(15)---------------||
|-----------------------|--------------------||
|-----------------------|--------------------||
|-----------------------|--------------------||
|-----------------------|--------------------||
|
|   PM-----------------------------|
|   E     E E E E E E E     E  E E E E E E E
|-----------------------|--------------------||
|-----------------------|--------------------||
|-----------------------|------------5-5-5-5-||
|---------------5-5-5-5-|---5--5-5-5-5-5-5-5-||
|---3-----3-3-3-3-3-3-3-|---3--3-3-3-3-3-3-3-||
|-----------------------|--------------------||


   Chorus
    Gtrs IV, V
    Q   E E E  E  Q     Q     E  E  E  E Q
||-------------------|----------------------|
||o------------------|----------------------|
||--7---7-7-7--7--7--|--7-----7--7--7--7-7--|
||--7---7-7-7--7--7--|--7-----7--7--7--7-7--|
||o-5---5-5-5--5--5--|--5-----5--5--5--5-5--|
||-------------------|----------------------|
|
|   Gtr VI
|   E E E Q    E  Q     E  E  E  E  E  E Q
||-------------------|----------------------|
||o------------------|----------------------|
||--7-7-7-9---10-12--|-10-10-10-10-10-10-9--|
||--x-x-x-x----x--x--|--x--x--x--x--x--x-x--|
||o-5-5-5-7----8-10--|--8--8--8--8--8--8-7--|
||-------------------|----------------------|


  Q   E  E E  E  Q     Q     E E  E  E  Q
|-------------------|-------------------------|
|-------------------|-------------------------|
|-5---5--5-5--5--5--|--5-----5-5--5--5--5-----|
|-5---5--5-5--5--5--|--5-----5-5--5--5--5-----|
|-3---3--3-3--3--3--|--3-----3-3--3--3--3-----|
|-------------------|-------------------------|
|
| E E E  Q    E  Q     E  E  Q    E  E  E  E
|-------------------|-------------------------|
|-------------------|-------------------------|
|-9-9-9-10---12-14--|-12-12-12---12-12-12-12--|
|-x-x-x--x----x--x--|--x--x--x----x--x--x--x--|
|-7-7-7--8---10-12--|-10-10-10---10-10-10-10--|
|-------------------|-------------------------|


  Q   E E E E Q     Q   E  E  E  E  Q     Q   E E E  E Q     Q  E E  E E Q
|-----------------|--------------------|-------------------|-----------------||
|-----------------|--------------------|-------------------|----------------o||
|-----------------|--------------------|-------------------|-----------------||
|-7---7-7-7-7-7---|-7---7--7--7--7--7--|--8---8-8-8--8-8---|-8--8-8--8-8-8---||
|-7---7-7-7-7-7---|-7---7--7--7--7--7--|--8---8-8-8--8-8---|-8--8-8--8-8-8--o||
|-7---7-7-7-7-7---|-7---7--7--7--7--7--|--8---8-8-8--8-8---|-8--8-8--8-8-8---||
|
| Q   Q   E E E E   Q   E  E  E  E  Q     Q   Q   E  E E E   Q  Q    H
|-----------------|--------------------|-------------------|-----------------||
|-----------------|--------------------|-------------------|----------------o||
|-9--10---9-9-9-9-|-9--12-12-12-12-10--|-10--10---9-10-9-7-|-9--9---10-------||
|-x---x---x-x-x-x-|-x---x--x--x--x--x--|--x---x---x--x-x-x-|-x--x----x-------||
|-7---8---7-7-7-7-|-7--10-10-10-10--8--|--8---8---7--8-7-5-|-7--7----8------o||
|-----------------|--------------------|-------------------|-----------------||


 Outro
  Gtr III
   W               +W                W               +W
   |                |                |                |
   o                /                o                /

  Gtrs IV, V
   Q.   Q  E E E    Q   Q  E E Q     Q.   Q  E E E    Q   Q  E E E E
|----------------|----------------|----------------|-----------------|
|----------------|----------------|----------------|-----------------|
|--3----3--3-3-3-|--3---3--3-3-3--|--5----5--5-5-5-|--5---5--5-5-5-5-|
|--3----3--3-3-3-|--3---3--3-3-3--|--5----5--5-5-5-|--5---5--5-5-5-5-|
|--1----1--1-1-1-|--1---1--1-1-1--|--3----3--3-3-3-|--3---3--3-3-3-3-|
|----------------|----------------|----------------|-----------------|
|
| Gtr VI
|  W                W                W                W
|----------------|----------------|----------------|-----------------|
|----------------|----------------|----------------|-----------------|
|----------------|----------------|----------------|-----------------|
|----------------|----------------|----------------|-----------------|
|----------------|----------------|----------------|-----------------|
|----------------|----------------|----------------|-----------------|
|
| Gtr I
|  W               +W                W               +W
|-^1-------------|-(1)------------|-^3-------------|-(3)-------------|
|-^3-------------|-(3)------------|-^5-------------|-(5)-------------|
|-^3-------------|-(3)------------|-^5-------------|-(5)-------------|
|-^3-------------|-(3)------------|-^5-------------|-(5)-------------|
|-^1-------------|-(1)------------|-^3-------------|-(3)-------------|
|----------------|----------------|----------------|-----------------|


   W               +W                W                 Q   Q  E   Q.
   |                |                |                 |   |  |   |
   o                /                o                 o   o  o   o

   Q.   Q  E E E    Q   Q  E E Q     Q.   Q  E E E     Q   Q  E E E  E
|----------------|----------------|----------------|-------------------|
|----------------|----------------|----------------|-------------------|
|--3----3--3-3-3-|--3---3--3-3-3--|--5----5--5-5-5-|---5---5--5-5-5--5-|
|--3----3--3-3-3-|--3---3--3-3-3--|--5----5--5-5-5-|---5---5--5-5-5--5-|
|--1----1--1-1-1-|--1---1--1-1-1--|--3----3--3-3-3-|---3---3--3-3-3--3-|
|----------------|----------------|----------------|-------------------|
|
|  <                                 <
|  W               +W                W                +W
|----------------|----------------|----------------|-------------------|
|----------------|----------------|----------------|-------------------|
|--3-------------|-(3)------------|-10-------------|-(10)--------------|
|--x-------------|-(x)------------|--x-------------|--(x)--------------|
|--1-------------|-(1)------------|--8-------------|--(8)--------------|
|----------------|----------------|----------------|-------------------|
|
|  W               +W                W                +W
|-^1-------------|-(1)------------|-^3-------------|--(3)--------------|
|-^3-------------|-(3)------------|-^5-------------|--(5)--------------|
|-^3-------------|-(3)------------|-^5-------------|--(5)--------------|
|-^3-------------|-(3)------------|-^5-------------|--(5)--------------|
|-^1-------------|-(1)------------|-^3-------------|--(3)--------------|
|----------------|----------------|----------------|-------------------|


   W          +W          +W           +W
   |           |           |            |
   o           /           /            /

   W          +W          +W           +W
|-----------|-----------|------------|--------*|
|-----------|-----------|------------|--------*|
|-----------|-----------|------------|--------*|
|--0--------|-(0)-------|-(0)--------|-(0)----*|
|--0--------|-(0)-------|-(0)--------|-(0)----*|
|--0--------|-(0)-------|-(0)--------|-(0)----*|
|
|                                       ~~~
|  W          +W          +W           +W
|-----------|-----------|------------|--------*|
|-----------|-----------|------------|--------*|
|--7--------|-(7)-------|-(7)--------|-(7)----*|
|--x--------|-(x)-------|-(x)--------|-(x)----*|
|--5--------|-(5)-------|-(5)--------|-(5)----*|
|-----------|-----------|------------|--------*|
|
|  W          +W          +W           +W
|-^1--------|-(1)-------|-(1)--------|-(1)----*|
|-^3--------|-(3)-------|-(3)--------|-(3)----*|
|-^2--------|-(2)-------|-(2)--------|-(2)----*|
|-^0--------|-(0)-------|-(0)--------|-(0)----*|
|-----------|-----------|------------|--------*|
|-----------|-----------|------------|--------*|

---------------------------------------------------
           Unbound (The Wild Ride)
---------------------------------------------------

Transcribed by: Rockford_rocks

Hey everyone, this is my favorite song (at the moment) off of A7X's new album.
I'm sorry if this tab is inaccurate, all corrections are accepted (and will be
fixed this time, I got a little lazy with my others.)

Tuning: Drop D (as most of their songs are.)
DADGBE

Intro
Guitar 1: (Synyster)
|-------------------------------------------|
|-15\10/17-15--11------15\10/17-15--18---17-|
|-x--x--x--x---x-------x--x--x--x---x----x--|
|-12\7/14--12--8-------12\7/-14-12--15---14-|
|-------------------------------------------|
|-------------------------------------------|


Guitar 2: (Zacky)
|------------------------------|
|------------------------------|
|---7-7--7-7-7-7----7-7--7-7---|
|---7-7--7-7-7-7----8-8--8-8---|
|---5-5--5-5-5-5----5-5--5-5---|
|---0-0--0-0-0-0--0-0-0--0-0-0-| (repeat twice)

Beginning Harmony Rhythm
|-----------------------|
|-----------------------|
|--5-5--5-5-5-5-5-5-5---|
|--5-5--5-5-5-5-5-5-5---|
|--3-3--3-3-3-3-3-3-3---|
|-----------------------|


Harmony
(Guitar 1)
|--------------------------|
|--------------------------|
|--10b12v--12b14r12b14b15--|
|--------------------------|
|--------------------------|
|--------------------------|

(Guitar 2)
|----------------------|
|----------------------|
|--7b9v--9b10r9b10b12--|
|----------------------|
|----------------------|
|----------------------|

*Intro riff comes back in*

Cont'd.
(Guitar 1)
|---------------------------|
|---------------------------|
|--10~--/10-12-14-14b15r14--|
|---------------------------|
|---------------------------|
|---------------------------|

(Guitar 2)
|------------------------|
|------------------------|
|--7~--/7-9-10-10b12r10--|
|------------------------|
|------------------------|
|------------------------|

(Guitar 1)
|-----------------------------------|
|-----------------------------------|
|--10b12--14-12-10-14-12-10-14b15~--|
|-----------------------------------|
|-----------------------------------|
|-----------------------------------|

(Guitar 2)
|---------------------------|
|---------------------------|
|--7b9--10-9-7-10-9-7-10b12-|
|---------------------------|
|---------------------------|
|---------------------------|

(Piano, Shadows comes in)


Verse rhythm
(Guitar 1)
|--------------------------------------------|
|--------------------------------------------|
|-(pick scrape)--9-9-9-9-9/10-10-10/12-12-12-|
|----------------x-x-x-x-x/x--x--x/x---x--x--|
|----------------7-7-7-7-7/8--8--8/10--10-10-|
|--------------------------------------------|

(Guitar 2)
|--------------------------------------|
|--------------------------------------|
|-----------------5-5-5-5-5---5-5-5-5--|
|---------------5-5-5-5-5-5-5-5-5-5-5--|
|-(pick scrape)-3-3-3-3-3-3-3-3-3-3-3--|
|--------------------------------------|

More Rhythm          (Syn Fill)
|------------------|-15-13---------------------------------------------|
|------------------|-------15-13---------------------------------------|
|------------------|-------------14------------------------------------|
|------------------|---------------15-17-15-17p15h18p15h17p15----------|
|------------------|------------------------------------------17h18h19-|
|-0000000000000000-|---------------------------------------------------|

(Piano, Vocals)

*Verse Riff*

Pre-Chorus
|------------------------------------------|
|------------------------------------------|
|--7--5-5-3-3-3-33-3-3-33-2-2--22--2-2--22-|
|--7--5-5-3-3-3-33-3-3-33-2-2--22--2-2--22-|
|--5--3-3-1-1-1-11-1-1-11-0-0--00--0-0--00-|
|------------------------------------------|

|-------------------------------------------------|
|-------------------------------------------------|
|-------------------------------------------------|
|--7-7-77--5-5-55--3-3-33--3-3-33--3-3-33--3-3-33-|
|--5-5-55--3-3-33--1-1-11--1-1-11--1-1-11--1-1-11-|
|-------------------------------------------------|

|-------------------|
|-------------------|
|-------------------|
|-------------------|
|--0000000000000000-|
|-------------------|

Chorus
|-------------------------------10-10-15-15-10-10-|
|-------------------------11-11-------------------|
|-------------------12-12-------------------------|
|-------------12-12-------------------------------|
|-10-10-13-13-------------------------------------|
|-------------------------------------------------|

(cont'd.)
|-14-14-10-10-----------------------------------|
|-------------10-10-----------------------------|
|-------------------11-11-----------------------|
|-------------------------12-12-----------------|
|-------------------------------13-13-12-12-9-9-| x2
|-----------------------------------------------|

|-------------------------11-11-15-15-11-11-|
|-------------------11-11-------------------|
|-------------12-12-------------------------|
|-------13-13-------------------------------|
|-13-13-------------------------------------|
|-------------------------------------------|

|-13-13-10-10-------------------------------------|
|-------------11-11-------------------------------|
|-------------------10-10-------------------------|
|-------------------------12-12-------------------|
|-------------------------------13-13-------------|
|-------------------------------------15-15-12-12-|
(I'm not sure about this bit below..)
|----------------------------------------------------|
|-------------------14-14-14-14-------17-17-14-14-15-|
|-------------14-14-------------14-14----------------|
|-11-11-14-14----------------------------------------|
|----------------------------------------------------|
|----------------------------------------------------|

End of chorus harmony
(Guitar 1)
|-------------------------------------------------------------------|
|-------------------------------------------------------------------|
|-12-12-12-12-12-12-14-14-14-14-14-14-15-15-15-15-14-14-14-14-14-14-|
|-------------------------------------------------------------------|
|-------------------------------------------------------------------|
|-------------------------------------------------------------------|

(Guitar 1 cont'd)
|------------------------------|
|------------------------------|
|-15-15-15-15-17-17-17-17-15~--|
|------------------------------|
|------------------------------|
|------------------------------|

(Guitar 2)
|----------------------------------------------------------------|
|-11-11-11-11-11-11-13-13-13-13-13-13-15-15-15-15-13-13-13-13-13-|
|----------------------------------------------------------------|
|----------------------------------------------------------------|
|----------------------------------------------------------------|
|----------------------------------------------------------------|

|--------------------------------------|
|-13-15-15-15-15-15-15-16-16-16-16-15~-|
|--------------------------------------|
|--------------------------------------|
|--------------------------------------|
|--------------------------------------|


*Back to Intro riff and verse*
*Chorus*

"Some live so wrong.." Lick (Swept)
|--17p13----------------------------17-18p15-------------------|
|--------15----------------------15----------15----------------|
|-----------14----------------14----------------15-------------|
|--------------15p12----12h15----------------------17----------|
|--------------------12-------------------------------17-------|
|--------------------------------------------------------20(?)-|

|-------------18p15------------------------------17p13----------------|
|----------15-------15-----------------------15--------15-------------|
|-------15-------------15-----------------15-------------14-----------|
|----17-------------------17-----------15-------------------15--------|
|-17-------------------------17-----17-------------------------16-17~-|
|-------------------------------20------------------------------------| x2

Choir Riff
|----------------------------------------------------------|
|----------------------------------------------------------|
|--3--3-3-3--3-3-3--3-3-3--3-3----7-7-7--7-7-7--7-7-7--7-7-|
|--3--3-3-3--3-3-3--3-3-3--3-3-0--7-7-7--7-7-7--7-7-7--7-7-|
|--1--1-1-1--1-1-1--1-1-1--1-1-0--5-5-5--5-5-5--5-5-5--5-5-|
|------------------------------0--0-0-0--0-0-0--0-0-0--0-0-|

|---------------------------------------------------------|
|---------------------------------------------------------|
|----------2--3-------------------------------------------|
|-0--2--3--2--3--3-3-3--3-3-3--3-3-3--3-3-2--2-2-2--2-2-2-|
|-0--2--3--0--1--1-1-1--1-1-1--1-1-1--1-1-0--0-0-0--0-0-0-|
|-0--2--3-------------------------------------------------|

|---------------|
|---------------|
|---------------|
|-2-------------|
|-0--5--3--2--0-|
|----5--3--2--0-|

*Back to Sweep Riff*

Clean Riff
|--13--13-------13-------12-------12-------12-13-|
|--15-----14-------14-------14-------14----------|
|--14--------15-------15-------15-------15-------|
|--0---------------------------------------------|
|------------------------------------------------|
|------------------------------------------------|

SOLO: Tabbed by Seth Shadows.

Guitar Duet:
w/Distortion:


|------------13h15p13----|------------12h13p12----|
|--15--------------------|--14--------------------|
|------------------------|------------------------|
|------------------------|------------------------|
|------------------------|------------------------|
|------------------------|------------------------|

------------10--12--10----|--------------12/15----|
--11----------------------|--13----15-------------|
--------------------------|-----------------------|
--------------------------|-----------------------|
--------------------------|-----------------------|
--------------------------|-----------------------|

------------13--15--13----|------------12--13--12----|
--15----------------------|--14----------------------|
--------------------------|--------------------------|
--------------------------|--------------------------|
--------------------------|--------------------------|
--------------------------|--------------------------|

------------10--12--10----|---------------------|
--11----------------------|--13~----------------|
--------------------------|---------------------|
--------------------------|---------------------|
--------------------------|---------------------|
--------------------------|---------------------|

----------13h--17p--15--------------|--------------13--15b(17)r-13p-12-|
------15----------------17----------|----------15----------------------|
--14------------------------17------|------14--------------------------|
--------------------------------17--|--15------------------------------|
------------------------------------|----------------------------------|
------------------------------------|----------------------------------|

--13~----------------|--12h--13p--12----15h--17p--15----|
---------------------|----------------------------------|
---------------------|----------------------------------|
---------------------|----------------------------------|
---------------------|----------------------------------|
---------------------|----------------------------------|

--------------------------|
--------------15----14----|
--12----14----------------|
--------------------------|  Repeat.
--------------------------|
--------------------------|

The harmony to this is:

|--------------------------|-----------------------|
|------------10--11--10----|-----------8--10--8----|
|--/7----------------------|--6--------------------|
|--------------------------|-----------------------|
|--------------------------|-----------------------|
|--------------------------|-----------------------|

-------------------------|-------------------------|--------------------------|
-------------------------|-------------------10----|------------10--11--10----|
-----------10--12--10----|--9----10----12----------|--/7----------------------|
--8----------------------|-------------------------|--------------------------|
-------------------------|-------------------------|--------------------------|
-------------------------|-------------------------|--------------------------|

-----------------------|-------------------------|--------------------|
-----------8--10--8----|-------------------------|--------------------|
--6--------------------|-----------10--12--10----|--9~----------------|
-----------------------|--8----------------------|--------------------|
-----------------------|-------------------------|--------------------|
-----------------------|-------------------------|--------------------|

--------------13p--12--------------|--------------10--12b(13)r-10p8h|
----------13-----------13----------|----------11--------------------|
------14-------------------12------|------10------------------------|
--15---------------------------14--|--12----------------------------|
-----------------------------------|--------------------------------|
-----------------------------------|--------------------------------|

--10~----------------|--9h--10p--9----12h--13p--12----|
---------------------|--------------------------------|
---------------------|--------------------------------|
---------------------|--------------------------------|
---------------------|--------------------------------|
---------------------|--------------------------------|

----------------------|
----------------------|
--9----10/15----14----| Repeat with part one.
----------------------|
----------------------|
----------------------|


----------------------------------------------------
               Brompton Cocktail
----------------------------------------------------

Transcribed by Seth "Shadows" Sanders {F.u.c.kallyourfalsebeauty@hotmail.com}

D5
0 0 0 x x x

F5
3 3 3 x x x

G5
5 5 5 x x x

Bb5
8 8 8 x x x

A5
7 7 7 x x x

E5
2 2 2 x x x


Gtr I (D A D G B E) - 'Rhythm Guitar I'
Gtr II (D A D G B E) - 'Rhythm Guitar II'
Gtr III (D A D G B E) - 'Lead Guitar I'
Gtr IV (D A D G B E) - 'Lead Guitar II'
Gtr V (D A D G B E) - 'Lead Guitar III'
Gtr VI (D A D G B E) - 'String Ensemble'


 Harmonic Intro
 4/4
  Gtr III
        \2.5___________________\1/  /
        W              +H     +E   +E  +Q
|--------------------|----------------------|
|------<3>-----------|-(3)----(3)--(3)-(3)--|
|------<3>-----------|-(3)----(3)--(3)-(3)--|
|--------------------|----------------------|
|--------------------|----------------------|
|--------------------|----------------------|
|
| Gtr IV
|  \4___/
|  a   +W              +W
|-<5>--(5)-----------|-(5)------------------|
|-<5>--(5)-----------|-(5)------------------|
|--------------------|----------------------|
|--------------------|----------------------|
|--------------------|----------------------|
|--------------------|----------------------|
|
| Gtr V
|       W               W
|--------------------|----------------------|
|--------------------|----------------------|
|--------------------|----------------------|
|--------------------|----------------------|
|--------------------|----------------------|
|--------------------|----------------------|


       \2.5___________________\1/  /
       W              +H     +E   +E  +Q
|-------------------|----------------------|
|-----<3>-----------|-(3)----(3)--(3)-(3)--|
|-----<3>-----------|-(3)----(3)--(3)-(3)--|
|-------------------|----------------------|
|-------------------|----------------------|
|-------------------|----------------------|
|
|  \2
|  a  +W              +W
|-<5>-(5)-----------|-(5)------------------|
|-<5>-(5)-----------|-(5)------------------|
|-------------------|----------------------|
|-------------------|----------------------|
|-------------------|----------------------|
|-------------------|----------------------|
|
|      <
|      ~~~~~~~~~~~~~~~~~~~
|      W              +W
|-------------------|----------------------|
|-------------------|----------------------|
|-------------------|----------------------|
|-----[5]-----------|-(5)------------------|
|-------------------|----------------------|
|-------------------|----------------------|


   \2.5___________________________________________
   W
|------------------------------------------------|
|-<3>--------------------------------------------|
|-<3>--------------------------------------------|
|------------------------------------------------|
|------------------------------------------------|
|------------------------------------------------|
|
|                     \0.5/  \0.5/  \0.5/  \0.5/
|  E      E   E   E  +E     +E     +E     +E
|------------<5>-(5)-(5)----(5)----(5)----(5)----|
|--------<5>-(5)-<5>-(5)----(5)----(5)----(5)----|
|-<5>----(5)-(5)-(5)-(5)----(5)----(5)----(5)----|
|------------------------------------------------|
|------------------------------------------------|
|------------------------------------------------|
|
|  ~~~~~~~~~~~~~~~~~~~~~~~~~~~~~~~~~~~~~~~~~~~~~~~
| +W
|------------------------------------------------|
|------------------------------------------------|
|------------------------------------------------|
|-(5)--------------------------------------------|
|------------------------------------------------|
|------------------------------------------------|


          \1/  /          \2.5____________________\1/  /
  +H     +E   +E  +Q      W              +H      +E   +E  +Q
|----------------------|---------------|-----------------------||
|-(3)----(3)--(3)-(3)--|-<3>-----------|-(3)-----(3)--(3)-(3)--||
|-(3)----(3)--(3)-(3)--|-<3>-----------|-(3)-----(3)--(3)-(3)--||
|----------------------|---------------|-----------------------||
|----------------------|---------------|-----------------------||
|----------------------|---------------|-----------------------||
|
|                         \2/             /4\
|  ~~~
| +W                      W              +W
|-(5)------------------|---------------|-----------------------||
|-(5)------------------|---------------|-----------------------||
|-(5)------------------|-<5>-----------|-(5)-------------------||
|----------------------|-<5>-----------|-(5)-------------------||
|----------------------|---------------|-----------------------||
|----------------------|---------------|-----------------------||
|
|~~~~~~~~~~~~~~~~~~~~~~~~~~~~~~~~~~~~~~~~~~~~~
| +W                     +W              +w
|----------------------|---------------|-----------------------||
|----------------------|---------------|-----------------------||
|----------------------|---------------|-----------------------||
|-(5)------------------|-(5)-----------|-(5)-------------------||
|----------------------|---------------|-----------------------||
|----------------------|---------------|-----------------------||


   Intro
    Q=155
    D5  D5                  F5  Dm  Bb5
    Gtrs I, II
      PM  PM ~~~~~~~~~~~~~PM  PM  PM  PM
    E E E E  Q.   E   +E  E E E E E E E
||------------------|-------------------|
||o-----------------|-------------------|
||------------------|-------------------|
||------------------|-----------3---3---|
||o-0---0-----------|-------3---5---1---|
||--0-0-0-0-/8----7-|-(7)-0-3-0---0---0-|


  A5                      F5  A5  F5
    PM  PM ~~~~~~~~~~~~~PM  PM  PM~
  E E E E  Q.   E   +E  E E E E E Q
|-----------------|--------------------||
|-----------------|-------------------o||
|-----------------|--------------------||
|-2---------------|-----------2--------||
|-0---0-----------|-------3---0---3---o||
|---0-0-0-/8----7-|-(7)-0-3-0---0-3----||


   Pre-Verse
    PM------------------|     ~~
    Q.   Q.   Q    Q.   Q  E  Q
||---------------|----------------||
||o--------------|---------------o||
||---------------|----------------||
||---------------|----------------||
||o--------------|---------------o||
||--0----0----0--|-0----0--3s12---||


   Verse
    Gtrs I, II
    PM--------------------|      ~~   PM--------------------|      ~~
    Q.   Q.     Q    Q.   Q   E  Q    Q.   Q.     Q    Q.   Q   E  Q
||-----------------|----------------|----------------|------------------||
||o----------------|----------------|----------------|-----------------o||
||-----------------|----------------|----------------|------------------||
||-----------------|----------------|----------------|------------------||
||o----------------|----------------|----------------|-----------------o||
||--0----0------0--|-0----0---3s12--|-0----0------0--|-0----0---3s12----||
|
|   Gtr VI
|   q.   E  E E Q    Q.   E E E  q    Q.   E  E E q    Q.   E E E  q
||--3----3--3-1-1--|------0-0-1--1--|------1--1-0-0--|------------------||
||o-5----5--5-3-3--|------2-2-3--3--|------3--3-2-2--|------3-3-2--2---o||
||-----------------|----------------|----------------|------3-3-2--2----||
||--2----2--2-0-0--|----------0--0--|------0--0------|------------------||
||o----------------|------4-4-------|-----------4-4--|------1-1-0--0---o||
||-----------------|----------------|----------------|------------------||


 Pre-Chorus
  A5      A5    Bb5   Em/G  Em/G    A/C#
  Gtr I
    PM--|   PM|   PM    PM|   PM--|   PM
  E S S E E E E E E   E E E E S S E E E
|-------------------|-------------------|
|-------------------|-------------------|
|-2-------2-----3---|---------------2---|
|-2-------2-----3---|-5-----5-------2---|
|-0-------0-----1---|-7-----7-------4---|
|---0-0-0---0-0---0-|-5-0-0-5-0-0-0---0-|
|
| Gtr II
|   PM--|   PM|   PM    PM|   PM--|   PM
| E S S E E E E E E   E E E E S S E E E
|-------------------|-------------------|
|-------------------|-------------------|
|-2-------2-----3---|---------------2---|
|-2-------2-----3---|-5-----5-------2---|
|-4-------4-----1---|-7-----7-------0---|
|---0-0-0---0-0---0-|-5-0-0-5-0-0-0---0-|
|
| Gtr VI
| W                   W
|-1-----------------|-------------------|
|-------------------|-8-----------------|
|-2-----------------|-------------------|
|-------------------|-5-----------------|
|-0-----------------|-------------------|
|-------------------|-5-----------------|


  F5    F5    F5    C/E     C/E     C/E
    PM|   PM|   PM    PM|      PM-|   PM
  E E E E E E E E   E E  E  E  E  E E E
|-----------------|-----------------------|
|-----------------|-----------------------|
|-----------------|-----------------------|
|-3-----3-----3---|-2-------2-------2-----|
|-3-----3-----3---|-3-------3-------3-----|
|-3-0-0-3-0-0-3-0-|-2-0--0--2--0--0-2-0---|
|
|   PM|   PM|   PM    PM|      PM-|   PM
| E E E E E E E E   E E  E  E  E  E E E
|-----------------|-----------------------|
|-----------------|-----------------------|
|-----------------|-----------------------|
|-3-----3-----3---|-2-------2-------2-----|
|-3-----3-----3---|-3-------3-------3-----|
|-3-0-0-3-0-0-3-0-|-2-0--0--2--0--0-2-0---|
|
| W                 Q    Q     H
|-----------------|-----------------------|
|-6---------------|-5---(5)---(5)---------|
|-----------------|-----------------------|
|-3---------------|-2---(2)---(2)---------|
|-----------------|-----------------------|
|-3---------------|-2----2-----0----------|


                A5        A/C#               G5        Em/G
  Gtr I
  PM----------|   PM----|      PM----------|   PM------|
  |-3-|                        |-3---------------------|
  S S S S S S S E S S S S Q    S S S S S S S E S S S S Q
|----------------------------|----------------------------|
|----------------------------|----------------------------|
|---------------2---------2--|----------------------------|
|---------------2---------2--|---------------5---------5--|
|---------------0---------0--|---------------5---------5--|
|-0-0-0-0-0-0-0---0-0-0-0----|-0-0-0-0-0-0-0-5-0-0-0-0-5--|
|
| Gtr II
| PM----------|   PM----|      PM----------|   PM------|
| |-3-|                        |-3---------------------|
| S S S S S S S E S S S S Q    S S S S S S S E S S S S Q
|----------------------------|----------------------------|
|----------------------------|----------------------------|
|---------------2---------2--|----------------------------|
|---------------2---------2--|---------------5---------5--|
|---------------0---------4--|---------------5---------7--|
|-0-0-0-0-0-0-0---0-0-0-0----|-0-0-0-0-0-0-0-5-0-0-0-0-5--|


              G5F5                                 F5C/E
  PM--------|                          PM--------|
  S S S S S S E E Q.                   S S S S S S E E Q.
|------------------------------------|------------------------------------||
|------------------------------------|------------------------------------||
|------------------------------------|------------------------------------||
|-------------5p3-3------------------|-------------3p2-2------------------||
|-------------5-3-3------------------|-------------3-3-3------------------||
|-0-0-0-0-0-0-5p3-3------------------|-0-0-0-0-0-0-3p2-2------------------||
|
|                     \0.25/  \0.25/                       \0.25/  \0.25/
| PM--------|                          PM--------|
| S S S S S S E E E  +E      +E        S S S S S S E E E  +E      +E
|------------------------------------|------------------------------------||
|------------------------------------|------------------------------------||
|------------------------------------|------------------------------------||
|-------------5p3-3--(3)-----(3)-----|-------------3p2-2--(2)-----(2)-----||
|-------------5-3-3--(3)-----(3)-----|-------------3-3-3--(3)-----(3)-----||
|-0-0-0-0-0-0-5p3-3--(3)-----(3)-----|-0-0-0-0-0-0-3p2-2--(2)-----(2)-----||


 Chorus
  D5             D5  E5             E5                 F5  G5             G5
  Gtrs I, II
     PM--------|        PM--------|        PM--------|        PM--------|
  Q  S S E E E E E   Q  S S E E E E E   Q  S S E E E E E   Q  S S E E E E E
|------------------|------------------|------------------|-------------------|
|------------------|------------------|------------------|-------------------|
|------------------|------------------|------------------|-------------------|
|-0--------------0h|=2--------------2h|=3--------------3h|=5--------------5p=|
|-0--------------0-|-2--------------2-|-3--------------3-|-5--------------5--|
|-0--0-0-0-0-0-0-0h|=2--0-0-0-0-0-0-2h|=3--0-0-0-0-0-0-3h|=5--0-0-0-0-0-0-5p=|
|
| Gtr VI
| Q  H         E E   Q  H         E E   Q  H         E E   Q  H         E E
|------------------|------------------|------------------|-3--------------3--|
|-3--------------3-|-5--------------5-|-8--------------8-|-------------------|
|------------------|------------------|------------------|-3--------------3--|
|-3--------------3-|-5--------------5-|-5--------------5-|-------------------|
|------------------|------------------|------------------|-------------------|
|------------------|------------------|------------------|-------------------|


  F5             F5  E5             E5  G5             G5  A5   A5
     PM--------|        PM--------|        PM--------|               ~~~~~
  Q  S S E E E E E   Q  S S E E E E E   Q  S S E E E E E   Q  E E E  Q  E
|------------------|------------------|------------------|-----------------|
|------------------|------------------|------------------|-----------------|
|------------------|------------------|------------------|-----------------|
|-3--------------3p|=2--------------2h|=5--------------5h|=7----7----------|
|-3--------------3-|-2--------------2-|-5--------------5-|-7----7---/8--7--|
|-3--0-0-0-0-0-0-3p|=2--0-0-0-0-0-0-2h|=5--0-0-0-0-0-0-5h|=7--0-7-0--------|
|
|                                                          ~
| Q  H         E E   Q  H         E E   Q  H         E E   W
|------------------|------------------|-3--------------3-|-5---------------|
|-8--------------8-|-5--------------5-|------------------|-----------------|
|------------------|------------------|-3--------------3-|-5---------------|
|-5--------------5-|-5--------------5-|------------------|-----------------|
|------------------|------------------|------------------|-----------------|
|------------------|------------------|------------------|-----------------|


  D5                Bb5
  Gtrs I, II
  Q.    Q   E E E    Q   Q   E E  Q
|-----------------|------------------|
|-----------------|------------------|
|-----------------|--3---3---3-3--3--|
|-0-----0---0-0-0-|--3---3---3-3--3--|
|-0-----0---0-0-0-|--1---1---1-1--1--|
|-0-----0---0-0-0-|------------------|
|
| Gtr V
| Q   Q   E Q   E    Q   Q   Q    Q
|-----------------|------------------|
|-----------------|------------------|
|-7---7---7-7---7s|=10--14--12---10--|
|-x---x---7-x---x-|------x---x----x--|
|-5---5---5-5---5s|==8--12--10----8--|
|-----------------|------------------|


  Bb5                     G5
  Q    Q     E  E  Q       Q.     Q     E  E E
|-----------------------|----------------------|
|-----------------------|----------------------|
|-3----3-----3--3--3----|----------------------|
|-3----3-----3--3--3----|--5------5-----5--5-5-|
|-1----1-----1--1--1----|--5------5-----5--5-5-|
|-----------------------|--5------5-----5--5-5-|
|
| E  Q    E  E  E  E  E    Q    Q    E  Q.
|-----------------------|----------------------|
|-----------------------|----------------------|
|-7s10---10-10-10-10-10-|-12---12---12-12------|
|-x-------x--x--x--x--x-|--x----x----x--x------|
|-5s=8----8--8--8--8--8-|-10---10---10-10------|
|-----------------------|----------------------|


  D5                Bb5                Bb5                   G5
  Q.    Q   E E E    Q   Q   E E  Q     Q   Q   E  E  Q      Q.     Q  Q.
|-----------------|------------------|---------------------|----------------||
|-----------------|------------------|---------------------|----------------||
|-----------------|--3---3---3-3--3--|--3---3---3--3--3----|----------------||
|-0-----0---0-0-0-|--3---3---3-3--3--|--3---3---3--3--3----|-5------5--5----||
|-0-----0---0-0-0-|--1---1---1-1--1--|--1---1---1--1--1----|-5------5--5----||
|-0-----0---0-0-0-|------------------|---------------------|-5------5--5----||
|
| Q   Q   E Q   E    Q   Q   Q    Q     Q   Q   E  E  E  E   Q   H.
|-----------------|------------------|---------------------|----------------||
|-----------------|------------------|---------------------|----------------||
|-7---7---7-7---7s|=10--14--12---10--|-10--10--10-10-10-10-|-7--------------||
|-x---x---x-x---x-|------x---x----x--|--x---x---x--x--x--x-|-x--------------||
|-5---5---5-5---5s|==8--12--10----8--|--8---8---8--8--8--8-|-5--------------||
|-----------------|------------------|---------------------|----------------||


   Verse
    Gtrs I, II
    PM--------------------|      ~~   PM--------------------|      ~~
    Q.   Q.     Q    Q.   Q   E  Q    Q.   Q.     Q    Q.   Q   E  Q
||-----------------|----------------|----------------|------------------||
||o----------------|----------------|----------------|-----------------o||
||-----------------|----------------|----------------|------------------||
||-----------------|----------------|----------------|------------------||
||o----------------|----------------|----------------|-----------------o||
||--0----0------0--|-0----0---3s12--|-0----0------0--|-0----0---3s12----||
|
|   Gtr VI
|   q.   E  E E Q    Q.   E E E  q    Q.   E  E E q    Q.   E E E  q
||--3----3--3-1-1--|------0-0-1--1--|------1--1-0-0--|------------------||
||o-5----5--5-3-3--|------2-2-3--3--|------3--3-2-2--|------3-3-2--2---o||
||-----------------|----------------|----------------|------3-3-2--2----||
||--2----2--2-0-0--|----------0--0--|------0--0------|------------------||
||o----------------|------4-4-------|-----------4-4--|------1-1-0--0---o||
||-----------------|----------------|----------------|------------------||


 Pre-Chorus
  A5      A5    Bb5   Em/G  Em/G    A/C#
  Gtr I
    PM--|   PM|   PM    PM|   PM--|   PM
  E S S E E E E E E   E E E E S S E E E
|-------------------|-------------------|
|-------------------|-------------------|
|-2-------2-----3---|---------------2---|
|-2-------2-----3---|-5-----5-------2---|
|-0-------0-----1---|-7-----7-------4---|
|---0-0-0---0-0---0-|-5-0-0-5-0-0-0---0-|
|
| Gtr II
|   PM--|   PM|   PM    PM|   PM--|   PM
| E S S E E E E E E   E E E E S S E E E
|-------------------|-------------------|
|-------------------|-------------------|
|-2-------2-----3---|---------------2---|
|-2-------2-----3---|-5-----5-------2---|
|-4-------4-----1---|-7-----7-------0---|
|---0-0-0---0-0---0-|-5-0-0-5-0-0-0---0-|
|
| Gtr VI
| W                   W
|-1-----------------|-------------------|
|-------------------|-8-----------------|
|-2-----------------|-------------------|
|-------------------|-5-----------------|
|-0-----------------|-------------------|
|-------------------|-5-----------------|


  F5    F5    F5    C/E     C/E     C/E
    PM|   PM|   PM    PM|      PM-|   PM
  E E E E E E E E   E E  E  E  E  E E E
|-----------------|-----------------------|
|-----------------|-----------------------|
|-----------------|-----------------------|
|-3-----3-----3---|-2-------2-------2-----|
|-3-----3-----3---|-3-------3-------3-----|
|-3-0-0-3-0-0-3-0-|-2-0--0--2--0--0-2-0---|
|
|   PM|   PM|   PM    PM|      PM-|   PM
| E E E E E E E E   E E  E  E  E  E E E
|-----------------|-----------------------|
|-----------------|-----------------------|
|-----------------|-----------------------|
|-3-----3-----3---|-2-------2-------2-----|
|-3-----3-----3---|-3-------3-------3-----|
|-3-0-0-3-0-0-3-0-|-2-0--0--2--0--0-2-0---|
|
| W                 Q    Q     H
|-----------------|-----------------------|
|-6---------------|-5---(5)---(5)---------|
|-----------------|-----------------------|
|-3---------------|-2---(2)---(2)---------|
|-----------------|-----------------------|
|-3---------------|-2----2-----0----------|


                A5        A/C#               G5        Em/G
  Gtr I
  PM----------|   PM----|      PM----------|   PM------|
  |-3-|                        |-3---------------------|
  S S S S S S S E S S S S Q    S S S S S S S E S S S S Q
|----------------------------|----------------------------|
|----------------------------|----------------------------|
|---------------2---------2--|----------------------------|
|---------------2---------2--|---------------5---------5--|
|---------------0---------0--|---------------5---------5--|
|-0-0-0-0-0-0-0---0-0-0-0----|-0-0-0-0-0-0-0-5-0-0-0-0-5--|
|
| Gtr II
| PM----------|   PM----|      PM----------|   PM------|
| |-3-|                        |-3---------------------|
| S S S S S S S E S S S S Q    S S S S S S S E S S S S Q
|----------------------------|----------------------------|
|----------------------------|----------------------------|
|---------------2---------2--|----------------------------|
|---------------2---------2--|---------------5---------5--|
|---------------0---------4--|---------------5---------7--|
|-0-0-0-0-0-0-0---0-0-0-0----|-0-0-0-0-0-0-0-5-0-0-0-0-5--|


              G5F5                                 F5C/E
  PM--------|                          PM--------|
  S S S S S S E E Q.                   S S S S S S E E Q.
|------------------------------------|------------------------------------||
|------------------------------------|------------------------------------||
|------------------------------------|------------------------------------||
|-------------5p3-3------------------|-------------3p2-2------------------||
|-------------5-3-3------------------|-------------3-3-3------------------||
|-0-0-0-0-0-0-5p3-3------------------|-0-0-0-0-0-0-3p2-2------------------||
|
|                     \0.25/  \0.25/                       \0.25/  \0.25/
| PM--------|                          PM--------|
| S S S S S S E E E  +E      +E        S S S S S S E E E  +E      +E
|------------------------------------|------------------------------------||
|------------------------------------|------------------------------------||
|------------------------------------|------------------------------------||
|-------------5p3-3--(3)-----(3)-----|-------------3p2-2--(2)-----(2)-----||
|-------------5-3-3--(3)-----(3)-----|-------------3-3-3--(3)-----(3)-----||
|-0-0-0-0-0-0-5p3-3--(3)-----(3)-----|-0-0-0-0-0-0-3p2-2--(2)-----(2)-----||


 Chorus
  D5             D5  E5             E5  F5             F5  G5           G5
  Gtrs I, II
     PM--------|        PM--------|        PM--------|        PM--------|
  Q  S S E E E E E   Q  S S E E E E E   Q  S S E E E E E   Q  S S E E E E E
|------------------|------------------|------------------|-------------------|
|------------------|------------------|------------------|-------------------|
|------------------|------------------|------------------|-------------------|
|-0--------------0h|=2--------------2h|=3--------------3h|=5--------------5p=|
|-0--------------0-|-2--------------2-|-3--------------3-|-5--------------5--|
|-0--0-0-0-0-0-0-0h|=2--0-0-0-0-0-0-2h|=3--0-0-0-0-0-0-3h|=5--0-0-0-0-0-0-5p=|
|
| Gtr VI
| Q  H         E E   Q  H         E E   Q  H         E E   Q  H         E E
|------------------|------------------|------------------|-3--------------3--|
|-3--------------3-|-5--------------5-|-8--------------8-|-------------------|
|------------------|------------------|------------------|-3--------------3--|
|-3--------------3-|-5--------------5-|-5--------------5-|-------------------|
|------------------|------------------|------------------|-------------------|
|------------------|------------------|------------------|-------------------|


  F5             F5  E5             E5  G5             G5  A5   A5
     PM--------|        PM--------|        PM--------|               ~~~~~
  Q  S S E E E E E   Q  S S E E E E E   Q  S S E E E E E   Q  E E E  Q  E
|------------------|------------------|------------------|-----------------|
|------------------|------------------|------------------|-----------------|
|------------------|------------------|------------------|-----------------|
|-3--------------3p|=2--------------2h|=5--------------5h|=7----7----------|
|-3--------------3-|-2--------------2-|-5--------------5-|-7----7---/8--7--|
|-3--0-0-0-0-0-0-3p|=2--0-0-0-0-0-0-2h|=5--0-0-0-0-0-0-5h|=7--0-7-0--------|
|
|                                                          ~
| Q  H         E E   Q  H         E E   Q  H         E E   W
|------------------|------------------|-3--------------3-|-5---------------|
|-8--------------8-|-5--------------5-|------------------|-----------------|
|------------------|------------------|-3--------------3-|-5---------------|
|-5--------------5-|-5--------------5-|------------------|-----------------|
|------------------|------------------|------------------|-----------------|
|------------------|------------------|------------------|-----------------|


  D5                Bb5
  Gtrs I, II
  Q.    Q   E E E    Q   Q   E E  Q
|-----------------|------------------|
|-----------------|------------------|
|-----------------|--3---3---3-3--3--|
|-0-----0---0-0-0-|--3---3---3-3--3--|
|-0-----0---0-0-0-|--1---1---1-1--1--|
|-0-----0---0-0-0-|------------------|
|
| Gtr V
| Q   Q   E Q   E    Q   Q   Q    Q
|-----------------|------------------|
|-----------------|------------------|
|-7---7---7-7---7s|=10--14--12---10--|
|-x---x---x-x---x-|------x---x----x--|
|-5---5---5-5---5s|==8--12--10----8--|
|-----------------|------------------|


  Bb5                     G5
  Q    Q     E  E  Q       Q.     Q     E  E E
|-----------------------|----------------------|
|-----------------------|----------------------|
|-3----3-----3--3--3----|----------------------|
|-3----3-----3--3--3----|--5------5-----5--5-5-|
|-1----1-----1--1--1----|--5------5-----5--5-5-|
|-----------------------|--5------5-----5--5-5-|
|
| E  Q    E  E  E  E  E    Q    Q    E  Q.
|-----------------------|----------------------|
|-----------------------|----------------------|
|-7s10---10-10-10-10-10-|-12---12---12-12------|
|-x-------x--x--x--x--x-|--x----x----x--x------|
|-5s=8----8--8--8--8--8-|-10---10---10-10------|
|-----------------------|----------------------|


  D5                Bb5                Bb5                   G5
  Q.    Q   E E E    Q   Q   E E  Q     Q   Q   E  E  Q      Q.    Q   Q.
|-----------------|------------------|---------------------|-----------------|
|-----------------|------------------|---------------------|-----------------|
|-----------------|--3---3---3-3--3--|--3---3---3--3--3----|-----------------|
|-0-----0---0-0-0-|--3---3---3-3--3--|--3---3---3--3--3----|-5-----5---5-----|
|-0-----0---0-0-0-|--1---1---1-1--1--|--1---1---1--1--1----|-5-----5---5-----|
|-0-----0---0-0-0-|------------------|---------------------|-5-----5---5-----|
|
| Q   Q   E Q   E    Q   Q   Q    Q     Q   Q   E  E  E  E   Q   Q   Q    Q
|-----------------|------------------|---------------------|-----------------|
|-----------------|------------------|---------------------|-----------------|
|-7---7---7-7---7s|=10--14--12---10--|-10--10--10-10-10-10-|-7---7---7----7--|
|-x---x---x-x---x-|------x---x----x--|--x---x---x--x--x--x-|-x---x---x----x--|
|-5---5---5-5---5s|==8--12--10----8--|--8---8---8--8--8--8-|-5---5---5----5--|
|-----------------|------------------|---------------------|-----------------|


  D5                   C5                  Am/F              Bb/G
   Q   E  E  E E  Q     Q   E E  E E  Q    Q   E E E E Q     Q   E E E E Q
|--------------------|-------------------|-----------------|----------------|
|--------------------|-------------------|-----------------|----------------|
|--7---7--7--7-7--7--|--5---5-5--5-5--5--|-----------------|----------------|
|--7---7--7--7-7--7--|--5---5-5--5-5--5--|-7---7-7-7-7-7---|-8---8-8-8-8-8--|
|--5---5--5--5-5--5--|--3---3-3--3-3--3--|-3---3-3-3-3-3---|-5---5-5-5-5-5--|
|--------------------|-------------------|-3---3-3-3-3-3---|-5---5-5-5-5-5--|
|
|  Q   E  E  Q    Q     Q   Q    Q    Q    E E E E E E E E   E E E E E E Q
|--------------------|-------------------|-----------------|----------------|
|--------------------|-------------------|-----------------|----------------|
|-10--10s14-17---14--|-17--15---14---10--|-5-5-5-5-5-5-5-5-|-7-7-7-7-7-7-7--|
|--x---x-----x----x--|--x---x----x----x--|-x-x-x-x-x-x-x-x-|-x-x-x-x-x-x-x--|
|--8---8s12-15---12--|-15--13---12----8--|-3-3-3-3-3-3-3-3-|-5-5-5-5-5-5-5--|
|--------------------|-------------------|-----------------|----------------|


  D5                   C5                  Am/F              Bb/G
   Q   E  E  E E  Q     Q   E E  E E  Q    Q   E E E E Q      Q   E E  E E Q
|--------------------|-------------------|-----------------|------------------||
|--------------------|-------------------|-----------------|------------------||
|--7---7--7--7-7--7--|--5---5-5--5-5--5--|-----------------|------------------||
|--7---7--7--7-7--7--|--5---5-5--5-5--5--|-7---7-7-7-7-7---|--8---8-8--8-8-8--||
|--5---5--5--5-5--5--|--3---3-3--3-3--3--|-3---3-3-3-3-3---|--5---5-5--5-5-5--||
|--------------------|-------------------|-3---3-3-3-3-3---|--5---5-5--5-5-5--||
|
|  Q   E  E  Q    Q     Q   Q    Q    Q    E E E E E E E E    Q   Q    H
|--------------------|-------------------|-----------------|------------------||
|--------------------|-------------------|-----------------|------------------||
|-10--10s14-17---14--|-17--15---14---10--|-5-5-5-5-5-5-5-5-|-10--12---10------||
|--x---x-----x----x--|--x---x----x----x--|-x-x-x-x-x-x-x-x-|--x---x----x------||
|--8---8s12-15---12--|-15--13---12----8--|-3-3-3-3-3-3-3-3-|--8--10----8------||
|--------------------|-------------------|-----------------|------------------||


   Interlude
    Gtrs I, II
        PM--|     PM--|     PM        PM--|       PM--|   PM
    E E S S E E E S S E   E E E E E E S S E   E E S S E E E E E
||----------------------|-------------------|--------------------||
||o---------------------|-------------------|-------------------o||
||----------------------|-------------------|--------------------||
||--3p2-------3p2-------|-2---2h3-----------|--------------------||
||o---------------------|---------5p3-------|-5p3-------3---3h5-o||
||------0-0-0-----0-0-0-|---0---------0-0-0-|-----0-0-0---0------||


      PM--|     PM--|     PM        PM--|       PM--|   PM
  E E S S E E E S S E   E E E E E E S S E   E E S S E E E E E
|---------------------|-------------------|-------------------||
|---------------------|-------------------|-------------------||
|---------------------|-------------------|-------------------||
|-7p5-------7p5-------|-5---5h7S5p3-------|-5-3-------3---3h5-||
|---------------------|-------------------|-------------------||
|-----5-5-5-----5-5-5-|---5---------3-3-3-|-----3-3-3---3-----||


   Pre-Solo
    Gtr V
      ~~                                    ~~~~~~~~~~~~~~~~~
    a H.             Q       E +E     +Q    H            +W
||-------------------------|--------------------------|-----------------------||
||o------------------------|--------------------------|----------------------o||
||--5s7--------------------|-9-(9)b10r(9)-------------|-----------------------||
||------------------10-----|---------------10---------|-(10)------------------||
||o------------------------|--------------------------|----------------------o||
||-------------------------|--------------------------|-----------------------||
|
|   Gtr I
|         PM--|      PM--|      PM              PM--|         PM--|   PM
|     E E S S E E E  S S E   E  E      E E  E E S S E     E E S S E E E E E
||-------------------------|--------------------------|-----------------------||
||o------------------------|--------------------------|----------------------o||
||-------------------------|--------------------------|-----------------------||
||----3p2-------3p2--------|-2---------2h3------------|-----------------------||
||o------------------------|----------------5p3-------|---5p3-------3---3h5--o||
||--------0-0-0------0-0-0-|----0---------------0-0-0-|-------0-0-0---0-------||
|
|   Gtr II
|         PM--|      PM--|      PM              PM--|         PM--|   PM
|     E E S S E E E  S S E   E  E      E E  E E S S E     E E S S E E E E E
||-------------------------|--------------------------|-----------------------||
||o------------------------|--------------------------|----------------------o||
||-------------------------|--------------------------|-----------------------||
||-------------------------|--------------------------|-----------------------||
||o---5p3-------5p3--------|-3---------3h5--2h3-------|---2h3-------3---3p2--o||
||--------0-0-0------0-0-0-|----0---------------0-0-0-|-------0-0-0---0-------||


  Gtr V
   ~~~                                   ~~~~~
   W                      E    +E  +E +E H
|----------------------|-------------------------------|
|----------------------|-------------------------------|
|-/7-------------------|--9b10-(9)-(9)(9)9pb10---------|
|----------------------|-------------------------------|
|----------------------|-------------------------------|
|----------------------|-------------------------------|
|
| Gtr III
|  <                      <
|  W                     +W
|----------------------|-------------------------------|
|----------------------|-------------------------------|
|-<3>------------------|-(3)---------------------------|
|----------------------|-------------------------------|
|----------------------|-------------------------------|
|----------------------|-------------------------------|
|
| Gtrs I, II
|      PM--|     PM--|          PM               PM--|
|  E E S S E E E S S E    E     E   E  E E     E S S E
|----------------------|-------------------------------|
|----------------------|-------------------------------|
|----------------------|-------------------------------|
|--7p5-------7p5-------|--5---------5h=7S5p====3-------|
|----------------------|-------------------------------|
|------5-5-5-----5-5-5-|--------5----------------3-3-3-|


                 ~~~~~~~~~~~~~~~
   |-3--| |-3-|
   S  S S S S S  H          +Q
|---------------------------------||
|---------------<3>---------(3)---||
|-----------0h2-------------------||
|-------2h3-----------------------||
|--5s=3---------------------------||
|---------------------------------||
|
|  <
| +W
|---------------------------------||
|---------------------------------||
|-(3)-----------------------------||
|---------------------------------||
|---------------------------------||
|---------------------------------||
|
|                PM---|   PM
|  E      E      S  S E E E  E E
|---------------------------------||
|---------------------------------||
|---------------------------------||
|--5------3-------------3----3h5--||
|---------------------------------||
|----------------3--3-3---3-------||


 Guitar Solo
  D5       F5      G5     Bb5      G5      A5
  Gtrs I, II
   Q.      Q.      Q       Q.      Q.      Q
   |       |       |       |       |       |
   /       /       /       /       /       /

  Gtr V
   ~~~~~~~~~~~~~~~~~~~~~~~~~~~~~~~~~~~~~~~~~~~~~~
  +W                      +S
|-----------------------|-----------------------|
|-(3)-------------------|-(3)-------------------|
|-----------------------|-----------------------|
|-----------------------|-----------------------|
|-----------------------|-----------------------|
|-----------------------|-----------------------|
|
| Gtr III
|  ~~~~~~~~~~~~~~~~~~~~~~~~~~~~~~~~~~~~~~~~~~~~~~
|  W                      +W
|-----------------------|-----------------------|
|-----------------------|-----------------------|
|-[3]-------------------|-(3)-------------------|
|-----------------------|-----------------------|
|-----------------------|-----------------------|
|-----------------------|-----------------------|
|
| Gtr IV
|                          \2
|  W                      +W
|-----------------------|-----------------------|
|-----------------------|-----------------------|
|-<5>-------------------|-(5)-------------------|
|-<5>-------------------|-(5)-------------------|
|-----------------------|-----------------------|
|-----------------------|-----------------------|


  F5         G5             E5      F5
   Q.        H        +E     Q.     H    +E
   |         |         |     |      |     |
   /         /         /     /      /     /

 ~~~~~~~~~~~~~~~~~~~~~~~~~~~~~~~~~
  +W                        +W
|-------------------------|-----------------|
|-(3)---------------------|-(3)-------------|
|-------------------------|-----------------|
|-------------------------|-----------------|
|-------------------------|-----------------|
|-------------------------|-----------------|
|
|  \1.5
|~~~~~~~~~~~~~~~~~~~~~~~~~~~~~~~~~
| +W                        +W
|-------------------------|-----------------|
|-------------------------|-----------------|
|-(3)---------------------|-(3)-------------|
|-------------------------|-----------------|
|-------------------------|-----------------|
|-------------------------|-----------------|
|
|                            \5.5
| +W                        +W
|-------------------------|-----------------|
|-------------------------|-----------------|
|-(5)---------------------|-(5)-------------|
|-(5)---------------------|-(5)-------------|
|-------------------------|-----------------|
|-------------------------|-----------------|


  D5      F5      G5    Bb5     G5      A5        F5           G5
   Q.      Q.     Q      Q.      Q.     Q           Q.           H          +E
   |       |      |      |       |      |           |                           |    |
   /       /      /      /       /      /       /    /           /

        ~~~~~                 ~~~~~
                                                    |--3---|  |--3--|  |--3--|  |--3--|
   Q.      H        E    Q.   H   +E      S   S  S  S  S  S  S  S  S  S  S S
|-15b17---15b17-------|-15b17---15b17-----(15)\-|---------------------15------------|
|-------------------x-|-------------------------|-/17--------18p17-------15---------|
|-------------------x-|-------------------------|------17----------17-------15------|
|---------------------|-------------------------|---------17------------------------|
|---------------------|-------------------------|-----------------------------------|
|---------------------|-------------------------|-----------------------------------|

|--3---|  |--3--|  |--3--|  |--3--|
S   S  S  S  S  S  S  S  S  S  S  S
17p13-----------17p13---------------------------|
--15--------------15----------------15h17-------|
-----14--------------14----------15-------------|
---------15-------------15----17----------------|
---------------------------17-------------------|
------------------------------------------------|


|
|  \2                                               \5
|  W                    +W                         +H                                   +H
|-<3>-----------------|-(3)---------------------|--(3)-----------------------------|
|-<3>-----------------|-(3)---------------------|--(3)-----------------------------|
|---------------------|-------------------------|----------------------------------|
|---------------------|-------------------------|----------------------------------|
|---------------------|-------------------------|----------------------------------|
|---------------------|-------------------------|----------------------------------|

-----(3)----------------------------------|
-----(3)----------------------------------|
------------------------------------------|
------------------------------------------|
------------------------------------------|
------------------------------------------|


|
|  \6
|  W                    +W                         +W
|-<5>-----------------|-(5)---------------------|--(5)-----------------------------|
|-<5>-----------------|-(5)---------------------|--(5)-----------------------------|
|---------------------|-------------------------|----------------------------------|
|---------------------|-------------------------|----------------------------------|
|---------------------|-------------------------|----------------------------------|
|---------------------|-------------------------|----------------------------------|

------------------------------------------|
------------------------------------------|
------------------------------------------|
------------------------------------------|
------------------------------------------|
------------------------------------------|


  E5                           F5
   Q.                           H                                    +E
   |                            |                                     |
   /                            /                                     /

   |--3---|  |--3--|  |--3---|  |--3--|  |--3---|  |--3--|  |--3---|  |--3--|
   S   S  S  S  S  S  S   S  S  S  S  S  S   S  S  S  S  S  S   S  S  S  S  S
|--------17p15-------17p=15----------15h17--18p17-18h20-17h18p=17-18h20p18-------||
|-18p=15-------18p15--------18p15-17---------------------------------------20----||
|--------------------------------------------------------------------------------||
|--------------------------------------------------------------------------------||
|--------------------------------------------------------------------------------||
|--------------------------------------------------------------------------------||
|
|                     /                  \7
| +Q                 +Q                 +Q                 +Q
|-(3)----------------(3)----------------(3)----------------(3)-------------------||
|-(3)----------------(3)----------------(3)----------------(3)-------------------||
|--------------------------------------------------------------------------------||
|--------------------------------------------------------------------------------||
|--------------------------------------------------------------------------------||
|--------------------------------------------------------------------------------||
|
| +W
|-(5)----------------------------------------------------------------------------||
|-(5)----------------------------------------------------------------------------||
|--------------------------------------------------------------------------------||
|--------------------------------------------------------------------------------||
|--------------------------------------------------------------------------------||
|--------------------------------------------------------------------------------||


 Chorus
  D5                           D5      E5             E5
  Gtrs I, II
          PM-----------|                  PM--------|
   Q      S S E   E  E   E       E     Q  S S E E E E E
|------------------------------------|------------------|
|------------------------------------|------------------|
|------------------------------------|------------------|
|--0-----------------------------0h==|=2--------------2h|
|--0-----------------------------0---|-2--------------2-|
|--0------0-0-0---0--0---0-------0h==|=2--0-0-0-0-0-0-2h|
|
| Gtr VI
|  Q      H              E       E     Q  H         E E
|------------------------------------|------------------|
|--3-----------------------------3---|-5--------------5-|
|------------------------------------|------------------|
|--3-----------------------------3---|-5--------------5-|
|------------------------------------|------------------|
|------------------------------------|------------------|
|
| Gtr V
|  H             +Q     +E      +E     W
|-20b22=========(20)r==(20)b22r(20)\-|------------------|
|------------------------------------|------------------|
|------------------------------------|------------------|
|------------------------------------|------------------|
|------------------------------------|------------------|
|------------------------------------|------------------|


  F5             F5  G5             G5
     PM--------|        PM--------|
  Q  S S E E E E E   Q  S S E E E E E
|------------------|-------------------|
|------------------|-------------------|
|------------------|-------------------|
|-3--------------3h|=5--------------5p=|
|-3--------------3-|-5--------------5--|
|-3--0-0-0-0-0-0-3h|=5--0-0-0-0-0-0-5p=|
|
| Q  H         E E   Q  H         E E
|------------------|-3--------------3--|
|-8--------------8-|-------------------|
|------------------|-3--------------3--|
|-5--------------5-|-------------------|
|------------------|-------------------|
|------------------|-------------------|
|
| W                  W
|------------------|-------------------|
|------------------|-------------------|
|------------------|-------------------|
|------------------|-------------------|
|------------------|-------------------|
|------------------|-------------------|


  F5             F5  E5             E5  G5             G5  A5   A5
     PM--------|        PM--------|        PM--------|               ~~~~~
  Q  S S E E E E E   Q  S S E E E E E   Q  S S E E E E E   Q  E E E  Q  E
|------------------|------------------|------------------|-----------------|
|------------------|------------------|------------------|-----------------|
|------------------|------------------|------------------|-----------------|
|-3--------------3p|=2--------------2h|=5--------------5h|=7----7----------|
|-3--------------3-|-2--------------2-|-5--------------5-|-7----7---/8--7--|
|-3--0-0-0-0-0-0-3p|=2--0-0-0-0-0-0-2h|=5--0-0-0-0-0-0-5h|=7--0-7-0--------|
|
|                                                          ~
| Q  H         E E   Q  H         E E   Q  H         E E   W
|------------------|------------------|-3--------------3-|-5---------------|
|-8--------------8-|-5--------------5-|------------------|-----------------|
|------------------|------------------|-3--------------3-|-5---------------|
|-5--------------5-|-5--------------5-|------------------|-----------------|
|------------------|------------------|------------------|-----------------|
|------------------|------------------|------------------|-----------------|


  D5                Bb5
  Gtrs I, II
  Q.    Q   E E E    Q   Q   E E  Q
|-----------------|------------------|
|-----------------|------------------|
|-----------------|--3---3---3-3--3--|
|-0-----0---0-0-0-|--3---3---3-3--3--|
|-0-----0---0-0-0-|--1---1---1-1--1--|
|-0-----0---0-0-0-|------------------|
|
| Gtr V
| Q   Q   E Q   E    Q   Q   Q    Q
|-----------------|------------------|
|-----------------|------------------|
|-7---7---7-7---7s|=10--14--12---10--|
|-x---x---x-x---x-|------x---x----x--|
|-5---5---5-5---5s|==8--12--10----8--|
|-----------------|------------------|


  Bb5                     G5
  Q    Q     E  E  Q       Q.     Q     E  E E
|-----------------------|----------------------|
|-----------------------|----------------------|
|-3----3-----3--3--3----|----------------------|
|-3----3-----3--3--3----|--5------5-----5--5-5-|
|-1----1-----1--1--1----|--5------5-----5--5-5-|
|-----------------------|--5------5-----5--5-5-|
|
| E  Q    E  E  E  E  E    Q    Q    E  Q.
|-----------------------|----------------------|
|-----------------------|----------------------|
|-7s10---10-10-10-10-10-|-12---12---12-12------|
|-x-------x--x--x--x--x-|--x----x----x--x------|
|-5s=8----8--8--8--8--8-|-10---10---10-10------|
|-----------------------|----------------------|


  D5                Bb5                Bb5                   G5
  Q.    Q   E E E    Q   Q   E E  Q     Q   Q   E  E  Q      Q.    Q   Q.
|-----------------|------------------|---------------------|-----------------|
|-----------------|------------------|---------------------|-----------------|
|-----------------|--3---3---3-3--3--|--3---3---3--3--3----|-----------------|
|-0-----0---0-0-0-|--3---3---3-3--3--|--3---3---3--3--3----|-5-----5---5-----|
|-0-----0---0-0-0-|--1---1---1-1--1--|--1---1---1--1--1----|-5-----5---5-----|
|-0-----0---0-0-0-|------------------|---------------------|-5-----5---5-----|
|
| Q   Q   E Q   E    Q   Q   Q    Q     Q   Q   E  E  E  E   Q   Q   Q    Q
|-----------------|------------------|---------------------|-----------------|
|-----------------|------------------|---------------------|-----------------|
|-7---7---7-7---7s|=10--14--12---10--|-10--10--10-10-10-10-|-7---7---7----7--|
|-x---x---x-x---x-|------x---x----x--|--x---x---x--x--x--x-|-x---x---x----x--|
|-5---5---5-5---5s|==8--12--10----8--|--8---8---8--8--8--8-|-5---5---5----5--|
|-----------------|------------------|---------------------|-----------------|


  D5                   C5                  Am/F              Bb/G
   Q   E  E  E E  Q     Q   E E  E E  Q    Q   E E E E Q     Q   E E E E Q
|--------------------|-------------------|-----------------|----------------|
|--------------------|-------------------|-----------------|----------------|
|--7---7--7--7-7--7--|--5---5-5--5-5--5--|-----------------|----------------|
|--7---7--7--7-7--7--|--5---5-5--5-5--5--|-7---7-7-7-7-7---|-8---8-8-8-8-8--|
|--5---5--5--5-5--5--|--3---3-3--3-3--3--|-3---3-3-3-3-3---|-5---5-5-5-5-5--|
|--------------------|-------------------|-3---3-3-3-3-3---|-5---5-5-5-5-5--|
|
|  Q   E  E  Q    Q     Q   Q    Q    Q    E E E E E E E E   E E E E E E Q
|--------------------|-------------------|-----------------|----------------|
|--------------------|-------------------|-----------------|----------------|
|-10--10s14-17---14--|-17--15---14---10--|-5-5-5-5-5-5-5-5-|-7-7-7-7-7-7-7--|
|--x---x-----x----x--|--x---x----x----x--|-x-x-x-x-x-x-x-x-|-x-x-x-x-x-x-x--|
|--8---8s12-15---12--|-15--13---12----8--|-3-3-3-3-3-3-3-3-|-5-5-5-5-5-5-5--|
|--------------------|-------------------|-----------------|----------------|


  D5                   C5                  Am/F              Bb/G
   Q   E  E  E E  Q     Q   E E  E E  Q    Q   E E E E Q      Q   E E  E E Q
|--------------------|-------------------|-----------------|------------------||
|--------------------|-------------------|-----------------|------------------||
|--7---7--7--7-7--7--|--5---5-5--5-5--5--|-----------------|------------------||
|--7---7--7--7-7--7--|--5---5-5--5-5--5--|-7---7-7-7-7-7---|--8---8-8--8-8-8--||
|--5---5--5--5-5--5--|--3---3-3--3-3--3--|-3---3-3-3-3-3---|--5---5-5--5-5-5--||
|--------------------|-------------------|-3---3-3-3-3-3---|--5---5-5--5-5-5--||
|
|  Q   E  E  Q    Q     Q   Q    Q    Q    E E E E E E E E    Q   Q    H
|--------------------|-------------------|-----------------|------------------||
|--------------------|-------------------|-----------------|------------------||
|-10--10s14-17---14--|-17--15---14---10--|-5-5-5-5-5-5-5-5-|-10--12---10------||
|--x---x-----x----x--|--x---x----x----x--|-x-x-x-x-x-x-x-x-|--x---x----x------||
|--8---8s12-15---12--|-15--13---12----8--|-3-3-3-3-3-3-3-3-|--8--10----8------||
|--------------------|-------------------|-----------------|------------------||


 Outro
                                                               D5
  Gtrs I, II
  PM------------------|     ~~   PM------------------|           PM
  Q.   Q.   Q    Q.   Q  E  Q    Q.   Q.   Q    Q.   Q  E  Q     h    H
|--------------|---------------|--------------|----------------|-----------*|
|--------------|---------------|--------------|----------------|-----------*|
|--------------|---------------|--------------|----------------|-----------*|
|--------------|---------------|--------------|----------------|-----------*|
|--------------|---------------|--------------|----------------|-0---------*|
|-0----0----0--|-0----0--3s12--|-0----0----0--|-0----0--3s12\--|-0---------*|

---------------------------------------------
                  Lost
---------------------------------------------

Transcribed by Seth Sanders {F.u.c.kallyourfalsebeauty@hotmail.com}

D5
x 5 7 7 x x

C5
x 3 5 5 x x

Bb5
x 1 3 3 x x

D5(type 2)
x 5 7 x x x

C5(type 2)
x 3 5 x x x

Bb5(type 2)
x 1 3 x x x


Gtr I (D A D G B E) - 'Rhythm I'
Gtr II (D A D G B E) - 'Rhythm II'
Gtr III (D A D G B E) - 'Lead I'
Gtr IV (D A D G B E) - 'Lead II'
Gtr V (D A D G B E) - 'Lead III'
Gtr VI (D A D G B E) - 'Lead IV'


 Intro
  Q=92
 4/4
  Gtr III
    ~~~    ~                         ~~~~~~~~~~~~~~~~~~~~~~~~~~~
    E S  S E  E E  E    E  E     a   W
|-----------------------------|--------------------------------|
|-----------------------------|--------------------------------|
|-----9h10p9----9h10\-/14-14\-|-14s=19-------------------------|
|-/12--------12---------------|--------------------------------|
|-----------------------------|--------------------------------|
|-----------------------------|--------------------------------|
|
| Gtr IV
|                                    ~~~    ~
|   W                                E S  S E  E E  E    E  E
|-----------------------------|--------------------------------|
|-----------------------------|--------------------------------|
|-----------------------------|--------9h10p9----9h10\-/14-14\-|
|-----------------------------|----/12--------12---------------|
|-----------------------------|--------------------------------|
|-----------------------------|--------------------------------|


 ~~~~~~~~     ~                         ~~~
       E S  S E  E E  E    E  E     a   W
|--------------------------------|--------------------------------|
|--------------------------------|--------------------------------|
|--------9h10p9----9h10\-/14-14\-|-14s=19-------------------------|
|----/12--------12---------------|--------------------------------|
|--------------------------------|--------------------------------|
|--------------------------------|--------------------------------|
|
|      ~~~~~~~~~~~~~~~~~~~~~~~~~~~~~~~~~~~     ~
|  a   W                                E S  S E  E E  E    E  E
|--------------------------------|--------------------------------|
|--------------------------------|--------------------------------|
|-14s=19-------------------------|--------9h10p9----9h10\-/14-14\-|
|--------------------------------|----/12--------12---------------|
|--------------------------------|--------------------------------|
|--------------------------------|--------------------------------|


  Gtr II
    W                                   E S  S E  E E  E    E  E
    |                                   | |  | |  | |  |    |  |
    o                                   o o  o o  o o  o    o  o

  Gtr V
    ~~~      ~~                         ~~~~~~~~~~~~~~~~~~~~~~~~~~~
    E  S  S  E  E  E  E    E  E     a   W
|--------------------------------|--------------------------------|
|--------------------------------|--------------------------------|
|------9h10p=9-----9h10\-/14-14\-|-14s=19-------------------------|
|-/12----------12----------------|--------------------------------|
|--------------------------------|--------------------------------|
|--------------------------------|--------------------------------|
|
| Gtr IV
|   ~~~~~~~~~~~~~~~~~~~~~~~~~~~~~~~~~~~~~~     ~
|   W                                   E S  S E  E E  E    E  E
|--------------------------------|--------------------------------|
|--------------------------------|--------------------------------|
|-/19----------------------------|--------9h10p9----9h10\-/14-14\-|
|--------------------------------|----/12--------12---------------|
|--------------------------------|--------------------------------|
|--------------------------------|--------------------------------|
|
| Gtr I
|                                       ~~~
|   E  S  S  E  E  E  E    E  E     a   W
|--------------------------------|--------------------------------|
|--------------------------------|--------------------------------|
|-----12h14p12----12h14\-/19-19\-|-19s=22-------------------------|
|-/15----------15----------------|--------------------------------|
|--------------------------------|--------------------------------|
|--------------------------------|--------------------------------|


       W                                   E  S  S E  E E  E    E  E
       |                                   |  |  | |  | |  |    |  |
       o                                   o  o  o o  o o  o    o  o

 ~~~~~~~~       ~~                         ~~~~
       E  S  S  E  E  E  E    E  E     a   W
|-----------------------------------|-----------------------------------|
|-----------------------------------|-----------------------------------|
|---------9h10p=9-----9h10\-/14-14\-|-14s=19----------------------------|
|----/12----------12----------------|-----------------------------------|
|-----------------------------------|-----------------------------------|
|-----------------------------------|-----------------------------------|
|
|      ~~~~~~~~~~~~~~~~~~~~~~~~~~~~~~~~~~~~~~~     ~
|  a   W                                   E  S  S E  E E  E    E  E
|-----------------------------------|-----------------------------------|
|-----------------------------------|-----------------------------------|
|-14s=19----------------------------|---------9h10p9----9h10\-/14-14\---|
|-----------------------------------|----/12---------12-----------------|
|-----------------------------------|-----------------------------------|
|-----------------------------------|-----------------------------------|
|
|                                          ~~~~
|      E  S  S  E  E  E  E    E  E     a   H.                   E  E
|-----------------------------------|-----------------------------------|
|-----------------------------------|--------------------------18p17\---|
|--------12h14p12----12h14\-/19-19\-|-19s=22----------------------------|
|----/15----------15----------------|-----------------------------------|
|-----------------------------------|-----------------------------------|
|-----------------------------------|-----------------------------------|


    H                  H                  E  E   E  S  S  E  S  S  E   E
    |                  |                  |  |   |  |  |  |  |  |  |   |
    o                  o                  o  o   o  o  o  o  o  o  o   o

  Gtr III
                                             ~~~
    E     E  E  S  S   E   S  S  E  E     E  H.                       +E
|-/10---------------------------------|------------------------------------|
|--------11----11---------------------|------------------------------------|
|-----------12----12------12----------|------------------------------------|
|---------------------12-----12-------|--10h12-----------------------(12)\-|
|-------------------------------13p10-|------------------------------------|
|-------------------------------------|------------------------------------|
|
| Gtr I
|                                            ~~~
|   E     E  E  S  S   E   S  S  E  E     E  H.                       +E
|-------------------------------------|------------------------------------|
|-/11---------------------------------|------------------------------------|
|--------12----12---------------------|------------------------------------|
|-----------12----12------12----------|------------------------------------|
|---------------------13-----13p10----|--12p10-----------------------(10)\-|
|----------------------------------13-|------------------------------------|
|
| Gtr IV
|                      ~~~~
|   H                 +H                  E  E   E  S  S  E  S  S  E   E
|--15b17-------------(15)-------------|-/10--------------------------------|
|-------------------------------------|-----11-----11----------------------|
|-------------------------------------|---------12----12----12-------------|
|-------------------------------------|------------------12----12----------|
|-------------------------------------|---------------------------13p=10---|
|-------------------------------------|------------------------------------|


    W                                E  E   E  S  S  E  S  S  E   E
    |                                |  |   |  |  |  |  |  |  |   |
    o                                o  o   o  o  o  o  o  o  o   o

                                        ~~~
    E  E  E  S  S  E  S  S  E  E     E  H.                       +E
|-/10----------------------------|-------------------------------------||
|-----11----11-------------------|-------------------------------------||
|--------12----12----12----------|-------------------------------------||
|-----------------12----12-------|------8------------------------(8)\--||
|--------------------------13p10-|---8---------------------------------||
|--------------------------------|-------------------------------------||
|
|                                       ~~~
|   E  E  E  S  S  E  S  S  E  E     E  H.                       +E
|--------------------------------|-------------------------------------||
|-/11----------------------------|-------------------------------------||
|-----12----12-------------------|-------------------------------------||
|--------12----12----12----------|-----12-----------------------(12)\--||
|-----------------13----13p10----|--12---------------------------------||
|-----------------------------13-|-------------------------------------||
|
|   ~~~
|   W                                E  E   E  S  S  E  S  S  E   E
|--------------------------------|-/10---------------------------------||
|--------------------------------|-----11-----11-----------------------||
|--------------------------------|---------12----12----12--------------||
|--------------------------------|------------------12----12-----------||
|--12----------------------------|---------------------------13p=10----||
|--------------------------------|-------------------------------------||


 Pre-Verse
  D5(type 2)                  C5(type 2)    Bb5(type 2)         C5(type)
  Gtrs I, II
   S  S S  S S S  S S S S  S S  S  S  S S     S S S  S S S  S S S S  S S  E  E
   |  | |  | | |  | | | |  | |  |  |  | |     | | |  | | |  | | | |  | |  |  |
   /  / /  / / /  / / / /  / /  /  /  / /     / / /  / / /  / / / /  / /  /  /

  Gtr III
   ~~~       ~~                               ~~~~~~~~~~~~~~~~~~~~~~~~~~~~~~~~~~
   E    S  S E    E   E    E    E     E       W
|-----------------------------------------|------------------------------------|
|-------8h10p8--------8h==10---15----15---|--18--------------------------------|
|-10----9h10p9---10---9h==10---14----14---|--19--------------------------------|
|-12-------------12-----------------------|------------------------------------|
|-----------------------------------------|------------------------------------|
|-----------------------------------------|------------------------------------|
|  E    S  S E    E   E    E    E     E       W
|   ^^^^^^^^^^^LOWER AND HIGHER MELODIES. Harmony is overtop.
| Gtr IV
|  ~~~                                        ~~       ~~
|  H.                           Q             E   S  S E    E   E    E    E  E
|-----------------------------------------|------------------------------17-15-|
|-----------------------------------------|-------8h10p8--------8h==10---18-17-|
|-----------------------------------------|--10---9h10p9---10---9h==10---------|
|-----------------------------------------|--12------------12------------------|
|-/8----------------------------7\--------|------------------------------------|
|-----------------------------------------|------------------------------------|
                                              E   S  S E    E   E    E    E  E


  D5(type 2)                 C5(type 2)  Bb5(type 2)            C5(type 2)
   S S S  S S S  S S S S  S S  S S  S S    S S S  S S S  S S S S  S S  E  E
   | | |  | | |  | | | |  | |  | |  | |    | | |  | | |  | | | |  | |  |  |
   / / /  / / /  / / / /  / /  / /  / /    / / /  / / /  / / / /  / /  /  /

 ~~~~       ~~                             ~~
   E   S  S E    E   E    E    E    E      W
|---------------------------------------|-----------------------------------|
|------8h10p8--------8h==10---15---15---|-18--------------------------------|
|-10---9h10p9---10---9h==10---14---14---|-19--------------------------------|
|-12------------12----------------------|-----------------------------------|
|---------------------------------------|-----------------------------------|
|---------------------------------------|-----------------------------------|
|  E   S  S E    E   E    E    E    E      W
|
|  ~~~~~~~~~~~~~~~~~~~~~~~~~~~~~~~~~~~~~~~~~~       ~~
|  W                                       E   S  S E    E   E    E    E  E
|-13------------------------------------|-----------------------------13-15-|
|-15------------------------------------|------8h10p8--------8h==10---15-17-|
|---------------------------------------|-10---9h10p9---10---9h==10---------|
|---------------------------------------|-12------------12------------------|
|---------------------------------------|-----------------------------------|
|---------------------------------------|-----------------------------------|
   W                                       E   S  S E    E   E    E    E  E


  D5(type 2)                           C5(type Bb5(type 2)     C5(type 2)D5(type
  Gtrs I, II
   S    S  S S  S S  S  S   S  S  S  S  E  E    S    S  S  S  S S  S  S   S  S  S  S  E  E
   |    |  | |  | |  |  |   |  |  |  |  |  |    |    |  |  |  | |  |  |   |  |  |  |  |  |
   /    /  / /  / /  /  /   /  /  /  /  /  /    /    /  /  /  / /  /  /   /  /  /  /  /  /

  Gtr III
                                                        ~~~
   E       E    E    S  S   E     S  S  E  E    E       H.                              +E
|-10-----------------------------------------|-----------------------------------------------|
|-11------11--------11-----------------------|-----------------------------------------------|
|---------12---12---12-12--------12----------|-----------------------------------------------|
|--------------12------12--12----12-12-------|----------8-------------------------------(8)\-|
|--------------------------13-------13-13p10-|--8--------------------------------------------|
|--------------------------------------17-13-|-----------------------------------------------|
|  E       E    E    S  S   E     S  S  E  E
|
| Gtr IV
|                           ~~~~
|  H                       +H                   E       E     E    S  S   E     S  S  E  E
|--------------------------------------------|-10--------------------------------------------|
|-10b11-------------------(10)---------------|-11------11---------11-------------------------|
|--------------------------------------------|---------12----12---12-12--------12------------|
|--------------------------------------------|---------------12------12--12----12-12---------|
|--------------------------------------------|---------------------------13-------13-13p10---|
|--------------------------------------------|---------------------------------------17-13---|
|                                               E       E     E    S  S   E     S  S  E  E
|
| Gtr V
|                           ~~~~                                          ~~~~
|  H                       +H                   H                        +H
|-15b17-------------------(15)---------------|-----------------------------------------------|
|--------------------------------------------|-15b17--------------------(15)-----------------|
|--------------------------------------------|-----------------------------------------------|
|--------------------------------------------|-----------------------------------------------|
|--------------------------------------------|-----------------------------------------------|
|--------------------------------------------|-----------------------------------------------|


          2)                           C5(type 2) Bb5(type 2)         C5(type 2)
   S    S  S S  S S  S  S   S  S  S  S  E   E      S    S  S  S  S S  S  S   S
   |    |  | |  | |  |  |   |  |  |  |  |   |      |    |  |  |  | |  |  |   |
   /    /  / /  / /  /  /   /  /  /  /  /   /      /    /  /  /  / / /  /  /  /
                      ~~~
   E       E    E    S  S   E     S  S  E   E      E       H.                            
   +E
|-10--------------------------------------------|----------------------------------|
|-11------11--------11--------------------------|----------------------------------|
|---------12---12---12-12--------12-------------|----------------------------------|
|--------------12------12--12----12-12----------|----------8-----------------------|
|--------------------------13-------13-13p=10---|--8-------------------------------|
|--------------------------------------17--13---|----------------------------------|

---------------||
---------------||
---------------||
----------(8)\-||
---------------||
---------------||

|  E       E    E    S  S   E     S  S  E   E
|
|  ~~~~~
|  H..                                     +E      E       E     E    S  S   E       S  
 E  E
|-----------------------------------------------|-10-------------------------------|
|-----------------------------------------------|-11------11---------11------------|
|-----------------------------------------------|---------12----12---12-12---------|
|-----------------------------------------------|---------------12------12--12-----|
|-12--------------------------------------(12)\-|---------------------------13-----|
|-----------------------------------------------|----------------------------------|

---------------||
---------------||
-12------------||
-12-12---------||
----13-13p10\--||
-------17-13\--||


|                  E       E     E    S  S   E   S  S  E  E
|
|                                                                            \1.5
|                           ~~~~
|  H                       +H                      H                        +H
|-18b20-------------------(18)------------------|----------------------------------|
|-----------------------------------------------|-17b18--------------------(17)----|
|-----------------------------------------------|----------------------------------|
|-----------------------------------------------|----------------------------------|
|-----------------------------------------------|----------------------------------|
|-----------------------------------------------|----------------------------------|

---------------||
---------------||
---------------||
---------------||
---------------||
---------------||


 Post-Verse
  Gtr II
  PM----------|     PM------|   PM--------|   PM--|   PM  PM---
  T   T T T T T S T T T T T T S T T T T T T S T T T T T T T T
|-------------------------------------------------------------|
|-------------------------------------------------------------|
|-------------------------------------------------------------|
|-7---7-7-7-7-7-8-7-5-5-5-5-5-7-------------5-------5---5-----|
|-------------------------------8-8-8-8-8-8---7-7-7---7---7-7-|
|-------------------------------------------------------------|
|
| Gtr I
|                                                     PM-------
| H..                                                 S   S
|-------------------------------------------------------------|
|-------------------------------------------------------------|
|-------------------------------------------------------------|
|-------------------------------------------------------------|
|-----------------------------------------------------0---0---|
|-----------------------------------------------------0---0---|


 ------------|     PM------|   PM--------|   PM|   PM  PM--|
  T T T T T  T S T T T T T T S T T T T T T S T T T T T T T T
|------------------------------------------------------------||
|------------------------------------------------------------||
|------------------------------------------------------------||
|-7-7-7-7-7--7-8-7-5-5-5-5-5-7-------------5-----5---5-------||
|------------------------------8-8-8-8-8-8---7-7---7---7-5-7-||
|------------------------------------------------------------||
|
|--------------------------------------------------------|
| e       H.                                         S   S
|------------------------------------------------------------||
|------------------------------------------------------------||
|------------------------------------------------------------||
|------------------------------------------------------------||
|-0--------------------------------------------------0---0---||
|-0--------------------------------------------------0---0---||


   Verse
    Gtrs I, II
    S S S S S S  S S  S S S S  S S S S    S S S S  S S S S  S S S S  S S  S S
||-------------------------------------|---------------------------------------|
||o------------------------------------|---------------------------------------|
||-------------------------------------|--3-3-3-3--3-3-3-3---------------------|
||--0-0-0-0-0-0--0-0--5-5-5-5--8-8-8-8-|--3-3-3-3--3-3-3-3--3-3-3-3--3-3--3-3--|
||o-0-0-0-0-0-0--0-0--5-5-5-5--5-5-5-5-|--1-1-1-1--1-1-1-1--3-3-3-3--3-3--3-3--|
||--0-0-0-0-0-0--0-0--5-5-5-5--5-5-5-5-|--------------------3-3-3-3--3-3--3-3--|
|
|   Gtr V
|   Q       E    E    Q        Q          Q        Q        Q        E    E
||-------------------------------------|---------------------------------------|
||o------------------------------------|---------------------------------------|
||--7-------9---10---15-------15-------|-15-------17-------10-------12---14----|
||--x-------x----x----x--------x-------|--x--------x--------x--------x----x----|
||o-5-------7----8---13-------13-------|-13-------15--------8-------10---12----|
||-------------------------------------|---------------------------------------|


   S S S S  S S  S S  S S S S  S S  S S    E E  E  E  S S S S  S S  S S
|---------------------------------------|--------------------------------||
|---------------------------------------|-------------------------------o||
|---------------------7-7-7-7--7-7--7-7-|--------------------------------||
|--7-7-7-7--7-7--7-7--8-8-8-8--8-8--8-8-|--2-2--2--2--3-3-3-3--3-3--3-3--||
|--5-5-5-5--5-5--5-5--5-5-5-5--5-5--5-5-|--3-3--3--3--3-3-3-3--3-3--3-3-o||
|--4-4-4-4--4-4--4-4--------------------|--2-2--2--2--3-3-3-3--3-3--3-3--||
|
|  Q        E    E    Q        E    E      Q    E  E  Q        E    E
|---------------------------------------|--------------------------------||
|---------------------------------------|-------------------------------o||
|-14-------14---14---15-------14---15---|-12---12-12-14-------12---14----||
|--x--------x----x----x--------x----x---|--x----x--x--x--------x----x----||
|-12-------12---12---13-------12---13---|-10---10-10-12-------10---12---o||
|---------------------------------------|--------------------------------||


 Pre-Chorus
   S S  S S S E    S  S S S S S E S    S S  S S  S E    S S S  E  E E
|-----------------------------------|---------------------------------|
|-----------------------------------|---------------------------------|
|--3-3--3-3-3-3----3----------------|---------------------------------|
|--3-3--3-3-3-3----3--1-1-1-1-1-1-1-|--2-2--2-2--2-2----2-3-3--3--3-3-|
|--1-1--1-1-1-1----1--1-1-1-1-1-1-1-|--3-3--3-3--3-3----3-3-3--3--3-3-|
|---------------------1-1-1-1-1-1-1-|--2-2--2-2--2-2----2-3-3--3--3-3-|
|
|  E    E   E    E    H                E    E    E    Q        Q.
|-----------------------------------|---------------------------------|
|-----------------------------------|---------------------------------|
|-10---10---9---10---12-------------|-12---12---10S==15-------14------|
|--x----x---x----x----x-------------|--x----x----x----x--------x------|
|--8----8---7----8---10-------------|-10---10----8S==13-------12------|
|-----------------------------------|---------------------------------|


  Gtrs I, II
  PM--------|     PM------|   PM----------------|       ~
  T T T T T T S T T T T T T S T T T T T T S T T T T T T S
|----------------------------------------------------------||
|----------------------------------------------------------||
|----------------------------------------------------------||
|-7-7-7-7-7-7-8-7-5-5-5-5-5-7---------------------5-5-8-8--||
|-----------------------------8-8-8-8-8-8-5-5-7-7----------||
|----------------------------------------------------------||


   Chorus
    Gtr IV
     S  S  S  S  S  S  S  S  S  S  S  S  S  S  S  S
||--------------------------------------------------|
||o-11p10-------11p10-13p10-11p10-------11p10-13p10-|
||--------10----------------------10----------------|
||-----------10----------------------10-------------|
||o-------------------------------------------------|
||--------------------------------------------------|
|
|   Gtrs I, II
|    S  S  S  S  S  S  E     S  S  S  S  S  S  E
||--------------------------------------------------|
||o-------------------------------------------------|
||--------------------------------------------------|
||---3--3--3--3--3--3--3-----3--3--3--3--3--3--3----|
||o--3--3--3--3--3--3--3-----3--3--3--3--3--3--3----|
||---3--3--3--3--3--3--3-----3--3--3--3--3--3--3----|


   S  S  S  S  S  S  S  S  S  S  S  S  S  S  S  S
|-13p12-------13p12-15p12-13p12-------13h17-15h18--|
|-------13----------------------13-----------------|
|----------12----------------------12--------------|
|--------------------------------------------------|
|--------------------------------------------------|
|--------------------------------------------------|
|
|  S  S  S  S  S  S  E     S  S  S  S  S  S  E
|--------------------------------------------------|
|--------------------------------------------------|
|--5--5--5--5--5--5--5-----5--5--5--5--5--5--5-----|
|--5--5--5--5--5--5--5-----5--5--5--5--5--5--5-----|
|--3--3--3--3--3--3--3-----3--3--3--3--3--3--3-----|
|--------------------------------------------------|


                                                    1.
   S  S  S  S  S  S  S  S  S  S  S  S  S  S  S  S
|-15----------15----15h18p15----------------17h18-|
|----15----------15----------15----------15-------|
|-------15----------------------15----15----------|
|----------17----------------------17-------------|
|-------------------------------------------------|
|-------------------------------------------------|

 S  S  S  S  S  S  S  S  S  S  S  S  S  S  S  S
-------------------------------------------15-----||
-18-------17-------------18p17-------18p17----17-o||
----17-------17----------------17-----------------||
-------17-------17p15-------------17--------------||
----------------------17-------------------------o||
--------------------------------------------------||

|
|  S  S  S  S  S  S  E     S  S  S  S  S  S  S  S
|-------------------------------------------------|
|-------------------------------------------------|
|-------------------------------------------------|
|--5--5--5--5--5--5--5-----5--5--5--5--5--5--5--5-|
|--5--5--5--5--5--5--5-----5--5--5--5--5--5--5--5-|
|--5--5--5--5--5--5--5-----5--5--5--5--5--5--5--5-|

 S  S  S  S  E     E     S  S  S  S  S  S  S  S
--------------------------------------------------||
-------------------------------------------------o||
--3--3--3--3--3-----3-----5--5--5--5--5--5--5--5--||
--3--3--3--3--3-----3-----5--5--5--5--5--5--5--5--||
--1--1--1--1--1-----1-----3--3--3--3--3--3--3--3-o||
--------------------------------------------------||


  2.
   S  S  S  S  S  S  S  S  S  S  S  S  S  S  S  S
|-------------------------------------------17h18-||
|-18-------17-------------18p17-------18p17-------||
|----17-------17----------------17----------------||
|-------17-------17p15-------------17-------------||
|----------------------17-------------------------||
|-------------------------------------------------||
|
|  S  S  S  S  E     E     S  S  S  S  q
|-------------------------------------------------||
|-------------------------------------------------||
|--3--3--3--3--3-----3-----5--5--5--5--5----------||
|--3--3--3--3--3-----3-----5--5--5--5--5----------||
|--1--1--1--1--1-----1-----3--3--3--3--3----------||
|-------------------------------------------------||


 Pre-Verse
  D5(type 2)                  C5(type 2)  Bb5(type 2)                 C5(type
  Gtrs I, II
   S S S  S S S  S S S S  S S  S S  S S    S S S  S S S  S S S S  S S  E  E
   | | |  | | |  | | | |  | |  | |  | |    | | |  | | |  | | | |  | |  |  |
   / / /  / / /  / / / /  / /  / /  / /    / / /  / / /  / / / /  / /  /  /

  Gtr III
   ~~       ~~                             ~~~~~~~~~~~~~~~~~~~~~~~~~~~~~~~~~~
   E   S  S E    E   E    E    E    E      W
|---------------------------------------|-----------------------------------|
|------8h10p8--------8h==10---15---15---|-18--------------------------------|
|-10---9h10p9---10---9h==10---14---14---|-19--------------------------------|
|-12------------12----------------------|-----------------------------------|
|---------------------------------------|-----------------------------------|
|---------------------------------------|-----------------------------------|
|  E   S  S E    E   E    E    E    E      W
|
| Gtr IV
|                                          ~~       ~~
|  W                                       E   S  S E    E   E    E    E  E
|---------------------------------------|-----------------------------17-15-|
|---------------------------------------|------8h10p8--------8h==10---18-17-|
|---------------------------------------|-10---9h10p9---10---9h==10---------|
|---------------------------------------|-12------------12------------------|
|---------------------------------------|-----------------------------------|
|---------------------------------------|-----------------------------------|
                                           E   S  S E    E   E    E    E  E


  D5(type 2)                  C5(type 2)  Bb5(type 2)                 C5(type 2)
   S S S  S S S  S S S S  S S  S S  S S    S S S  S S S  S S S S  S S  E  E
   | | |  | | |  | | | |  | |  | |  | |    | | |  | | |  | | | |  | |  |  |
   / / /  / / /  / / / /  / /  / /  / /    / / /  / / /  / / / /  / /  /  /

 ~~~~       ~~                             ~~
   E   S  S E    E   E    E    E    E      W
|---------------------------------------|------------------------------------|
|------8h10p8--------8h==10---15---15---|-18---------------------------------|
|-10---9h10p9---10---9h==10---14---14---|-19---------------------------------|
|-12------------12----------------------|------------------------------------|
|---------------------------------------|------------------------------------|
|---------------------------------------|------------------------------------|
|  E   S  S E    E   E    E    E    E      W
|
|  ~~~~~~~~~~~~~~~~~~~~~~~~~~~~~~~~~~~~~~~~~~       ~~
|  W                                       E   S  S E    E   E    E    E  E
|-13------------------------------------|-----------------------------13-15--|
|-15------------------------------------|------8h10p8--------8h==10---15-17--|
|---------------------------------------|-10---9h10p9---10---9h==10----------|
|---------------------------------------|-12------------12-------------------|
|---------------------------------------|------------------------------------|
|---------------------------------------|------------------------------------|
   W                                       E   S  S E    E   E    E    E  E


  D5(type 2)                           C5(type Bb5(type 2)                      C5(type 2)D5(type
  Gtrs I, II
   S    S  S S  S S  S  S   S  S  S  S  E  E    S S  S  S  S S  S  S  S S  S  S  E  E
   |    |  | |  | |  |  |   |  |  |  |  |  |    | |  |  |  | |  |  |  | |  |  |  |  |
   /    /  / /  / /  /  /   /  /  /  /  /  /    / /  /  /  / /  /  /  / /  /  /  /  /

  Gtr III
                                                     ~~~
   E       E    E    S  S   E     S  S  E  E    E    H.                            +E
|-10-----------------------------------------|------------------------------------------|
|-11------11--------11-----------------------|------------------------------------------|
|---------12---12---12-12--------12----------|------------------------------------------|
|--------------12------12--12----12-12-------|-------8-----------------------------(8)\-|
|--------------------------13-------13-13p10-|--8---------------------------------------|
|--------------------------------------17-13-|------------------------------------------|
|  E       E    E    S  S   E     S  S  E  E
|
| Gtr IV
|                           ~~~~
|  H                       +H                   E    E     E    S  S  E    S  S  E  E
|--------------------------------------------|-10---------------------------------------|
|-10b11-------------------(10)---------------|-11---11---------11-----------------------|
|--------------------------------------------|------12----12---12-12------12------------|
|--------------------------------------------|------------12------12-12---12-12---------|
|--------------------------------------------|-----------------------13------13-13p10---|
|--------------------------------------------|----------------------------------17-13---|
                                                E    E     E    S  S  E    S  S  E  E


          2)                        C5(type 2)Bb5(type 2)                      C5(type 2)
   S   S  S S  S S  S  S  S S  S  S  E  E      S S  S  S  S S  S  S  S S  S  S  E  E
   |   |  | |  | |  |  |  | |  |  |  |  |      | |  |  |  | |  |  |  | |  |  |  |  |
   /   /  / /  / /  /  /  / /  /  /  /  /      / /  /  /  / /  /  /  / /  /  /  /  /

                                                    ~~~
   E      E    E    S  S  E    S  S  E  E      E    H.                            +E
|-10----------------------------------------|------------------------------------------|
|-11-----11--------11-----------------------|------------------------------------------|
|--------12---12---12-12------12------------|------------------------------------------|
|-------------12------12-12---12-12---------|-------8-----------------------------(8)\-|
|------------------------13------13-13p10---|--8---------------------------------------|
|-----------------------------------17-13---|------------------------------------------|
|  E      E    E    S  S  E    S  S  E  E
|
|  H..                                 +E      E    E     E    S  S  E    S  S  E  E
|-------------------------------------------|-10---------------------------------------|
|-------------------------------------------|-11---11---------11-----------------------|
|-------------------------------------------|------12----12---12-12------12------------|
|-------------------------------------------|------------12------12-12---12-12---------|
|--8-----------------------------------(8)\-|-----------------------13------13-13p10\--|
|-------------------------------------------|----------------------------------17-13\--|
                                               E    E     E    S  S  E    S  S  E  E


  Gtr I
  PM----------|     PM------|   PM--------|   PM--|   PM  PM|
  T   T T T T T S T T T T T T S T T T T T T S T T T T T T T T
|-------------------------------------------------------------||
|-------------------------------------------------------------||
|-------------------------------------------------------------||
|-7---7-7-7-7-7-8-7-5-5-5-5-5-7-------------5-------5---5-----||
|-------------------------------8-8-8-8-8-8---7-7-7---7---7-7-||
|-------------------------------------------------------------||
|
| Gtr II
|                                                     PM--|
| H..                                                 S   S
|-------------------------------------------------------------||
|-------------------------------------------------------------||
|-------------------------------------------------------------||
|-------------------------------------------------------------||
|-----------------------------------------------------0---0---||
|-----------------------------------------------------0---0---||


 Verse
  Gtrs I, II
  S S S S S S  S S  S S S S  S S S S    S S S S  S S S S  S S S S  S S  S S
|------------------------------------|----------------------------------------|
|------------------------------------|----------------------------------------|
|------------------------------------|--3-3-3-3--3-3-3-3----------------------|
|-0-0-0-0-0-0--0-0--5-5-5-5--8-8-8-8-|--3-3-3-3--3-3-3-3--3-3-3-3--3-3--3-3---|
|-0-0-0-0-0-0--0-0--5-5-5-5--5-5-5-5-|--1-1-1-1--1-1-1-1--3-3-3-3--3-3--3-3---|
|-0-0-0-0-0-0--0-0--5-5-5-5--5-5-5-5-|--------------------3-3-3-3--3-3--3-3---|
|
| Gtr V
| Q       E    E    Q        Q          Q        Q        Q        E    E
|------------------------------------|----------------------------------------|
|------------------------------------|----------------------------------------|
|-7-------9---10---15-------15-------|-15-------17-------10-------12---14-----|
|-x-------x----x----x--------x-------|--x--------x--------x--------x----x-----|
|-5-------7----8---13-------13-------|-13-------15--------8-------10---12-----|
|------------------------------------|----------------------------------------|


   S S S S  S S  S S  S S S S  S S  S S    E E  E  E  q  Q
|---------------------------------------|-------------------|
|---------------------------------------|-------------------|
|---------------------7-7-7-7--7-7--7-7-|-------------------|
|--7-7-7-7--7-7--7-7--8-8-8-8--8-8--8-8-|--2-2--2--2--3-----|
|--5-5-5-5--5-5--5-5--5-5-5-5--5-5--5-5-|--3-3--3--3--3-----|
|--4-4-4-4--4-4--4-4--------------------|--2-2--2--2--3-----|
|
|  Q        E    E    Q        E    E      Q    E  E  q  Q
|---------------------------------------|-------------------|
|---------------------------------------|-------------------|
|-14-------14---14---15-------14---15---|-12---12-12-14-----|
|--x--------x----x----x--------x----x---|--x----x--x--x-----|
|-12-------12---12---13-------12---13---|-10---10-10-12-----|
|---------------------------------------|-------------------|


  S S S S S S  S S  S S S S  S S S S    S S S S  S S S S  S S S S  S S  S S
|------------------------------------|----------------------------------------|
|------------------------------------|----------------------------------------|
|------------------------------------|--3-3-3-3--3-3-3-3----------------------|
|-0-0-0-0-0-0--0-0--5-5-5-5--8-8-8-8-|--3-3-3-3--3-3-3-3--3-3-3-3--3-3--3-3---|
|-0-0-0-0-0-0--0-0--5-5-5-5--5-5-5-5-|--1-1-1-1--1-1-1-1--3-3-3-3--3-3--3-3---|
|-0-0-0-0-0-0--0-0--5-5-5-5--5-5-5-5-|--------------------3-3-3-3--3-3--3-3---|
|
| Q       E    E    Q        Q          Q        Q        Q        E    E
|------------------------------------|----------------------------------------|
|------------------------------------|----------------------------------------|
|-7-------9---10---15-------15-------|-15-------17-------10-------12---14-----|
|-x-------x----x----x--------x-------|--x--------x--------x--------x----x-----|
|-5-------7----8---13-------13-------|-13-------15--------8-------10---12-----|
|------------------------------------|----------------------------------------|


   S S S S  S S  S S  S S S S  S S  S S    E E  E  E  S S S S  S S  S S
|---------------------------------------|--------------------------------||
|---------------------------------------|--------------------------------||
|---------------------7-7-7-7--7-7--7-7-|--------------------------------||
|--7-7-7-7--7-7--7-7--8-8-8-8--8-8--8-8-|--2-2--2--2--3-3-3-3--3-3--3-3--||
|--5-5-5-5--5-5--5-5--5-5-5-5--5-5--5-5-|--3-3--3--3--3-3-3-3--3-3--3-3--||
|--4-4-4-4--4-4--4-4--------------------|--2-2--2--2--3-3-3-3--3-3--3-3--||
|
|  Q        E    E    Q        E    E      Q    E  E  Q        E    E
|---------------------------------------|--------------------------------||
|---------------------------------------|--------------------------------||
|-14-------14---14---15-------14---15---|-12---12-12-14-------12---14----||
|--x--------x----x----x--------x----x---|--x----x--x--x--------x----x----||
|-12-------12---12---13-------12---13---|-10---10-10-12-------10---12----||
|---------------------------------------|--------------------------------||


 Pre-Chorus
   S S  S S S E    S  S S S S S E S    S S  S S  S E    S S S  E  E E
|-----------------------------------|---------------------------------|
|-----------------------------------|---------------------------------|
|--3-3--3-3-3-3----3----------------|---------------------------------|
|--3-3--3-3-3-3----3--1-1-1-1-1-1-1-|--2-2--2-2--2-2----2-3-3--3--3-3-|
|--1-1--1-1-1-1----1--1-1-1-1-1-1-1-|--3-3--3-3--3-3----3-3-3--3--3-3-|
|---------------------1-1-1-1-1-1-1-|--2-2--2-2--2-2----2-3-3--3--3-3-|
|
|  E    E   E    E    H                E    E    E    Q        Q.
|-----------------------------------|---------------------------------|
|-----------------------------------|---------------------------------|
|-10---10---9---10---12-------------|-12---12---10S==15-------14------|
|--x----x---x----x----x-------------|--x----x----x----x--------x------|
|--8----8---7----8---10-------------|-10---10----8S==13-------12------|
|-----------------------------------|---------------------------------|


  Gtrs I, II
  PM--------|     PM------|   PM----------------|       ~
  T T T T T T S T T T T T T S T T T T T T S T T T T T T S
|----------------------------------------------------------||
|----------------------------------------------------------||
|----------------------------------------------------------||
|-7-7-7-7-7-7-8-7-5-5-5-5-5-7---------------------5-5-8-8--||
|-----------------------------8-8-8-8-8-8-5-5-7-7----------||
|----------------------------------------------------------||


   Chorus
    Gtr IV
     S  S  S  S  S  S  S  S  S  S  S  S  S  S  S  S
||--------------------------------------------------|
||o-11p10-------11p10-13p10-11p10-------11p10-13p10-|
||--------10----------------------10----------------|
||-----------10----------------------10-------------|
||o-------------------------------------------------|
||--------------------------------------------------|
|
|   Gtrs I, II
|    S  S  S  S  S  S  E     S  S  S  S  S  S  E
||--------------------------------------------------|
||o-------------------------------------------------|
||--------------------------------------------------|
||---3--3--3--3--3--3--3-----3--3--3--3--3--3--3----|
||o--3--3--3--3--3--3--3-----3--3--3--3--3--3--3----|
||---3--3--3--3--3--3--3-----3--3--3--3--3--3--3----|


   S  S  S  S  S  S  S  S  S  S  S  S  S  S  S  S
|-13p12-------13p12-15p12-13p12-------13h17-15h18--|
|-------13----------------------13-----------------|
|----------12----------------------12--------------|
|--------------------------------------------------|
|--------------------------------------------------|
|--------------------------------------------------|
|
|  S  S  S  S  S  S  E     S  S  S  S  S  S  E
|--------------------------------------------------|
|--------------------------------------------------|
|--5--5--5--5--5--5--5-----5--5--5--5--5--5--5-----|
|--5--5--5--5--5--5--5-----5--5--5--5--5--5--5-----|
|--3--3--3--3--3--3--3-----3--3--3--3--3--3--3-----|
|--------------------------------------------------|


   S  S  S  S  S  S  S  S  S  S  S  S  S  S  S  S
|-15----------15----15h18p15----------------17h18-|
|----15----------15----------15----------15-------|
|-------15----------------------15----15----------|
|----------17----------------------17-------------|
|-------------------------------------------------|
|-------------------------------------------------|
|
|  S  S  S  S  S  S  E     S  S  S  S  S  S  S  S
|-------------------------------------------------|
|-------------------------------------------------|
|-------------------------------------------------|
|--5--5--5--5--5--5--5-----5--5--5--5--5--5--5--5-|
|--5--5--5--5--5--5--5-----5--5--5--5--5--5--5--5-|
|--5--5--5--5--5--5--5-----5--5--5--5--5--5--5--5-|


   S  S  S  S  S  S  S  S  S  S  S  S  S  S  S  S
|-------------------------------------------15-----||
|-18-------17-------------18p17-------18p17----17-o||
|----17-------17----------------17-----------------||
|-------17-------17p15-------------17--------------||
|----------------------17-------------------------o||
|--------------------------------------------------||
|
|  S  S  S  S  E     E     S  S  S  S  S  S  S  S
|--------------------------------------------------||
|-------------------------------------------------o||
|--3--3--3--3--3-----3-----5--5--5--5--5--5--5--5--||
|--3--3--3--3--3-----3-----5--5--5--5--5--5--5--5--||
|--1--1--1--1--1-----1-----3--3--3--3--3--3--3--3-o||
|--------------------------------------------------||


   Interlude
    Gtr III
      ~~~      ~~       ~~     ~~~
      E     S  E     S  E   S  E.      E     E
||------------------15-15-----------------------|
||o-----------------------/18-18------------18--|
||--/14---/17-17----------------------17--------|
||----------------------------------------------|
||o---------------------------------------------|
||----------------------------------------------|
|
|   Gtr IV
|     ~~~      ~~       ~~     ~~~
|     E     S  E     S  E   S  E.      E     E
||----------------------------------------------|
||o--------10-10---/13-13--10-10------10---/13\-|
||--/10-----------------------------------------|
||----------------------------------------------|
||o---------------------------------------------|
||----------------------------------------------|
|
|   Gtrs I, II
|     S S   S  S S   S  E   S  S  S S  S S   E
||----------------------------------------------|
||o---------------------------------------------|
||----------------------------------------------|
||----3-3---3--3-3---3--3---3--3--3-3--3-3---3--|
||o---3-3---3--3-3---3--3---3--3--3-3--3-3---3--|
||----3-3---3--3-3---3--3---3--3--3-3--3-3---3--|


               ~~~~~~~~~~~~~~~~~~~~
    E       S  Q.              +Q           +S     E
|----------------------------------------------------|
|--20------18-17--------------(17)---------(17)\-----|
|------------------------------------------------/14-|
|----------------------------------------------------|
|----------------------------------------------------|
|----------------------------------------------------|
|
|              ~~~                  ~~~
|   S  +S   S  Q          E     S   E.      +S     E
|-/12-(12)p10-----------/15----13--12------(12)\-----|
|-------------13-------------------------------------|
|------------------------------------------------/10-|
|----------------------------------------------------|
|----------------------------------------------------|
|----------------------------------------------------|
|
|   S   S   S  S  S S E     S   S   S  S S   S     E
|----------------------------------------------------|
|----------------------------------------------------|
|---5---5---5--5--5-5-5-----5---5---5--5-5---5-----5-|
|---5---5---5--5--5-5-5-----5---5---5--5-5---5-----5-|
|---3---3---3--3--3-3-3-----3---3---3--3-3---3-----3-|
|----------------------------------------------------|


                      ~~~
   E.      E.      E  Q.            E
|---------------------------------------|
|-----------------15s18-----------------|
|-15------14-----------------------14---|
|---------------------------------------|
|---------------------------------------|
|---------------------------------------|
|
|                     ~~~
|  E.      E.      E  Q.            E
|---------------------------------------|
|-----------------10s13-----------------|
|-12------10-----------------------10---|
|---------------------------------------|
|---------------------------------------|
|---------------------------------------|
|
|  S  S S  S  S S  E  S  S S S S S  S S
|---------------------------------------|
|---------------------------------------|
|---------------------------------------|
|--5--5-5--5--5-5--5--5--5-5-5-5-5--5-5-|
|--5--5-5--5--5-5--5--5--5-5-5-5-5--5-5-|
|--5--5-5--5--5-5--5--5--5-5-5-5-5--5-5-|


                  ~~~
   E.      E.     Q      E    E        E
|----------------------------17b18----17\----||
|---------------/20-----18------------------o||
|-15------14---------------------------------||
|--------------------------------------------||
|-------------------------------------------o||
|--------------------------------------------||
|
|                 ~~~
|  E.      E.     Q      E    S     S  E
|--------------------------------------------||
|---------------/17----------18h===20p18\---o||
|-12------10------------17-------------------||
|--------------------------------------------||
|-------------------------------------------o||
|--------------------------------------------||
|
|  S  S S  S  E   E S S  S S  S     S  S  S
|--------------------------------------------||
|-------------------------------------------o||
|--3--3-3--3--3---3-5-5--5-5--5-----5--5--5--||
|--3--3-3--3--3---3-5-5--5-5--5-----5--5--5--||
|--1--1-1--1--1---1-3-3--3-3--3-----3--3--3-o||
|--------------------------------------------||


   Bridge
    Gtr V
     E    S  E    S  E    S  E    S  S  S  E
||-------------------------------------------|
||o------------------------------------------|
||--10---14-14---17-17---15-15---14-14-15-14-|
||---x----x--x----x--x----x--x----x--x--x--x-|
||o--8---12-12---15-15---13-13---12-12-13-12-|
||-------------------------------------------|
|
|   Gtrs I, II
|    S S  S  S S  S  E    S  S S  S  S  S  E
||-------------------------------------------|
||o------------------------------------------|
||-------------------------------------------|
||---3-3--3--3-3--3--3----3--3-3--3--3--3--3-|
||o--3-3--3--3-3--3--3----3--3-3--3--3--3--3-|
||---3-3--3--3-3--3--3----3--3-3--3--3--3--3-|
|
|   Gtr VI
|    PM-----|     PM   PM------|     PM    ~~
|    S S  S  S S  S  S S  S  S S  S  S  S  E
||-------------------------------------------|
||o------------------------------------------|
||-------------2-----2------------2-----2----|
||-----------------------------------------3-|
||o--3-3--3--3----3----3--3--3-3-----3-------|
||-------------------------------------------|


  E    S  E    S  E    S  E    S  S  S  E
|------------------------------------------|
|------------------------------------------|
|-9---14-14---17-17---15-15---14-14-15-14--|
|-x----x--x----x--x----x--x----x--x--x--x--|
|-7---12-12---15-15---13-13---12-12-13-12--|
|------------------------------------------|
|
| S S  S  S S  S  E    S  S S  S  S  S  E
|------------------------------------------|
|------------------------------------------|
|-5-5--5--5-5--5--5----5--5-5--5--5--5--5--|
|-5-5--5--5-5--5--5----5--5-5--5--5--5--5--|
|-3-3--3--3-3--3--3----3--3-3--3--3--3--3--|
|------------------------------------------|
|
| PM-----|     PM   PM------|     PM    ~~
| S S  S  S S  S  S S  S  S S  S  S  S  E
|------------------------------------------|
|-----------3-----3------------3-----3-----|
|---------------------------------------5--|
|-5-5--5--5----5----5--5--5-5-----5--------|
|------------------------------------------|
|------------------------------------------|


  E    S  E    S  E    S  E    S  S  S  E
|-------------------------------------------|
|-------------------------------------------|
|-7---14-14---17-17---15-15---14-14-15-14---|
|-x----x--x----x--x----x--x----x--x--x--x---|
|-5---12-12---15-15---13-13---12-12-13-12---|
|-------------------------------------------|
|
| S S  S  S S  S  E    S  S S  S  S  S  S S
|-------------------------------------------|
|-------------------------------------------|
|-------------------------------------------|
|-5-5--5--5-5--5--5----5--5-5--5--5--5--5-5-|
|-5-5--5--5-5--5--5----5--5-5--5--5--5--5-5-|
|-5-5--5--5-5--5--5----5--5-5--5--5--5--5-5-|
|
| PM-----|     PM   PM------|     PM    ~~
| S S  S  S S  S  S S  S  S S  S  S  S  E
|-------------------------------------------|
|-------------------------------------------|
|-----------7-----7------------7-----7------|
|---------------------------------------5---|
|-5-5--5--5----5----5--5--5-5-----5---------|
|-------------------------------------------|


  E    S  E    S  E    S  E    S  S  S  E
|--------------------------------------------||
|-------------------------------------------o||
|-9---14-14---17-17---15-15---17-17-17-17----||
|-x----x--x----x--x----x--x----x--x--x--x----||
|-7---12-12---15-15---13-13---15-15-15-15---o||
|--------------------------------------------||
|
| S S  S  S E     E    S  S S  S  S  S  S S
|--------------------------------------------||
|-------------------------------------------o||
|-3-3--3--3-3-----3----5--5-5--5--5--5--5-5--||
|-3-3--3--3-3-----3----5--5-5--5--5--5--5-5--||
|-1-1--1--1-1-----1----3--3-3--3--3--3--3-3-o||
|--------------------------------------------||
|
| PM-----|     PM   PM------|     PM    ~~
| S S  S  S S  S  S S  S  S S  S  S  S  E
|-----------3-----3------------5-----5p=3----||
|-------------------------------------------o||
|-3-3--3--3----3----3--3--5-5-----5----------||
|--------------------------------------------||
|-------------------------------------------o||
|--------------------------------------------||


   Interlude
    Gtr III
      ~~~      ~~       ~~     ~~~
      E     S  E     S  E   S  E.      E     E
||------------------15-15-----------------------|
||o-----------------------/18-18------------18--|
||--/14---/17-17----------------------17--------|
||----------------------------------------------|
||o---------------------------------------------|
||----------------------------------------------|
|
|   Gtr IV
|     ~~~      ~~       ~~     ~~~
|     E     S  E     S  E   S  E.      E     E
||----------------------------------------------|
||o--------10-10---/13-13--10-10------10---/13\-|
||--/10-----------------------------------------|
||----------------------------------------------|
||o---------------------------------------------|
||----------------------------------------------|
|
|   Gtrs I, II
|     S S   S  S S   S  E   S  S  S S  S S   E
||----------------------------------------------|
||o---------------------------------------------|
||----------------------------------------------|
||----3-3---3--3-3---3--3---3--3--3-3--3-3---3--|
||o---3-3---3--3-3---3--3---3--3--3-3--3-3---3--|
||----3-3---3--3-3---3--3---3--3--3-3--3-3---3--|


               ~~~~~~~~~~~~~~~~~~~~
    E       S  Q.              +Q           +S     E
|----------------------------------------------------|
|--20------18-17--------------(17)---------(17)\-----|
|------------------------------------------------/14-|
|----------------------------------------------------|
|----------------------------------------------------|
|----------------------------------------------------|
|
|              ~~~                  ~~~
|   S  +S   S  Q          E     S   E.      +S     E
|-/12-(12)p10-----------/15----13--12------(12)\-----|
|-------------13-------------------------------------|
|------------------------------------------------/10-|
|----------------------------------------------------|
|----------------------------------------------------|
|----------------------------------------------------|
|
|   S   S   S  S  S S E     S   S   S  S S   S     E
|----------------------------------------------------|
|----------------------------------------------------|
|---5---5---5--5--5-5-5-----5---5---5--5-5---5-----5-|
|---5---5---5--5--5-5-5-----5---5---5--5-5---5-----5-|
|---3---3---3--3--3-3-3-----3---3---3--3-3---3-----3-|
|----------------------------------------------------|


                      ~~~
   E.      E.      E  Q.            E
|---------------------------------------|
|-----------------15s18-----------------|
|-15------14-----------------------14---|
|---------------------------------------|
|---------------------------------------|
|---------------------------------------|
|
|                     ~~~
|  E.      E.      E  Q.            E
|---------------------------------------|
|-----------------10s13-----------------|
|-12------10-----------------------10---|
|---------------------------------------|
|---------------------------------------|
|---------------------------------------|
|
|  S  S S  S  S S  E  S  S S S S S  S S
|---------------------------------------|
|---------------------------------------|
|---------------------------------------|
|--5--5-5--5--5-5--5--5--5-5-5-5-5--5-5-|
|--5--5-5--5--5-5--5--5--5-5-5-5-5--5-5-|
|--5--5-5--5--5-5--5--5--5-5-5-5-5--5-5-|


                  ~~~
   E.      E.     Q      E    E        E
|----------------------------17b18----17\----||
|---------------/20-----18------------------o||
|-15------14---------------------------------||
|--------------------------------------------||
|-------------------------------------------o||
|--------------------------------------------||
|
|                 ~~~
|  E.      E.     Q      E    S     S  E
|--------------------------------------------||
|---------------/17----------18h===20p18\---o||
|-12------10------------17-------------------||
|--------------------------------------------||
|-------------------------------------------o||
|--------------------------------------------||
|
|  S  S S  S  E   E S S  S S  S     S  S  S
|--------------------------------------------||
|-------------------------------------------o||
|--3--3-3--3--3---3-5-5--5-5--5-----5--5--5--||
|--3--3-3--3--3---3-5-5--5-5--5-----5--5--5--||
|--1--1-1--1--1---1-3-3--3-3--3-----3--3--3-o||
|--------------------------------------------||


 Guitar Solo/Outro
  Gtr VI
                      ~~                            ~~~~~
                          |----------3-----------|
    S  S  S  S  S  S  E  +S    S     S  S  S     S  E        +S     S
|-/13-------12----------------------------------13-15b17----(15)\-/13-|
|-----13-------13-------------------------15--------------------------|
|--------12-------12-------------------14-----------------------------|
|--------------------15-(15)\-12----15--------------------------------|
|---------------------------------------------------------------------|
|---------------------------------------------------------------------|
|
| Gtrs I, II
|   S  S  S  S  S  S  E   S       S     S     S     S     S   E
|---------------------------------------------------------------------|
|---------------------------------------------------------------------|
|---------------------------------------------------------------------|
|---3--3--3--3--3--3--3---3-------3-----3-----3-----3-----3---3-------|
|---3--3--3--3--3--3--3---3-------3-----3-----3-----3-----3---3-------|
|---3--3--3--3--3--3--3---3-------3-----3-----3-----3-----3---3-------|
|
| Gtr V
|   E     S  E     S  E   S       E           S     S     S   E
|---------------------------------------------------------------------|
|---------------------------------------------------------------------|
|--10----14-14----17-17--15------15----------14----14----15--14-------|
|---x-----x--x-----x--x---x-------x-----------x-----x-----x---x-------|
|---8----12-12----15-15--13------13----------12----12----13--12-------|
|---------------------------------------------------------------------|


   ~~                ~~
   E    S  e      S  H                   S  S
|-12---12-12\---/13h15------------------15h17b18-|
|------------------------------------------------|
|------------------------------------------------|
|------------------------------------------------|
|------------------------------------------------|
|------------------------------------------------|
|
|  S S  S  S  S   S  E  S  S S  S  S  S  E
|------------------------------------------------|
|------------------------------------------------|
|--5-5--5--5--5---5--5--5--5-5--5--5--5--5-------|
|--5-5--5--5--5---5--5--5--5-5--5--5--5--5-------|
|--3-3--3--3--3---3--3--3--3-3--3--3--3--3-------|
|------------------------------------------------|
|
|  E    S  E      S  E  S  E    S  S  S  E
|------------------------------------------------|
|------------------------------------------------|
|--9---14-14-----17-17-15-15---14-14-15-14-------|
|--x----x--x------x--x--x--x----x--x--x--x-------|
|--7---12-12-----15-15-13-13---12-12-13-12-------|
|------------------------------------------------|


   S      +S   S    E    S  E  S  E    S  S      +S   +S    S
|-17pb18-(17)p15\-/10h==12-13p10------------------------------|
|--------------------------------11------11b13==(11)r(11)\----|
|-------------------------------------10-------------------10-|
|-------------------------------------------------------------|
|-------------------------------------------------------------|
|-------------------------------------------------------------|
|
|  S       S   S    S S  S  E  S  S S  S  S       S    S    S
|-------------------------------------------------------------|
|-------------------------------------------------------------|
|-------------------------------------------------------------|
|--5-------5---5----5-5--5--5--5--5-5--5--5-------5----5----5-|
|--5-------5---5----5-5--5--5--5--5-5--5--5-------5----5----5-|
|--5-------5---5----5-5--5--5--5--5-5--5--5-------5----5----5-|
|
|  E           S    E    S  E  S  E    S  S       S    E
|-------------------------------------------------------------|
|-------------------------------------------------------------|
|--7----------14---14---17-17-15-15---14-14------15---14------|
|--x-----------x----x----x--x--x--x----x--x-------x----x------|
|--5----------12---12---15-15-13-13---12-12------13---12------|
|-------------------------------------------------------------|


                                          ~~~
   S  S  S  S  S  S  S  S  S  S  S  S  S  E.
|----------10-------12-------12----------15--------|
|-13p11-------11-------13-------13----13-----------|
|-------10-------10-------12-------14--------------|
|--------------------------------------------------|
|--------------------------------------------------|
|--------------------------------------------------|
|
|  S  S  S  S  E     E     S  S  S  S  S  S   S S
|--------------------------------------------------|
|--------------------------------------------------|
|--3--3--3--3--3-----3-----5--5--5--5--5--5---5-5--|
|--3--3--3--3--3-----3-----5--5--5--5--5--5---5-5--|
|--1--1--1--1--1-----1-----3--3--3--3--3--3---3-3--|
|--------------------------------------------------|
|
|  E     S  E     S  E     S  E     S  S  S   E
|--------------------------------------------------|
|--------------------------------------------------|
|--9----14-14----17-17----15-15----17-17-17--17----|
|--x-----x--x-----x--x-----x--x-----x--x--x---x----|
|--7----12-12----15-15----13-13----15-15-15--15----|
|--------------------------------------------------|


                              ~~
   S  S  S  S  S  S  S  S  S  E    +S     S  S  S S
|-15-------17-------15------------------------------|
|----18-------18-------18p15------------------------|
|-------17-------17----------14---(14)\-/10---------|
|-------------------------------------------10p=8---|
|-------------------------------------------------8-|
|---------------------------------------------------|
|
|  S  S  S  S  S  S  E     S  S S   S     S  S  E
|---------------------------------------------------|
|---------------------------------------------------|
|---------------------------------------------------|
|--3--3--3--3--3--3--3-----3--3-3---3-----3--3--3---|
|--3--3--3--3--3--3--3-----3--3-3---3-----3--3--3---|
|--3--3--3--3--3--3--3-----3--3-3---3-----3--3--3---|
|
|  E     S  E     S  E     S  E     S     S  S  E
|---------------------------------------------------|
|---------------------------------------------------|
|-10----14-14----17-17----15-15----14----14-15-14---|
|--x-----x--x-----x--x-----x--x-----x-----x--x--x---|
|--8----12-12----15-15----13-13----12----12-13-12---|
|---------------------------------------------------|


                              ~~~~~~~
                                               |---3----|
   S  S  S  S  S  S  S  S  S  S  +E      +S    S  S     S  S
|-13-------15-------13---------------------------------------|
|----15-------15-------15---------------------15-------------|
|-------14-------14-------14---------------------14----------|
|----------------------------15-(15)----(15)\----------15p12-|
|------------------------------------------------------------|
|------------------------------------------------------------|
|
|  S  S  S  S  S  S  E     S  S   S   S   S    S     E
|------------------------------------------------------------|
|------------------------------------------------------------|
|--5--5--5--5--5--5--5-----5--5---5---5---5----5-----5-------|
|--5--5--5--5--5--5--5-----5--5---5---5---5----5-----5-------|
|--3--3--3--3--3--3--3-----3--3---3---3---3----3-----3-------|
|------------------------------------------------------------|
|
|  E     S  E     S  E     S  E       S   S    S     E
|------------------------------------------------------------|
|------------------------------------------------------------|
|--9----14-14----17-17----15-15------14--14---15----14-------|
|--x-----x--x-----x--x-----x--x-------x---x----x-----x-------|
|--7----12-12----15-15----13-13------12--12---13----12-------|
|------------------------------------------------------------|


                                              ~~~
   |---3---|             |--3--|
   S  S    S  S  E       T  T  T  E     T  T  E.       T  T  T  T  T  T  T  T
|---------------15b18r===========18b20r====================================15-|
|------------15---------------15-------------18----------------------15h17----|
|---------14---------------15----------15h17----------------------14----------|
|-12h15-----------------17-------------------------------------15-------------|
|-----------------------------------------------------------17----------------|
|-----------------------------------------------------15-17-------------------|
|
|  S    S     S  S    S  S        E     S     S  S  S  S     S     S     S
|-----------------------------------------------------------------------------|
|-----------------------------------------------------------------------------|
|-----------------------------------------------------------------------------|
|--5----5-----5--5----5--5--------5-----5-----5--5--5--5-----5-----5-----5----|
|--5----5-----5--5----5--5--------5-----5-----5--5--5--5-----5-----5-----5----|
|--5----5-----5--5----5--5--------5-----5-----5--5--5--5-----5-----5-----5----|
|
|  E          S  E       S        E     S     E     S  S     S     E
|-----------------------------------------------------------------------------|
|-----------------------------------------------------------------------------|
|--7---------14-14------17-------17----15----15----14-14----15----14----------|
|--x----------x--x-------x--------x-----x-----x-----x--x-----x-----x----------|
|--5---------12-12------15-------15----13----13----12-12----13----12----------|
|-----------------------------------------------------------------------------|


   ~~                                      ~~
        |---3----|             |---3----|
   E    S  S     S  S  S  S S  S  S     S  Q           S  S
|-18---17s13---------------------13s===20-22----------18p17---|
|---------------13s10-------8s13------------------------------|
|---------------------10s=7-----------------------------------|
|-------------------------------------------------------------|
|-------------------------------------------------------------|
|-------------------------------------------------------------|
|
|  S S  S     S     E     E    S     S     S  S  S  S  S  S
|-------------------------------------------------------------|
|-------------------------------------------------------------|
|--3-3--3-----3-----3-----3----5-----5-----5--5--5--5--5--5---|
|--3-3--3-----3-----3-----3----5-----5-----5--5--5--5--5--5---|
|--1-1--1-----1-----1-----1----3-----3-----3--3--3--3--3--3---|
|-------------------------------------------------------------|
|
|  E    S     E        S  E    S     E        S  S  S  E
|-------------------------------------------------------------|
|-------------------------------------------------------------|
|--9---14----14-------17-17---15----15-------17-17-17-17------|
|--x----x-----x--------x--x----x-----x--------x--x--x--x------|
|--7---12----12-------15-15---13----13-------15-15-15-15------|
|-------------------------------------------------------------|


                                  ~~~~
   E    S  E    S  E  S  E    S   S   S  S  S
|-17s===6--6s==15-15s=5p=3s==15-[15]-15p13-13-|
|---------------------------------------------|
|---------------------------------------------|
|---------------------------------------------|
|---------------------------------------------|
|---------------------------------------------|
|
|  S S  S  S S  S  E  S  S S  S   S   S  E
|---------------------------------------------|
|---------------------------------------------|
|---------------------------------------------|
|--3-3--3--3-3--3--3--3--3-3--3---3---3--3----|
|--3-3--3--3-3--3--3--3--3-3--3---3---3--3----|
|--3-3--3--3-3--3--3--3--3-3--3---3---3--3----|
|
|  E    S  E    S  E  S  E    S   S   S  E
|---------------------------------------------|
|---------------------------------------------|
|-10---14-14---17-17-15-15---14--14--15-14----|
|--x----x--x----x--x--x--x----x---x---x--x----|
|--8---12-12---15-15-13-13---12--12--13-12----|
|---------------------------------------------|


            \2______/
                        ~~
   S  S  S  E      +S   H                   S  S
|-13-------17-----(17)-15------------------13-15-|
|----15------------------------------------------|
|-------14---------------------------------------|
|------------------------------------------------|
|------------------------------------------------|
|------------------------------------------------|
|
|  S  S  S  S   S   S   E  S  S S  S  S  S  E
|------------------------------------------------|
|------------------------------------------------|
|--5--5--5--5---5---5---5--5--5-5--5--5--5--5----|
|--5--5--5--5---5---5---5--5--5-5--5--5--5--5----|
|--3--3--3--3---3---3---3--3--3-3--3--3--3--3----|
|------------------------------------------------|
|
|  E     S  E       S   E  S  E    S  S  S  E
|------------------------------------------------|
|------------------------------------------------|
|--9----14-14------17--17-15-15---14-14-15-14----|
|--x-----x--x-------x---x--x--x----x--x--x--x----|
|--7----12-12------15--15-13-13---12-12-13-12----|
|------------------------------------------------|


                                           \0.5
              ~~~~     ~~
   E      S   E     S  Q         S    S   +S     S  S  S
|-15\-------[17]------18-------(18)-(18)-(18)------15h17-|
|-------/15--------15-----------------x---------15-------|
|--------------------------------x-----------------------|
|--------------------------------------------------------|
|--------------------------------------------------------|
|--------------------------------------------------------|
|
|  S  S   S   S  S  S  E  S  S   S    S    S     S  S  S
|--------------------------------------------------------|
|--------------------------------------------------------|
|--------------------------------------------------------|
|--5--5---5---5--5--5--5--5--5---5----5----5-----5--5--5-|
|--5--5---5---5--5--5--5--5--5---5----5----5-----5--5--5-|
|--5--5---5---5--5--5--5--5--5---5----5----5-----5--5--5-|
|
|  E      S   E     S  E  S  E        S    S     S  E
|--------------------------------------------------------|
|--------------------------------------------------------|
|--7-----14--14----17-17-15-15-------14---14----15-14----|
|--x------x---x-----x--x--x--x--------x----x-----x--x----|
|--5-----12--12----15-15-13-13-------12---12----13-12----|
|--------------------------------------------------------|


                                          \1_________________/
           ~~             ~~~~                         ~~
   E    S  E    S  S     +E      +S    S  E       +S   E     a    a  a
|-18s==13s20------20b22-(20)----(20)\-22-22------(22)-22---(22)-(22)---|
|--------------18-------------------------------------------------x----|
|--------------------------------------------------------------------x-|
|----------------------------------------------------------------------|
|----------------------------------------------------------------------|
|----------------------------------------------------------------------|
|
|  S S  S  S E     E          S   S    S  S    S   S   S S
|----------------------------------------------------------------------|
|----------------------------------------------------------------------|
|--3-3--3--3-3-----3----------5---5----5--5----5---5---5-5-------------|
|--3-3--3--3-3-----3----------5---5----5--5----5---5---5-5-------------|
|--1-1--1--1-1-----1----------3---3----3--3----3---3---3-3-------------|
|----------------------------------------------------------------------|
|
|  E    S  E    S  E          S   E       S    S   S   E
|----------------------------------------------------------------------|
|----------------------------------------------------------------------|
|--9---14-14---17-17---------15--15------17---17--17--17---------------|
|--x----x--x----x--x----------x---x-------x----x---x---x---------------|
|--7---12-12---15-15---------13--13------15---15--15--15---------------|
|----------------------------------------------------------------------|


                                                      ~~
   S  S  S     S  S  S     S  S  S     S  S  S  S  S  E
|----------------17s18b20----------------17s20s17s20s17-|
|----18s20b22----------------18s20b22-------------------|
|-17----------17----------17----------17----------------|
|-------------------------------------------------------|
|-------------------------------------------------------|
|-------------------------------------------------------|
|
|  S  S  S     S  S  S     E     S     S  S  S  S  S  E
|-------------------------------------------------------|
|-------------------------------------------------------|
|-------------------------------------------------------|
|--3--3--3-----3--3--3-----3-----3-----3--3--3--3--3--3-|
|--3--3--3-----3--3--3-----3-----3-----3--3--3--3--3--3-|
|--3--3--3-----3--3--3-----3-----3-----3--3--3--3--3--3-|
|
|  E     S     E     S     E     S     E     S  S  S  E
|-------------------------------------------------------|
|-------------------------------------------------------|
|-10----14----14----17----17----15----15----14-14-15-14-|
|--x-----x-----x-----x-----x-----x-----x-----x--x--x--x-|
|--8----12----12----15----15----13----13----12-12-13-12-|
|-------------------------------------------------------|


                                               ~~
   S  S  S  S  S  S   S  S  S   S  S  S  S  S  E
|------------------------------------------------|
|------------------------------------------------|
|----17s19--------------17s24\-------------------|
|-17----------17s22\-17-----------19s22s19s22s19-|
|----------19------------------19----------------|
|------------------------------------------------|
|
|  S  S  S  S  S  S   E     S   S  S  S  S  S  E
|------------------------------------------------|
|------------------------------------------------|
|--5--5--5--5--5--5---5-----5---5--5--5--5--5--5-|
|--5--5--5--5--5--5---5-----5---5--5--5--5--5--5-|
|--3--3--3--3--3--3---3-----3---3--3--3--3--3--3-|
|------------------------------------------------|
|
|  E     S  E     S   E     S   E     S  S  S  E
|------------------------------------------------|
|------------------------------------------------|
|--9----14-14----17--17----15--15----14-14-15-14-|
|--x-----x--x-----x---x-----x---x-----x--x--x--x-|
|--7----12-12----15--15----13--13----12-12-13-12-|
|------------------------------------------------|


   S  S  S   S  S  S  S  S  S  S  S  S  S  S  S  S
|--------------------------------------------------|
|--------------------------------------------------|
|----19s24\-------------19s24-------------19h21p19-|
|-20-----------20s24s20----------19h20h22----------|
|-----------22----------------22-------------------|
|--------------------------------------------------|
|
|  S  S  S   S  S  S  E     S  S  S  S  S  S  S  S
|--------------------------------------------------|
|--------------------------------------------------|
|--------------------------------------------------|
|--5--5--5---5--5--5--5-----5--5--5--5--5--5--5--5-|
|--5--5--5---5--5--5--5-----5--5--5--5--5--5--5--5-|
|--5--5--5---5--5--5--5-----5--5--5--5--5--5--5--5-|
|
|  E     S   E     S  E     S  E     S  S  S  E
|--------------------------------------------------|
|--------------------------------------------------|
|--7----14--14----17-17----15-15----14-14-15-14----|
|--x-----x---x-----x--x-----x--x-----x--x--x--x----|
|--5----12--12----15-15----13-13----12-12-13-12----|
|--------------------------------------------------|


   ~~~~~~~~~~~~~~~~~~~
   Q          E     S  +S    T T  T T T T  T  T  T  T  T  T  T  T  T  T
|-----------------------------------------------------------------------|
|-18---------20----18-(18)\------------------------------------------15-|
|--------------------------------------------------------------14h15----|
|--------------------------------------------------------15h17----------|
|-----------------------------------5h7h8s13-12-13s15-17----------------|
|----------------------------5h7h=8-------------------------------------|
|
|  S S  S  S  E     E        S    S   S    S     S     S     S     S
|-----------------------------------------------------------------------|
|-----------------------------------------------------------------------|
|--3-3--3--3--3-----3--------5----5---5----5-----5-----5-----5-----5----|
|--3-3--3--3--3-----3--------5----5---5----5-----5-----5-----5-----5----|
|--1-1--1--1--1-----1--------3----3---3----3-----3-----3-----3-----3----|
|-----------------------------------------------------------------------|
|
|  E    S  E     S  E        S    E              E.          E
|-----------------------------------------------------------------------|
|-----------------------------------------------------------------------|
|--9---14-14----17-17-------15---15-------------17----------17----------|
|--x----x--x-----x--x--------x----x--------------x-----------x----------|
|--7---12-12----15-15-------13---13-------------15----------15----------|
|-----------------------------------------------------------------------|


  Gtrs III, IV
   H              H         H                     H        W
   |              |         |                     |
   o              /         /                     /

                  ~~        ~~                    ~~~~~~~~~~~~
                                |--3--|  |--3--|
   Q      Q       Q   Q     Q   S  S  S  S  S  S  H       +W
|-17b20--17pb20r=17--17s=|=13--------------10h12-13----|-(13)----*|
|------------------------|--------------13-------------|---------*|
|------------------------|-----10-12h13----------------|---------*|
|------------------------|-----------------------------|---------*|
|------------------------|-----------------------------|---------*|
|------------------------|-----------------------------|---------*|
|
|  H              H         H                     H       +W
|------------------------|-----------------------------|---------*|
|------------------------|-----------------------------|---------*|
|------------------------|-----------------------------|---------*|
|--3--------------3------|--3---------------------3----|--(3)----*|
|--3--------------3------|--3---------------------3----|--(3)----*|
|--3--------------3------|--3---------------------3----|--(3)----*|
|
|  W                        H                     H       +W
|------------------------|-----------------------------|---------*|
|------------------------|-----------------------------|---------*|
|-14---------------------|-14--------------------14----|-(14)----*|
|--x---------------------|--x---------------------x----|---------*|
|-12---------------------|-12--------------------12----|-(12)----*|
|------------------------|-----------------------------|---------*|

------------------------------------
     A Little Piece of Heaven
------------------------------------

Transcribed by: adammn6661

a7x for life

Not All completly Right, just somthing to model around. there isnt even alot of guitar
this sont so what i have here is semi acurate.

D, A, D, G, B, e

14 seconds, ( however many times )

e--------------------------|
B--------------------------|
G--------------------------|
D--------------------------|
A--------------------------|
D-0-0-0-0-0-0-0-3-3-3-3-3--|
  * * * * * * * * * * * *

37 seconds
e-----------------------------------------------------------|
B-----------------------------------------------------------|
G-----------------------------------------------------------|
D-----------------------------------------------------------|
A-0-0--0-0--0-0--3-3--3-3--3-3--5-5--5-5--5-5--6-6--6-6--6-6|
D-0-0--0-0--0-0--3-3--3-3--3-3--5-5--5-5--5-5--6-6--6-6--6-6|

big guitar break.

1:36, 3:38, 6:30 seconds
e--------------------|
B--------------------|
G--------------------|  played 2 times
D--------------------|
A--------------------|
D-0-2-3-8-7-3-2-0-3-2|


4:52, each peice played twice
e-------|------|-------|------|
B-------|------|-------|------|
G-------|------|-------|------|
D-------|------|-------|------|
A-------|------|-------|------|
D-3-8-7-|-5-8-7|-2-8-7-|-0-8-7|


please dont shit on me if im completly wrong.
atleast i gave it a try.

---------------------------------
           Dear God
---------------------------------

Transcribed by Seth "Shadows" Sanders {F.u.c.kallyourfalsebeauty@hotmail.com}

F
1 0 3 2 1 1

C
x 3 2 0 1 0

Em/G
x x x 0 x 0

Dm
x x 0 2 3 1

Am
x 0 2 2 1 0

Bb
x 1 3 3 3 1

F(type 2)
1 3 3 2 1 1


Gtr I (E A D G B E) - 'Rhythm Acous. (Acoustic w/Steel Strings)'
Gtr II (E A D G B E) - 'Lead Acous. (Acoustic w/Steel Strings)'
Gtr III (D A D G B E) - 'Rhythm Guitar (Elec. w/Distortion)'
Gtr IV (D A D G B E) - 'Lead Guitar I (Elec. w/Distortion)'
Gtr V (D A D G B E) - 'Lead Guitar II (Elec. w/Distortion)'
Gtr VI (D A D G B E) - 'Lead Guitar III (Clean Elec. w/Chorus)'


 Intro
  Q=137
  F                    C                 Em/G    Dm
 4/4
  Gtr I
   H       Q     E E    H        E   Q   S  S     H     Q   E E
|-^1-------1-----1-1-|-^0--------0---0---0-(0)-|-^1-----1---1-1-|
|-^1-------1-----1-1-|-^1--------1---1---x--x--|-^3-----3---3-3-|
|-^2-------2-----2-2-|-^0--------0---0---0-(0)-|-^2-----2---2-2-|
|-^3-------3-----3-3-|-^2--------2---2---x--x--|-^0-----0---0-0-|
|-^0-------0-----0-0-|-^3--------3---3---------|----------------|
|-^1-------1-----1-1-|-------------------------|----------------|
|
| Gtr II
|                                                           ~
|  Q   Q   S S E E E    E  E  Q  S S E E E        Q  Q  E E Q
|-----^1-------------|-------!0----------------|----------------|
|-----^1-------------|-------!1----------------|--------6-x-6---|
|-----^2---2h3p2-----|-----2-!0--0h2p0---------|--------7-x-7---|
|-----^3---------3p2-|--3----!2--------3p2-----|--------7-x-7---|
|--0--^0-------------|-------!3----------------|--8S=5----------|
|-----^1-------------|-------------------------|----------------|
|
| Gtr VI
|  <
|          ~~~                ~~                        ~~~~~~
|  H       H            E  E  H        E E        H     Q   Q
|-10-----------------|-------------------------|----------------|
|---------10---------|--8----------------------|-10-------------|
|-10-----------------|----10p=9--------7h9-----|--------9---9---|
|--------------------|-------------------------|----------------|
|--------------------|-------------------------|----------------|
|--------------------|-------------------------|----------------|


  Am                      Bb                   F
                |--3--|
   H      Q     E E   E    Q   Q     E Q.       H        Q   E E
|-^0------0-----0-0---0-|-^1---1-----1-1-----|-^1--------1---1-1-------|
|-^1------1-----1-1---1-|-^3---3-----3-3-----|-^1--------1---1-1-------|
|-^2------2-----2-2---2-|-^3---3-----3-3-----|-^2--------2---2-2-------|
|-^2------2-----2-2---2-|-^3---3-----3-3-----|-^3--------3---3-3-------|
|-^0------0-----0-0---0-|-^1---1-----1-1-----|-^0--------0---0-0-------|
|-----------------------|--------------------|-^1--------1---1-1-------|
|
|  Q.   E E S S E   E      E E E E   E E E E    E E E E  Q.    T T T T
|--0--------------------|--------------------|--------0--------0-------|
|--1----3p1-------------|------------1-------|-----------1-------1-----|
|--2--------2-----------|--------------3p2---|------0--------------0---|
|--2----------2---------|----0-3-0---------3-|----2------------------2-|
|---------------0h==3---|--1-----------------|--3----------------------|
|-----------------------|--------------------|-------------------------|
|
|  ~~~~~~~~~~~~~~~~~~~~~~~~~~
|  H      H                H         H          H        H
|-----------------------|----------/10-------|--8----------------------|
|-----------------------|--------------------|----------10-------------|
|-12------9-------------|--------------------|-------------------------|
|-----------------------|-12-----------------|-------------------------|
|-----------------------|--------------------|-------------------------|
|-----------------------|--------------------|-------------------------|


  C                       C
   H      E   Q   S  S     Q      E E E E E  E
|-^0------0---0---0-(0)-|-^0------0-0-0-0-0--0-||
|-^1------1---1---x--x--|-^1------1-1-1-1-1--1-||
|-^0------0---0---0-(0)-|-^0------0-0-0-0-0--0-||
|-^2------2---2---x--x--|-^2------2-2-2-2-2--2-||
|-^3------3---3---------|-^3------3-3-3-3-3--3-||
|-----------------------|----------------------||
|
|                          |-3--|
|  Q.   E S S E E E        E  E E E E E E E  E
|--0--------------------|-----------0---0------||
|--1--------------------|-----------1---1------||
|--0--------------------|--0h=2p0-2------------||
|--2----0-2h3p2-0h2-----|-------------2---0--2-||
|--3--------------------|----------------------||
|-----------------------|----------------------||
|
|  W                      +H..               E
|--8--------------------|-(8)---------------10-||
|-----------------------|-------------------10-||
|-----------------------|----------------------||
|-----------------------|----------------------||
|-----------------------|----------------------||
|-----------------------|----------------------||


   Verse
    $
    F                                 C               Em/G  Dm
    Gtr I
      H              Q        E   E   H       E   Q   S S   H     Q   E E
      |              |        |   |   |       |   |   | |   |     |   | |
      /              /        /   /   /       /   /   / /   /     /   / /

    Gtr II
                                                                      ~
      Q        Q     S  S E   E   E   E E  Q  S S E E E     Q  Q  E E Q
||-----------^-1--------------------|-----!0--------------|---------------|
||o----------^-1--------------------|-----!1--------------|-------6-x-6---|
||-----------^-2-----2h=3p2---------|---2-!0--0h2p0-------|-------7-x-7---|
||-----------^-3--------------3p==2-|-3---!2--------3p2---|-------7-x-7---|
||o---0------^-0--------------------|-----!3--------------|-8S=5----------|
||-----------^-1--------------------|---------------------|---------------|
|
|   Gtr VI
|    +Q       +Q    +Q       +Q       W                     W
||--(10)-----(10)--(10)-----(10)\---|---------------------|---------------|
||o-(10)b13--(10)--(10)-----(10)\---|---------------------|---------------|
||----------------------------------|---------------------|---------------|
||----------------------------------|---------------------|---------------|
||o---------------------------------|---------------------|---------------|
||----------------------------------|---------------------|---------------|


  Am                     Bb                F
               |--3--|
  H      Q     E E   E   Q   Q   E Q.      H       Q   E E
  |      |     | |   |   |   |   | |       |       |   | |
  /      /     / /   /   /   /   / /       /       /   / /

  Q.   E E S S E   E     E E E E E E E E   E E E E Q.    T  T   T   T
|-0--------------------|-----------------|-------0-------0-(0)-(0)-(0)-|
|-1----3p1-------------|---------1-------|---------1--------1--(1)-(1)-|
|-2--------2-----------|-----------3p2---|-----0----------------0--(0)-|
|-2----------2---------|---0-3-0-------3-|---2----------------------2--|
|--------------0h==3---|-1---------------|-3---------------------------|
|----------------------|-----------------|-----------------------------|


  C               Em/G  C
   H      E   Q   S S   Q     E E E E E E
   |      |   |   | |   |     | | | | | |
   /      /   /   / /   /     / / / / / /

                        |-3-|
   Q.   E S S E E E     E E E E E E E E E
|-(0)-----------------|---------0---0------||
|-(1)-----------------|---------1---1-----o||
|-(0)-----------------|-0h2p0-2------------||
|-(2)---0-2h3p2-0h2---|-----------2---0-2--||
|--3------------------|-------------------o||
|---------------------|--------------------||


 Chorus
  F                         C                  Em/G   Dm
  Gtr I
   H       Q       E   E     H        E   Q     S S     H          Q     E E
   |       |       |   |     |        |   |     | |     |          |     | |
   /       /       /   /     /        /   /     / /     /          /     / /

  Gtr V
                             ~~~
   H.             +E  +E     H.              E  E      +E   Q    Q    E  Q
|-------------------------|-------------------------|------------------------|
|-------------------------|-----------------11-11---|-(11)p10--------10-10---|
|-10-------------(10)(10)s|=12----------------------|-----------12-----------|
|-------------------------|-------------------------|------------------------|
|-------------------------|-------------------------|------------------------|
|-------------------------|-------------------------|------------------------|
|
| Gtr II
|                                                                        ~~
|  Q    Q  S S E   E   E     E  E  Q  S S E  E  E       Q     Q    E  E  Q
|------^1-----------------|-------!0----------------|------------------------|
|------^1-----------------|-------!1----------------|--------------6--x--6---|
|------^2--2h3p2----------|-----2-!0--0h2p0---------|--------------7--x--7---|
|------^3----------3p==2--|--3----!2---------3p=2---|--------------7--x--7---|
|--0---^0-----------------|-------!3----------------|---8S====5--------------|
|------^1-----------------|-------------------------|------------------------|


  Am                         Bb                 F
                   |--3--|
    H       Q      E E   E   Q   Q   E  Q.       H         Q   E E
    |       |      | |   |   |   |   |  |        |         |   | |
    /       /      / /   /   /   /   /  /        /         /   / /

   +Q   E E Q.         E     Q   Q   Q.     E   +Q    E Q.     E E
|--------------------------|------------------|--------------------------------|
|-(10)s=6------------------|-----6---8------6-|-(6)----------------------------|
|---------9-9----------9---|-7----------------|-------5-5------5-5-------------|
|--------------------------|------------------|--------------------------------|
|--------------------------|------------------|--------------------------------|
|--------------------------|------------------|--------------------------------|
|
|   Q.    E E  S S E   E     E E E E E  E E E    E  E E E  Q.    T  T   T   T
|---0----------------------|------------------|---------0--------0-(0)-(0)-(0)-|
|---1-----3p1--------------|---------1--------|------------1--------1--(1)-(1)-|
|---2----------2-----------|------------3p2---|-------0-----------------0--(0)-|
|---2------------2---------|---0-3-0--------3-|-----2-----------------------2--|
|------------------0h==3---|-1----------------|--3-----------------------------|
|--------------------------|------------------|--------------------------------|


  C                Em/G  C
  H        E   Q   S S    Q     E E E E E E
  |        |   |   | |    |     | | | | | |
  /        /   /   / /    /     / / / / / /

                          ~~~
  Q   E Q.       E E     +W
|-5--------------------|--------------------|
|-----8-8--------6-5---|-(5)----------------|
|----------------------|--------------------|
|----------------------|--------------------|
|----------------------|--------------------|
|----------------------|--------------------|
|
|                         |-3-|
| Q.    E  S S E E E      E E E E E E E E E
|-0--------------------|----------0---0-----|
|-1--------------------|----------1---1-----|
|-0--------------------|--0h2p0-2-----------|
|-2-----0--2h3p2-0h2---|------------2---0-2-|
|-3--------------------|--------------------|
|----------------------|--------------------|


  F
    H        Q          E  E
    |        |          |  |
    /        /          /  /

    E  H          +E   +Q
|----------------------------|
|----------------------------|
|-----10---------(10)-(10)s==|
|-/12------------------------|
|----------------------------|
|----------------------------|
|
|   Q     Q  S S   E    E  E
|--------^1------------------|
|--------^1------------------|
|--------^2--2h3p==2---------|
|--------^3-------------3p=2-|
|---0----^0------------------|
|--------^1------------------|


  C                  Em/G   Dm
   H        E   Q     S S     H          Q     E E
   |        |   |     | |     |          |     | |
   /        /   /     / /     /          /     / /

   ~~~
   H.              E  E      +E   Q    Q    E  Q
|-------------------------|------------------------|
|-----------------11-11---|-(11)p10--------10-10---|
|-12----------------------|-----------12-----------|
|-------------------------|------------------------|
|-------------------------|------------------------|
|-------------------------|------------------------|
|
|                                              ~~
|  E  E  Q  S S E  E  E       Q     Q    E  E  Q
|-------!0----------------|------------------------|
|-------!1----------------|--------------6--x--6---|
|-----2-!0--0h2p0---------|--------------7--x--7---|
|--3----!2---------3p=2---|--------------7--x--7---|
|-------!3----------------|---8S====5--------------|
|-------------------------|------------------------|


  Am                       Bb                 F
                 |--3--|
   H      Q      E E   E   Q   Q   E  Q.       H         Q   E E
   |      |      | |   |   |   |   |  |        |         |   | |
   /      /      / /   /   /   /   /  /        /         /   / /

   Q  E E Q.         E     Q   Q   Q.     E   +Q    E Q.     E E
|------------------------|------------------|--------------------------------|
|-10s=6------------------|-----6---8------6-|-(6)----------------------------|
|-------9-9----------9---|-7----------------|-------5-5------5-5-------------|
|------------------------|------------------|--------------------------------|
|------------------------|------------------|--------------------------------|
|------------------------|------------------|--------------------------------|
|
|  Q.   E E  S S E   E     E E E E E  E E E    E  E E E  Q.    T  T   T   T
|--0---------------------|------------------|---------0--------0-(0)-(0)-(0)-|
|--1----3p1--------------|---------1--------|------------1--------1--(1)-(1)-|
|--2---------2-----------|------------3p2---|-------0-----------------0--(0)-|
|--2-----------2---------|---0-3-0--------3-|-----2-----------------------2--|
|----------------0h==3---|-1----------------|--3-----------------------------|
|------------------------|------------------|--------------------------------|


  C                Em/G  C
  H        E   Q   S S    Q     E E E E E E
  |        |   |   | |    |     | | | | | |
  /        /   /   / /    /     / / / / / /

                          ~~~
  Q   E Q.       E E     +H.            E E
|-5--------------------|--------------------|
|-----8-8--------6-5---|-(5)----------------|
|----------------------|----------------7-7-|
|----------------------|--------------------|
|----------------------|--------------------|
|----------------------|--------------------|
|
|                         |-3-|
| Q.    E  S S E E E      E E E E E E E E E
|-0--------------------|----------0---0-----|
|-1--------------------|----------1---1-----|
|-0--------------------|--0h2p0-2-----------|
|-2-----0--2h3p2-0h2---|------------2---0-2-|
|-3--------------------|--------------------|
|----------------------|--------------------|


  Bb                C                 Am
  Q   H       E E   H       Q   E E   H       Q   E E
  |   |       | |   |       |   | |   |       |   | |
  /   /       / /   /       /   / /   /       /   / /

          ~                 ~                     ~
  E E E E H         E E E E H         E E E E E E Q
|-----------------|-----------------|-----------------|
|-6---6h8-8-------|-5---5h6-6-------|-5-------5---8---|
|---7-------------|---5-------------|---5---5---5-----|
|-----------------|-----------------|-----7-----------|
|-----------------|-----------------|-----------------|
|-----------------|-----------------|-----------------|
|
| E E E E E E E E   E E E E E E E E   E E E E E E E E
|-1-------3-------|-0-------1-------|-0-----------0---|
|---3-------3-----|---1---1---1-----|---1-----1-----1-|
|-----3-------3---|-----0-------0---|-----2-----2-----|
|-------3-------3-|---------------2-|-------2---------|
|-----------------|-----------------|-----------------|
|-----------------|-----------------|-----------------|


                                                    D.S.
  Dm         C         Bb
    Q.     E  H         Q   Q   E E E E     W
    |      |  |         |   |   | | | |     |
    /      /  /         /   /   / / / /     /

    ~~~~~~~~~~~~~~~~~~~~~~
    H         H         W                  +E  E H    e e
|-/17--------15------|------------------|-----------------||
|--------------------|-18---------------|-(18)sx------x-x-||
|--------------------|------------------|-----------------||
|--------------------|------------------|-----------------||
|--------------------|------------------|-----------------||
|--------------------|------------------|-----------------||
|
|                                           ~~~~~
|   E  E Q    E E Q     E E E E E E E E     W
|---1---------0------|--1---------------|---5-------------||
|------3--------1----|----3-----------3-|-----------------||
|--------2--------0--|------3-------3---|-----------------||
|--------------------|--------3---3-----|-----------------||
|--------------------|----------1-------|-----------------||
|--------------------|------------------|-----------------||


 Pre-Verse
  Gtrs I, II
  Wx2
|--------||
|--------||
|--------||
|--------||
|--------||
|--------||


   Bridge
    Dm                 Am
    Gtr I
    Q   Q    Q   Q     Q   Q    Q   Q
    |        |         |        |
    /        /         /        /

    Gtr III
    E E H.             E E H.
||-------------------|------------------|
||o------------------|------------------|
||-------------------|------------------|
||--7-7--------------|-2-2--------------|
||o-5-5--------------|-0-0--------------|
||-------------------|------------------|
|
|   Gtr II
|   PM|    PM  PM  PM----|    PM  PM  PM-
|   E E E  E E E E E   E E E  E E E E E
||-----------1-------|----------0-------|
||o-----3--------3---|-----1--------1---|
||----2----2---2---2-|---2----2---2---2-|
||--3----------------|-2----------------|
||o------------------|------------------|
||-------------------|------------------|
|
|   Gtr V
|   PM|    PM  PM  PM----|    PM  PM  PM-
|   E E E  E E E E E   E E E  E E E E E
||-----------1-------|----------0-------|
||o-----3--------3---|-----1--------1---|
||-------------------|------------------|
||----0----0---0---0-|---0----0---0---0-|
||o-1----------------|-0----------------|
||-------------------|------------------|


  Bb                 F
  Q   Q    Q   Q     Q   Q    Q   Q
  |        |         |        |
  /        /         /        /

  E E H.             E E H.             4x
|------------------|--------------------||
|------------------|-------------------o||
|------------------|--------------------||
|-3-3--------------|--------------------||
|-1-1--------------|-3-3---------------o||
|------------------|-3-3----------------||
|
|---|    PM  PM  PM
| E E E  E E E E E   E E E  E E E E E   4x
|------------------|--------------------||
|----------3-------|-------------------o||
|-----3--------3---|------------0-------||
|---3----3---3---3-|-----3----2---3p2---||
|-1----------------|---3----3----------o||
|------------------|-3------------------||
|
|---|    PM  PM  PM
| E E E  E E E E E   E E E  E E E E E   4x
|------------------|-1------------1p0---||
|----------3-------|---1---------------o||
|-----3--------3---|------------0-------||
|-0--------------0-|-----3----2---------||
|---1----1---1-----|--------3----------o||
|------------------|--------------------||


  Gm                                   C
  Gtr I
   H       Q   E E   E E Q   E E Q      H      Q   E E   +E  E Q   E E Q
|-^3-------3---3-3-|-3-3-3---3-3-3---|-^0------0---0-0-|-(0)-0-0---0-0-0---||
|-^3-------3---3-3-|-3-3-3---3-3-3---|-^1------1---1-1-|-(1)-1-1---1-1-1---||
|-^3-------3---3-3-|-3-3-3---3-3-3---|-^0------0---0-0-|-(0)-0-0---0-0-0---||
|-^5-------5---5-5-|-5-5-5---5-5-5---|-^2------2---2-2-|-(2)-2-2---2-2-2---||
|-^5-------5---5-5-|-5-5-5---5-5-5---|-^3------3---3-3-|-(3)-3-3---3-3-3---||
|-^3-------3---3-3-|-3-3-3---3-3-3---|-----------------|-------------------||
|
| Gtr II
|  E E E E E E E E   E E E E E E E E    E E Q  E E Q      E  E E E E E E E
|--3---------------|---------------3-|--0--------------|---------------0---||
|----3---------3---|-------------3---|----1----1-------|-------------1---1-||
|------3---------3-|-----------3-----|------0----0-----|--0--------0-------||
|--------5---------|-5-------5-------|-------------2---|-----2---2---------||
|----------5-------|---5---5---------|-----------------|-------3-----------||
|------------3-----|-----3-----------|-----------------|-------------------||


 Interlude
     F(type 2)      C              Dm             Am
  Gtr I
  Q  H.         +Q  H.         +Q  H.         +Q  H.
     |           |  |           |  |           |  |
     /           /  /           /  /           /  /

  Gtr II
  Q  q   h       Q  q   h       Q  q   h       Q  q   h
|----1---1----|-----0---0----|-----1---1----|-----0---0----|
|----1---1----|-----1---1----|-----3---3----|-----1---1----|
|----2---2----|-----0---0----|--2--2---2----|-----2---2----|
|----3---3----|--2--2---2----|-----0---0----|--2--2---2----|
|-3--3---3----|-----3---3----|--------------|-----0---0----|
|----1---1----|--------------|--------------|--------------|


  Am  Bb             F(type 2)      C
  +Q  H.         +Q  H.         +Q  H.         +W
   |  |           |  |           |  |           |
   /  /           /  /           /  /           /

   Q  q   h       Q  q   h       Q  q   h       W
|-----1---1----|-----1---1----|-----0---0----|-^0-----||
|-----3---3----|-----1---1----|-----1---1----|-^1-----||
|-----3---3----|-----2---2----|-----0---0----|-^0-----||
|--3--3---3----|-----3---3----|--2--2---2----|-^2-----||
|-----1---1----|--3--3---3----|-----3---3----|-^3-----||
|--------------|-----1---1----|--------------|--------||
|
| Gtr III
|                                       <
|  W              W              H      H      +W
|--------------|--------------|--------------|--------||
|--------------|--------------|--------------|--------||
|--------------|--------------|---------5----|-(5)----||
|--------------|--------------|---------5----|-(5)----||
|--------------|--------------|---------3----|-(3)----||
|--------------|--------------|--------------|--------||


 Chorus
  F                         C                  Em/G   Dm
  Gtr I
   H       Q       E   E     H        E   Q     S S     H          Q     E E
   |       |       |   |     |        |   |     | |     |          |     | |
   /       /       /   /     /        /   /     / /     /          /     / /

  Gtr V
                             ~~~
   H.             +E  +E     H.              E  E      +E   Q    Q    E  Q
|-------------------------|-------------------------|------------------------|
|-------------------------|-----------------11-11---|-(11)p10--------10-10---|
|-10-------------(10)(10)s|=12----------------------|-----------12-----------|
|-------------------------|-------------------------|------------------------|
|-------------------------|-------------------------|------------------------|
|-------------------------|-------------------------|------------------------|
|
| Gtr II
|                                                                        ~~
|  Q    Q  S S E   E   E     E  E  Q  S S E  E  E       Q     Q    E  E  Q
|------^1-----------------|-------!0----------------|------------------------|
|------^1-----------------|-------!1----------------|--------------6--x--6---|
|------^2--2h3p2----------|-----2-!0--0h2p0---------|--------------7--x--7---|
|------^3----------3p==2--|--3----!2---------3p=2---|--------------7--x--7---|
|--0---^0-----------------|-------!3----------------|---8S====5--------------|
|------^1-----------------|-------------------------|------------------------|
|
| Gtr III
|  Q    Q  E   E   E   E     Q     Q  E   E  E  E       Q     Q    E  E  E E
|-------------------------|-------------------------|------------------------|
|-------------------------|-------------------------|------------------------|
|-------------------------|--5-----5--5---5--5--5---|---7-----7----7--7--7-7-|
|--3----3--3---3---3---3--|--5-----5--5---5--5--5---|---7-----7----7--7--7-7-|
|--3----3--3---3---3---3--|--3-----3--3---3--3--3---|---5-----5----5--5--5-5-|
|--3----3--3---3---3---3--|-------------------------|------------------------|


  Am                       Bb                 F
                 |--3--|
   H      Q      E E   E   Q   Q   E  Q.       H         Q    E E
   |      |      | |   |   |   |   |  |        |         |    | |
   /      /      / /   /   /   /   /  /        /         /    / /

   Q  E E Q.         E     Q   Q   Q.     E   +Q    E Q.      E E
|------------------------|------------------|---------------------------------|
|-10s=6------------------|-----6---8------6-|-(6)-----------------------------|
|-------9-9----------9---|-7----------------|-------5-5-------5-5-------------|
|------------------------|------------------|---------------------------------|
|------------------------|------------------|---------------------------------|
|------------------------|------------------|---------------------------------|
|
|  Q.   E E  S S E   E     E E E E E  E E E    E  E E E  Q.     T  T   T   T
|--0---------------------|------------------|---------0---------0-(0)-(0)-(0)-|
|--1----3p1--------------|---------1--------|------------1---------1--(1)-(1)-|
|--2---------2-----------|------------3p2---|-------0------------------0--(0)-|
|--2-----------2---------|---0-3-0--------3-|-----2------------------------2--|
|----------------0h==3---|-1----------------|--3------------------------------|
|------------------------|------------------|---------------------------------|
|
|  Q  Q   E  E   E   E     Q   Q   E  E E E    Q    Q    E  E E E
|------------------------|------------------|---------------------------------|
|------------------------|------------------|---------------------------------|
|--2--2---2--2---2---2---|-3---3---3--3-3-3-|---------------------------------|
|--2--2---2--2---2---2---|-3---3---3--3-3-3-|--3----3----3--3-3-3-------------|
|--0--0---0--0---0---0---|-1---1---1--1-1-1-|--3----3----3--3-3-3-------------|
|------------------------|------------------|--3----3----3--3-3-3-------------|


  C                Em/G  C
  H        E   Q   S S    Q      E E E E E E
  |        |   |   | |    |      | | | | | |
  /        /   /   / /    /      / / / / / /

                          ~~~
  Q   E Q.       E E     +W
|-5--------------------|---------------------|
|-----8-8--------6-5---|-(5)-----------------|
|----------------------|---------------------|
|----------------------|---------------------|
|----------------------|---------------------|
|----------------------|---------------------|
|
|                         |-3--|
| Q.    E  S S E E E      E  E E E E E E E E
|-0--------------------|-----------0---0-----|
|-1--------------------|-----------1---1-----|
|-0--------------------|--0h=2p0-2-----------|
|-2-----0--2h3p2-0h2---|-------------2---0-2-|
|-3--------------------|---------------------|
|----------------------|---------------------|
|
| Q   Q    E   E E E     +W
|----------------------|---------------------|
|----------------------|---------------------|
|-5---5----5---5-5-5---|-(5)-----------------|
|-5---5----5---5-5-5---|-(5)-----------------|
|-3---3----3---3-3-3---|-(3)-----------------|
|----------------------|---------------------|


  F
    H        Q          E  E
    |        |          |  |
    /        /          /  /

    E  H          +E   +Q
|----------------------------|
|----------------------------|
|-----10---------(10)-(10)s==|
|-/12------------------------|
|----------------------------|
|----------------------------|
|
|   Q     Q  S S   E    E  E
|--------^1------------------|
|--------^1------------------|
|--------^2--2h3p==2---------|
|--------^3-------------3p=2-|
|---0----^0------------------|
|--------^1------------------|
|
|   Q     Q  E     E    E  E
|----------------------------|
|----------------------------|
|----------------------------|
|---3-----3--3-----3----3--3-|
|---3-----3--3-----3----3--3-|
|---3-----3--3-----3----3--3-|


  C                  Em/G   Dm
   H        E   Q     S S     H          Q     E E
   |        |   |     | |     |          |     | |
   /        /   /     / /     /          /     / /

   ~~~
   H.              E  E      +E   Q    Q    E  Q
|-------------------------|------------------------|
|-----------------11-11---|-(11)p10--------10-10---|
|-12----------------------|-----------12-----------|
|-------------------------|------------------------|
|-------------------------|------------------------|
|-------------------------|------------------------|
|
|                                              ~~
|  E  E  Q  S S E  E  E       Q     Q    E  E  Q
|-------!0----------------|------------------------|
|-------!1----------------|--------------6--x--6---|
|-----2-!0--0h2p0---------|--------------7--x--7---|
|--3----!2---------3p=2---|--------------7--x--7---|
|-------!3----------------|---8S====5--------------|
|-------------------------|------------------------|
|
|  Q     Q  E   E  E  E       Q     Q    E  E  E E
|-------------------------|------------------------|
|-------------------------|------------------------|
|--5-----5--5---5--5--5---|---7-----7----7--7--7-7-|
|--5-----5--5---5--5--5---|---7-----7----7--7--7-7-|
|--3-----3--3---3--3--3---|---5-----5----5--5--5-5-|
|-------------------------|------------------------|


  Am                       Bb                 F
                 |--3--|
   H      Q      E E   E   Q   Q   E  Q.       H         Q    E E
   |      |      | |   |   |   |   |  |        |         |    | |
   /      /      / /   /   /   /   /  /        /         /    / /

   Q  E E Q.         E     Q   Q   Q.     E   +Q    E Q.      E E
|------------------------|------------------|---------------------------------|
|-10s=6------------------|-----6---8------6-|-(6)-----------------------------|
|-------9-9----------9---|-7----------------|-------5-5-------5-5-------------|
|------------------------|------------------|---------------------------------|
|------------------------|------------------|---------------------------------|
|------------------------|------------------|---------------------------------|
|
|  Q.   E E  S S E   E     E E E E E  E E E    E  E E E  Q.     T  T   T   T
|--0---------------------|------------------|---------0---------0-(0)-(0)-(0)-|
|--1----3p1--------------|---------1--------|------------1---------1--(1)-(1)-|
|--2---------2-----------|------------3p2---|-------0------------------0--(0)-|
|--2-----------2---------|---0-3-0--------3-|-----2------------------------2--|
|----------------0h==3---|-1----------------|--3------------------------------|
|------------------------|------------------|---------------------------------|
|
|  Q  Q   E  E   E   E     Q   Q   E  E E E    Q    Q    E  E E E
|------------------------|------------------|---------------------------------|
|------------------------|------------------|---------------------------------|
|--2--2---2--2---2---2---|-3---3---3--3-3-3-|---------------------------------|
|--2--2---2--2---2---2---|-3---3---3--3-3-3-|--3----3----3--3-3-3-------------|
|--0--0---0--0---0---0---|-1---1---1--1-1-1-|--3----3----3--3-3-3-------------|
|------------------------|------------------|--3----3----3--3-3-3-------------|


  C                Em/G  C
  H        E   Q   S S    Q      E E E E E E
  |        |   |   | |    |      | | | | | |
  /        /   /   / /    /      / / / / / /

                          ~~~
  Q   E Q.       E E     +H.             E E
|-5--------------------|---------------------|
|-----8-8--------6-5---|-(5)-----------------|
|----------------------|-----------------7-7-|
|----------------------|---------------------|
|----------------------|---------------------|
|----------------------|---------------------|
|
|                         |-3--|
| Q.    E  S S E E E      E  E E E E E E E E
|-0--------------------|-----------0---0-----|
|-1--------------------|-----------1---1-----|
|-0--------------------|--0h=2p0-2-----------|
|-2-----0--2h3p2-0h2---|-------------2---0-2-|
|-3--------------------|---------------------|
|----------------------|---------------------|
|
| Q   Q    E   E E E     +W
|----------------------|---------------------|
|----------------------|---------------------|
|-5---5----5---5-5-5---|-(5)-----------------|
|-5---5----5---5-5-5---|-(5)-----------------|
|-3---3----3---3-3-3---|-(3)-----------------|
|----------------------|---------------------|


  Bb                C                 Am
  Q   H       E E   H       Q   E E   H       Q   E E
  |   |       | |   |       |   | |   |       |   | |
  /   /       / /   /       /   / /   /       /   / /

          ~                 ~                     ~
  E E E E H         E E E E H         E E E E E E Q
|-----------------|-----------------|-----------------|
|-6---6h8-8-------|-5---5h6-6-------|-5-------5---8---|
|---7-------------|---5-------------|---5---5---5-----|
|-----------------|-----------------|-----7-----------|
|-----------------|-----------------|-----------------|
|-----------------|-----------------|-----------------|
|
| E E E E E E E E   E E E E E E E E   E E E E E E E E
|-1-------3-------|-0-------1-------|-0-----------0---|
|---3-------3-----|---1---1---1-----|---1-----1-----1-|
|-----3-------3---|-----0-------0---|-----2-----2-----|
|-------3-------3-|---------------2-|-------2---------|
|-----------------|-----------------|-----------------|
|-----------------|-----------------|-----------------|
|
| Q   Q   H         H       H         W
|-----------------|-----------------|-----------------|
|-----------------|-----------------|-----------------|
|-3---3---3-------|-5-------5-------|-2---------------|
|-3---3---3-------|-5-------5-------|-2---------------|
|-1---1---1-------|-3-------3-------|-0---------------|
|-----------------|-----------------|-----------------|


  Dm         C         Bb
    Q.     E  H         Q   Q   E E E E     W
    |      |  |         |   |   | | | |     |
    /      /  /         /   /   / / / /     /

    ~~~~~~~~~~~~~~~~~~~~~~                      ~~~~~~~
    H         H         W                  +E   E  +H      +E  e
|-/17--------15------|------------------|------------------------||
|--------------------|-18---------------|-(18)S22-(22)----(22)sx-||
|--------------------|------------------|------------------------||
|--------------------|------------------|------------------------||
|--------------------|------------------|------------------------||
|--------------------|------------------|------------------------||
|
|                                           ~~~~~
|   E  E Q    E E Q     E E E E E E E E     W
|---1---------0------|--1---------------|---5--------------------||
|------3--------1----|----3-----------3-|------------------------||
|--------2--------0--|------3-------3---|------------------------||
|--------------------|--------3---3-----|------------------------||
|--------------------|----------1-------|------------------------||
|--------------------|------------------|------------------------||
|
|   H         H         W                  +w
|--------------------|------------------|------------------------||
|--------------------|------------------|------------------------||
|---7---------5------|--3---------------|--(3)-------------------||
|---7---------5------|--3---------------|--(3)-------------------||
|---5---------3------|--1---------------|--(1)-------------------||
|--------------------|------------------|------------------------||


   Pre-Solo
    Gtr I
    PM|   PM  PM  PM----|   PM  PM  PM-
    E E E E E E E E   E E E E E E E E
||----------1-------|---------0-------|
||o-x-x-3-------3---|-x-x-1-------1---|
||--x-x---2---2---2-|-x-x---2---2---2-|
||------------------|-----------------|
||o-----------------|-----------------|
||------------------|-----------------|
|
|   Gtr III
|   E E q   q   q     E E q   q   q
||------0---1---0---|-----0---1---0---|
||o-----------------|-----------------|
||--2-2-------------|-----------------|
||--0-0-------------|-2-2-------------|
||o-----------------|-0-0-------------|
||------------------|-----------------|


 ---|   PM  PM  PM
  E E E E E E E E   E E E E  E  E E  E
|-----------------|------------------------||
|---------3-------|-----------------------o||
|-x-x-3-------3---|-------------0----------||
|-x-x---3---3---3-|-x-x-3----2----3p=2-----||
|-----------------|-x-x---3---------------o||
|-----------------|------------------------||
|
|                            ~~~
| E E q   q   q     E E q    Q.     +E
|-----------------|------------------------||
|-----1---3---1---|-----------------------o||
|-----------------|------------------------||
|-3-3-------------|------------------------||
|-1-1-------------|-3-3-------------------o||
|-----------------|-3-3-3---/7------(7)\---||


 Guitar Solo
          D    A F      A D A           C    A E      A C A
  Gtr I
   E    E   E  E  E     E E E    E    E   E  E  E     E E E
   |    |   |  |  |     | | |    |    |   |  |  |     | | |
   x    x   o  o  o     o o o    x    x   o  o  o     o o o

  Gtr IV
   Q       +Q     H              Q       +Q     H
|-----------------------------|-----------------------------|
|-15------(15)---15-----------|-13------(13)---13-----------|
|-17b19---(17)---17pb19-------|-15b17---(15)---15pb17-------|
|-----------------------------|-----------------------------|
|-----------------------------|-----------------------------|
|-----------------------------|-----------------------------|
|
| Gtr III
|  E    E   q     q       q      E    E   q     q       q
|-----------0-----1-------0---|-----------0-----1-------0---|
|-----------------------------|-----------------------------|
|--2----2---------------------|-----------------------------|
|--0----0---------------------|--2----2---------------------|
|-----------------------------|--0----0---------------------|
|-----------------------------|-----------------------------|


          BbF D  F  Bb F                   C     E    G F  E
   E    E E E  E  E  E  E    E  E       E    E     E  E  E  E
   |    | | |  |  |  |  |    |  |       |    |     |  |  |  |
   x    x o o  o  o  o  o    x  x       /    o     o  o  o  o

   H           E  E  E  E    e  E      +E   +E     Q     E  E
|-------------------------|----15b17==(15)r(15)\----------------|
|-13b15-------15p13----15-|-13-------------------/17----15------|
|-------------------14----|--------------------------------17---|
|-------------------------|-------------------------------------|
|-------------------------|-------------------------------------|
|-------------------------|-------------------------------------|
|
|                                                  ~~~~
|  E    E q    q     q       E  E       q          Q.      +E
|-------------------------|-------------------------------------|
|---------1----3-----1----|-------------------------------------|
|-------------------------|-------------------------------------|
|--3----3-----------------|-------------------------------------|
|--1----1-----------------|--3--3-------------------------------|
|-------------------------|--3--3-------3---------/7-------(7)\-|


             D  A F     A    D  A              C     A    E A     C   A
   E      E   E E  E      E   E E    E      E   E      E  E   E     E E
   |      |   | |  |      |   | |    |      |   |      |  |   |     | |
   x      x   o o  o      o   o o    x      x   o      o  o   o     o o

   E     +E   Q    E     +E   Q      E     +e   E     +Q     +E     Q
|---------------------------------|-------------------------------------|
|------------18--------------18---|-16----(16)-16----(16)---(16)\-------|
|-17b19-(17)------17b19-(17)------|-17b18-(17)-17b18-(17)---(17)\-------|
|---------------------------------|-------------------------------/19---|
|---------------------------------|-------------------------------------|
|---------------------------------|-------------------------------------|
|
|  E      E   q    q          q      E      E   q         q         q
|-------------0----1----------0---|-------------0---------1---------0---|
|---------------------------------|-------------------------------------|
|--2------2-----------------------|-------------------------------------|
|--0------0-----------------------|--2------2---------------------------|
|---------------------------------|--0------0---------------------------|
|---------------------------------|-------------------------------------|


      Bb F D   F BbF             C  E   G F E
  E E  E E  E  E E  E    E  E  E  E  E  E E  E
  | |  | |  |  | |  |    |  |  |  |  |  | |  |
  x x  o o  o  o o  o    x  x  /  o  o  o o  o

            ~~~                      ~~~
  q    q    Q.      E    E  E  E  E  H
|---------------------|--------------------------|
|---------------------|-18s17--------------------|
|-----19---19---------|-------19p17-19-----------|
|-x----------------19-|--------------------------|
|---------------------|--------------------------|
|---------------------|--------------------------|
|
|                                    ~~~
| E E  q    q    q       E  E  q     Q.     +E
|---------------------|--------------------------|
|------1----3----1----|--------------------------|
|---------------------|--------------------------|
|-3-3-----------------|--------------------------|
|-1-1-----------------|--3--3--------------------|
|---------------------|--3--3--3----/7------(7)\-|


              D     A F    A D A            C     A E    A C A
  Gtr I
    E      E   E    E   E  E E  E    E    E  E    E   E  E E  E
    |      |   |    |   |  | |  |    |    |  |    |   |  | |  |
    x      x   o    o   o  o o  o    x    x  o    o   o  o o  o

  Gtr IV
    ~~~~~~
   +E     +E   q        H            W
|---------------------------------|-----------------------------|
|---------------------------------|-----------------------------|
|-(19)---(19)s=x------------------|-----------------------------|
|---------------------------------|-----------------------------|
|---------------------------------|-----------------------------|
|---------------------------------|-----------------------------|
|
| Gtr V
|                       ~~~~                          ~~~~
|   Q          Q       +Q.      E    Q       Q       +Q.      E
|---------------------------------|-----------------------------|
|--13b15------13b15---(13)--------|-11b14---11b14---(11)--------|
|------------------------------14-|--------------------------14-|
|---------------------------------|-----------------------------|
|---------------------------------|-----------------------------|
|---------------------------------|-----------------------------|
|
| Gtr III
|   E      E   q        q    q       E    E  q        q    q
|--------------0--------1----0----|----------0--------1----0----|
|---------------------------------|-----------------------------|
|---2------2----------------------|-----------------------------|
|---0------0----------------------|--2----2---------------------|
|---------------------------------|--0----0---------------------|
|---------------------------------|-----------------------------|


       Bb F D     F BbF               C  E   G  F  E
   E E  E E  E    E E   E     E  E  E  E  E   E  E  E
   | |  | |  |    | |   |     |  |  |  |  |   |  |  |
   x x  o o  o    o o   o     x  x  /  o  o   o  o  o

   W                          W
|--------------------------|----------------------------|
|--------------------------|----------------------------|
|--------------------------|----------------------------|
|--------------------------|----------------------------|
|--------------------------|----------------------------|
|--------------------------|----------------------------|
|
|  q    Q    H          a     E  E  E  E  E   E  E  E
|--------------------------|----------------------------|
|-11---11---11b13r====(11)-|-10-------------------------|
|--------------------------|----10----------------------|
|--------------------------|-------10-----------10-12---|
|--------------------------|----------13-12--13---------|
|--------------------------|----------------------------|
|
|                                         ~~~
|  E E  q    q      q         E  E  q     Q.       +E
|--------------------------|----------------------------|
|-------1----3------1------|----------------------------|
|--------------------------|----------------------------|
|--3-3---------------------|----------------------------|
|--1-1---------------------|--3--3----------------------|
|--------------------------|--3--3--3----/7--------(7)\-|


       D    A   F   A D      A       C A E   A C   A
   E E   E   E    E E  E     E   E E E E  E  E  E  E
   | |   |   |    | |  |     |   | | | |  |  |  |  |
   x x   o   o    o o  o     o   x x o o  o  o  o  o

   W                             W
|------------------------------|---------------------|
|------------------------------|---------------------|
|------------------------------|---------------------|
|------------------------------|---------------------|
|------------------------------|---------------------|
|------------------------------|---------------------|
|
|  Q    +E   E    Q    Q         H       +Q     Q
|------------------------------|---------------------|
|------------------------------|---------------------|
|---------------/10---10pb12r==|=9-------(9)s==12\---|
|-12---(12)s15\----------------|---------------------|
|------------------------------|---------------------|
|------------------------------|---------------------|
|
|  E E   q        q    q         E E q    q     q
|--------0--------1----0-------|-----0----1-----0----|
|------------------------------|---------------------|
|--2-2-------------------------|---------------------|
|--0-0-------------------------|-2-2-----------------|
|------------------------------|-0-0-----------------|
|------------------------------|---------------------|


       Bb   F D  F Bb F             C E    G F E
   E E   E  E  E E  E  E    E  E  E E   E  E E  E
   | |   |  |  | |  |  |    |  |  | |   |  | |  |
   x x   o  o  o o  o  o    x  x  / o   o  o o  o

   W                        W
|------------------------|--------------------------|
|------------------------|--------------------------|
|------------------------|--------------------------|
|------------------------|--------------------------|
|------------------------|--------------------------|
|------------------------|--------------------------|
|
|  Q    +Q     Q    E  E    E  E  Q     H
|------------------------|--------------------------|
|------------------13p11-|-10-----------------------|
|-10---(10)s==15---------|----10------/12\----------|
|------------------------|-------10-----------------|
|------------------------|--------------------------|
|------------------------|--------------------------|
|
|                                       ~~~~
|  E E   q     q    q       E  E  q     Q.     +E
|------------------------|--------------------------|
|--------1-----3----1----|--------------------------|
|------------------------|--------------------------|
|--3-3-------------------|--------------------------|
|--1-1-------------------|--3--3--------------------|
|------------------------|--3--3--3----/7------(7)\-|


                D A     F   A D A                     C A     E   A C A
   E    E       E  E     E  E E   E      E    E       E  E     E  E E   E
   |    |       |  |     |  | |   |      |    |       |  |     |  | |   |
   x    x       o  o     o  o o   o      x    x       o  o     o  o o   o

   W                                     W
|-------------------------------------|-------------------------------------|
|-------------------------------------|-------------------------------------|
|-------------------------------------|-------------------------------------|
|-------------------------------------|-------------------------------------|
|-------------------------------------|-------------------------------------|
|-------------------------------------|-------------------------------------|
|
|                        ~~~                                   ~~~
|  e.      E.      S  S  Q.      +E      e.      E.      S  S  Q.      +E
|-------------------------------------|-------------------------------------|
|-------------------------------------|-------------------------------------|
|-12b14---12b14---10----10------(10)\-|-12b14---12b14---10----10------(10)\-|
|--------------------10---------------|--------------------10---------------|
|-------------------------------------|-------------------------------------|
|-------------------------------------|-------------------------------------|
|
|  E    E       q        q    q          E    E       q        q    q
|---------------0--------1----0-------|---------------0--------1----0-------|
|-------------------------------------|-------------------------------------|
|--2----2-----------------------------|-------------------------------------|
|--0----0-----------------------------|--2----2-----------------------------|
|-------------------------------------|--0----0-----------------------------|
|-------------------------------------|-------------------------------------|


                BbF     D  F BbF                 C E    G F    E
   E    E       E  E     E E E E    E     E   E  E   E  E   E   E
   |    |       |  |     | | | |    |     |   |  |   |  |   |   |
   x    x       o  o     o o o o    x     x   /  o   o  o   o   o

   W                                W
|--------------------------------|----------------------------------|
|--------------------------------|----------------------------------|
|--------------------------------|----------------------------------|
|--------------------------------|----------------------------------|
|--------------------------------|----------------------------------|
|--------------------------------|----------------------------------|
|
|                        ~~
|  e.      E.      S  S  H          Q        +Q     +Q     +Q
|--------------------------------|----------------------------------|
|-----------------------11-------|-11b13====(11)---(11)---(11)------|
|-12b14---12b14---10-------------|----------------------------------|
|--------------------10----------|----------------------------------|
|--------------------------------|----------------------------------|
|--------------------------------|----------------------------------|
|
|                                                    ~~~~
|  E    E       q        q   q      E     E   q      Q.        +E
|--------------------------------|----------------------------------|
|---------------1--------3---1---|----------------------------------|
|--------------------------------|----------------------------------|
|--3----3------------------------|----------------------------------|
|--1----1------------------------|--3-----3-------------------------|
|--------------------------------|--3-----3---3-----/7---------(7)\-|


         D     A     F  A D A          C A     E  A C A
    E  E   E    E     E E E E     E  E E  E     E E E E
    |  |   |    |     | | | |     |  | |  |     | | | |
    x  x   o    o     o o o o     x  x o  o     o o o o

                      ~~                        ~~
    Q.          S  S  H           Q.      S  S  H
|-----------------------------|-------------------------|
|-/15----------15-15-15-------|-/14------14-14-14-------|
|-----------------------------|-------------------------|
|-----------------------------|-------------------------|
|-----------------------------|-------------------------|
|-----------------------------|-------------------------|
|
|  +Q     +E    E     H           W
|-----------------------------|-------------------------|
|-(11)---(11)rs=x-------------|-------------------------|
|-----------------------------|-------------------------|
|-----------------------------|-------------------------|
|-----------------------------|-------------------------|
|-----------------------------|-------------------------|
|
|   E  E   q          q   q       E  E q        q   q
|----------0----------1---0---|--------0--------1---0---|
|-----------------------------|-------------------------|
|---2--2----------------------|-------------------------|
|---0--0----------------------|---2--2------------------|
|-----------------------------|---0--0------------------|
|-----------------------------|-------------------------|


          Bb     F D    F BbF             C E  G  F  E
   E    E   E    E   E  E E E    E  E   E E  E  E  E  E
   |    |   |    |   |  | | |    |  |   | |  |  |  |  |
   x    x   o    o   o  o o o    x  x   / o  o  o  o  o

            ~~~~~~               PM|
   Q       +H.                   E  E   q    E  E  E  E
|-----------------------------|-------/17---17p15---------|
|-18b20---(18)----------------|-------------------18p17---|
|-----------------------------|---------------------------|
|-----------------------------|---------------------------|
|-----------------------------|-17-17---------------------|
|-----------------------------|---------------------------|
|
|                    ~~~~        PM|
|  Q        Q       +H           E  E   q    E  E  E  E
|-----------------------------|--------/5----5p=3--5p=3---|
|----------18b20---(18)-------|---------------------------|
|-----------------------------|---------------------------|
|-----------------------------|---------------------------|
|-----------------------------|--5--5---------------------|
|-----------------------------|---------------------------|
|
|                                            ~~~
|  E    E   q        q    q      E  E   q    Q.      +E
|-----------------------------|---------------------------|
|-----------1--------3----1---|---------------------------|
|-----------------------------|---------------------------|
|--3----3---------------------|---------------------------|
|--1----1---------------------|--3--3---------------------|
|-----------------------------|--3--3---3---/7-------(7)\-|


          D    A F A D  A           C    A E     A C    A
   E    E   E  E E E  E E    E    E   E  E  E    E   E  E
   |    |   |  | | |  | |    |    |   |  |  |    |   |  |
   x    x   o  o o o  o o    x    x   o  o  o    o   o  o

   Q       +H         q      Q       +Q     Q       +Q
|-------------------------|-------------------------------|
|--------------------18---|-16b17---(16)---18b20---(18)---|
|-18b19---(18)------------|-------------------------------|
|-------------------------|-------------------------------|
|-------------------------|-------------------------------|
|-------------------------|-------------------------------|
|
|  E    E   H.               W
|-------------------------|-------------------------------|
|--5s===x-----------------|-------------------------------|
|-------------------------|-------------------------------|
|-------------------------|-------------------------------|
|-------------------------|-------------------------------|
|-------------------------|-------------------------------|
|
|  E    E   q    q    q      E    E   q     q        q
|-----------0----1----0---|-----------0-----1--------0----|
|-------------------------|-------------------------------|
|--2----2-----------------|-------------------------------|
|--0----0-----------------|--2----2-----------------------|
|-------------------------|--0----0-----------------------|
|-------------------------|-------------------------------|


       BbF D     F BbF             C E   G  F  E
   E E E E  E    E E E    E  E  E  E  E   E  E  E
   | | | |  |    | | |    |  |  |  |  |   |  |  |
   x x o o  o    o o o    x  x  /  o  o   o  o  o

   ~~~~~~~~~~~~~~               ~~~
   H        H             E  E  Q.        E  E  E
|----------------------|-17s20-20--------17---------|
|-18-------20b23-------|--------------------20p18---|
|----------------------|----------------------------|
|----------------------|----------------------------|
|----------------------|----------------------------|
|----------------------|----------------------------|
|
|  W                      W
|----------------------|----------------------------|
|----------------------|----------------------------|
|----------------------|----------------------------|
|----------------------|----------------------------|
|----------------------|----------------------------|
|----------------------|----------------------------|
|
|                                     ~~~
|  E E q    q      q      E  E  q     Q.       +E
|----------------------|----------------------------|
|------1----3------1---|----------------------------|
|----------------------|----------------------------|
|--3-3-----------------|----------------------------|
|--1-1-----------------|--3--3----------------------|
|----------------------|--3--3--3----/7--------(7)\-|


        D  A F  A  D  A         C  A E  A  C  A
   E  E  E E  E  E  E E    E  E  E E  E  E  E E
   |  |  | |  |  |  | |    |  |  | |  |  |  | |
   x  x  o o  o  o  o o    x  x  o o  o  o  o o

   E  E  q    E  E  q      E  E  q    E  E  q
|-------20---------20---|-------21---------21---|
|-20s22------20s22------|-20s22------20s22------|
|-----------------------|-----------------------|
|-----------------------|-----------------------|
|-----------------------|-----------------------|
|-----------------------|-----------------------|
|
|  W                       W
|-----------------------|-----------------------|
|-----------------------|-----------------------|
|-----------------------|-----------------------|
|-----------------------|-----------------------|
|-----------------------|-----------------------|
|-----------------------|-----------------------|
|
|  E  E  q    q     q      E  E  q    q     q
|--------0----1-----0---|--------0----1-----0---|
|-----------------------|-----------------------|
|--2--2-----------------|-----------------------|
|--0--0-----------------|--2--2-----------------|
|-----------------------|--0--0-----------------|
|-----------------------|-----------------------|


        Bb  F D F BbF           C  E  G  F  E
   E  E  E  E E E E E   E  E  E  E  E  E  E  E
   |  |  |  | | | | |   |  |  |  |  |  |  |  |
   x  x  o  o o o o o   x  x  /  o  o  o  o  o

         ~~~
   E  E  H.             E  E  E  E  E  E  E  E
|-------22------------|---17p15----17p15----15---|
|-20s22---------------|---------18-------18------|
|---------------------|--------------------------|
|---------------------|--------------------------|
|---------------------|--------------------------|
|---------------------|--------------------------|
|
|  W                    W
|---------------------|--------------------------|
|---------------------|--------------------------|
|---------------------|--------------------------|
|---------------------|--------------------------|
|---------------------|--------------------------|
|---------------------|--------------------------|
|
|                                   ~~~
|  E  E  q    q   q     E  E  q     Q.      +E
|---------------------|--------------------------|
|--------1----3---1---|--------------------------|
|---------------------|--------------------------|
|--3--3---------------|--------------------------|
|--1--1---------------|-3--3---------------------|
|---------------------|-3--3--3----/7-------(7)\-|


           D    A  F  A    D  A         C  A  E  A C  A
    E   E    E   E  E   E   E  E    E E  E  E  E E  E E
    |   |    |   |  |   |   |  |    | |  |  |  | |  | |
    x   x    o   o  o   o   o  o    x x  o  o  o o  o o

    ~~~
    Q       +E   e  H               W
|--------------------------------|----------------------|
|--18------(18)s=x---------------|----------------------|
|--------------------------------|----------------------|
|--------------------------------|----------------------|
|--------------------------------|----------------------|
|--------------------------------|----------------------|
|
|   E  +E    E   E  E  +E   E  E    Q    E  E  Q    Q
|--------------------------------|----------------------|
|-/15-(15)p=13-----15-(15)p13----|-14-------------------|
|---------------14------------14-|------15p14-15---14---|
|--------------------------------|----------------------|
|--------------------------------|----------------------|
|--------------------------------|----------------------|
|
|   E   E    q      q       q       E E  q     q    q
|------------0------1-------0----|-------0-----1----0---|
|--------------------------------|----------------------|
|---2---2------------------------|----------------------|
|---0---0------------------------|--2-2-----------------|
|--------------------------------|--0-0-----------------|
|--------------------------------|----------------------|


        Bb F  D F  Bb  F             C E   G  F  E
   E  E  E  E E  E  E  E    E    E E E   E  E  E  E
   |  |  |  | |  |  |  |    |    | | |   |  |  |  |
   x  x  o  o o  o  o  o    x    x / o   o  o  o  o

   W                        H            E  E  E  E
|------------------------|----------------------------|
|------------------------|----------------------------|
|------------------------|-12-----------14p12---------|
|------------------------|-14b17--------------15p12---|
|------------------------|----------------------------|
|------------------------|----------------------------|
|
|           ~~
|  E  E  E  Q    E  q       H            E  E  Q  a
|------------------------|----------------------------|
|------------------------|-------------/10------------|
|-12---------------------|--9---------------9p=7--x---|
|----15p12-15---12-------|-11b14----------------------|
|------------------15\---|----------------------------|
|------------------------|----------------------------|
|
|                                        ~~~~
|  E  E  q    q     q       E    E q     Q.      +E
|------------------------|----------------------------|
|--------1----3-----1----|----------------------------|
|------------------------|----------------------------|
|--3--3------------------|----------------------------|
|--1--1------------------|--3----3--------------------|
|------------------------|--3----3-3----/7-------(7)\-|


        D        A  F A        D  A               C A        E  A C  A
    E E  E        E E  E        E E    E        E E  E        E E  E E
    | |  |        | |  |        | |    |        | |  |        | |  | |
    x x  o        o o  o        o o    x        x o  o        o o  o o

         PM---|        PM---|          PM---|        PM------|
         |--3--|       |--3--|         |--3--|       |--3----|
    Q    S  S  S  Q    S  S  S  Q      S  S  S  Q    S  S  S  Q    E e
|-----------------------------------|----------------------------------|
|-/10------------10------------10---|----------10------------10--------|
|-----------------------------------|----------------------------------|
|-----------------------------------|----------------------------------|
|-------12-12-12------12-12-12------|-12-12-12------12-12-12------12sxS|
|-----------------------------------|----------------------------------|
|
|   W                                  W
|-----------------------------------|----------------------------------|
|-----------------------------------|----------------------------------|
|-----------------------------------|----------------------------------|
|-----------------------------------|----------------------------------|
|-----------------------------------|----------------------------------|
|-----------------------------------|----------------------------------|
|
|   E E  q          q           q      E        E q           q    q
|--------0----------1-----------0---|-------------0-----------1----0---|
|-----------------------------------|----------------------------------|
|---2-2-----------------------------|----------------------------------|
|---0-0-----------------------------|--2--------2----------------------|
|-----------------------------------|--0--------0----------------------|
|-----------------------------------|----------------------------------|


            BbF D F BbF                  C E    G  F  E
   E     E  E E E E E   E       E  E  E  E   E   E  E  E
   |     |  | | | | |   |       |  |  |  |   |   |  |  |
   x     x  o o o o o   o       x  x  /  o   o   o  o  o

   PM|   ~~~
   S  S  H.            +E       E  E  q      E   E  E  E
|-------10------------(10)\-|------------------------------|
|---------------------------|----------------------15------|
|---------------------------|--------------/14--14----14---|
|---------------------------|-/12-12h15\-------------------|
|-10-10---------------------|------------------------------|
|---------------------------|------------------------------|
|
|  W                            W
|---------------------------|------------------------------|
|---------------------------|------------------------------|
|---------------------------|------------------------------|
|---------------------------|------------------------------|
|---------------------------|------------------------------|
|---------------------------|------------------------------|
|
|                                            ~~~~
|  E     E  q   q   q           E  E  q      Q.       +E
|---------------------------|------------------------------|
|-----------1---3---1-------|------------------------------|
|---------------------------|------------------------------|
|--3-----3------------------|------------------------------|
|--1-----1------------------|---3--3-----------------------|
|---------------------------|---3--3--3-----/7--------(7)\-|


       D  A F     A D A        C  A E     A C A
   E E  E E  E    E E E    E E  E E  E    E E E
   | |  | |  |    | | |    | |  | |  |    | | |
   x x  o o  o    o o o    x x  o o  o    o o o

   q    Q    H             q    Q    H
|-----------------------|-----------------------|
|-15---15---17b18-------|-17---17---18b20-------|
|-----------------------|-----------------------|
|-----------------------|-----------------------|
|-----------------------|-----------------------|
|-----------------------|-----------------------|
|
|  W                       W
|-----------------------|-----------------------|
|-----------------------|-----------------------|
|-----------------------|-----------------------|
|-----------------------|-----------------------|
|-----------------------|-----------------------|
|-----------------------|-----------------------|
|
|  E E  q    q      q      E E  q    q      q
|-------0----1------0---|-------0----1------0---|
|-----------------------|-----------------------|
|--2-2------------------|-----------------------|
|--0-0------------------|--2-2------------------|
|-----------------------|--0-0------------------|
|-----------------------|-----------------------|


       Bb F D     F BbF               C  E   G F E
   E E  E E  E    E E E       E  E  E  E  E  E E  E
   | |  | |  |    | | |       |  |  |  |  |  | |  |
   x x  o o  o    o o o       x  x  /  o  o  o o  o

                                          ~~~
   q    Q    H             a  E  E  E  E  Q.      E
|-----------17b18-------|-15s17-15----15---------------|
|-18---18---------------|----------18----15------------|
|-----------------------|------------------------17----|
|-----------------------|------------------------------|
|-----------------------|------------------------------|
|-----------------------|------------------------------|
|
|  W                          W
|-----------------------|------------------------------|
|-----------------------|------------------------------|
|-----------------------|------------------------------|
|-----------------------|------------------------------|
|-----------------------|------------------------------|
|-----------------------|------------------------------|
|
|                                         ~~~
|  E E  q    q      q         E  E  q     Q.     +E
|-----------------------|------------------------------|
|-------1----3------1---|------------------------------|
|-----------------------|------------------------------|
|--3-3------------------|------------------------------|
|--1-1------------------|-----3--3---------------------|
|-----------------------|-----3--3--3----/7------(7)\--|


       D  A F     A D A        C  A E     A C A
   E E  E E  E    E E E    E E  E E  E    E E E
   | |  | |  |    | | |    | |  | |  |    | | |
   x x  o o  o    o o o    x x  o o  o    o o o

   q    Q    H             q    Q    H
|-----------------------|-----------------------|
|-15---15---17b18-------|-17---17---18b20-------|
|-----------------------|-----------------------|
|-----------------------|-----------------------|
|-----------------------|-----------------------|
|-----------------------|-----------------------|
|
|  W                       W
|-----------------------|-----------------------|
|-----------------------|-----------------------|
|-----------------------|-----------------------|
|-----------------------|-----------------------|
|-----------------------|-----------------------|
|-----------------------|-----------------------|
|
|  E E  q    q      q      E E  q    q      q
|-------0----1------0---|-------0----1------0---|
|-----------------------|-----------------------|
|--2-2------------------|-----------------------|
|--0-0------------------|--2-2------------------|
|-----------------------|--0-0------------------|
|-----------------------|-----------------------|


       Bb F D     F BbF            C E   G F E
   E E  E E  E    E E E    E  E  E E  E  E E  E
   | |  | |  |    | | |    |  |  | |  |  | |  |
   x x  o o  o    o o o    x  x  / o  o  o o  o

                                      ~~~
   q    Q    H             E  E  q    H
|-----------------------|-------------------------||
|-18---18---------------|-------------------------||
|-----------18b19-------|-17-17h19----------------||
|-----------------------|------------17-----------||
|-----------------------|-------------------------||
|-----------------------|-------------------------||
|
|  W                       W
|-----------------------|-------------------------||
|-----------------------|-------------------------||
|-----------------------|-------------------------||
|-----------------------|-------------------------||
|-----------------------|-------------------------||
|-----------------------|-------------------------||
|
|                                     ~~~
|  E E  q    q      q      E  E  q    Q.     +E
|-----------------------|-------------------------||
|-------1----3------1---|-------------------------||
|-----------------------|-------------------------||
|--3-3------------------|-------------------------||
|--1-1------------------|--3--3-------------------||
|-----------------------|--3--3--3---/7------(7)\-||


 Outro/Guitar Duet
          D A F  A D  A           C A E  A C  A
   E    E E E  E E  E E    E    E E E  E E  E E
   |    | | |  | |  | |    |    | | |  | |  | |
   x    x o o  o o  o o    x    x o o  o o  o o

   H           Q    Q      H           Q    Q
|-----------------------|-----------------------|
|-----------------------|-----------------------|
|-------------12---14---|------------------12---|
|-14b15-----------------|-12b14-------15--------|
|-----------------------|-----------------------|
|-----------------------|-----------------------|
|
|  H           Q    Q      H           Q    Q
|-----------------------|-----------------------|
|-----------------------|-----------------------|
|--------------9---10---|-------------------9---|
|-10b12-----------------|-10b11-------12--------|
|-----------------------|-----------------------|
|-----------------------|-----------------------|
|
|  E    E q    q    q      E    E q    q    q
|---------0----1----0---|---------0----1----0---|
|-----------------------|-----------------------|
|--2----2---------------|-----------------------|
|--0----0---------------|--2----2---------------|
|-----------------------|--0----0---------------|
|-----------------------|-----------------------|


          Bb F D  F Bb F           C E  G  F  E
   E    E  E E  E E  E E    E E  E E  E  E  E  E
   |    |  | |  | |  | |    | |  | |  |  |  |  |
   x    x  o o  o o  o o    x x  / o  o  o  o  o

   Q       Q    Q    Q      Q    Q    E  E  E  E
|-------------------13---|-------------------------|
|--------------15--------|-----------15p13----13---|
|---------15-------------|-14--------------15------|
|-14b15------------------|------15-----------------|
|------------------------|-------------------------|
|------------------------|-------------------------|
|
|  Q       Q    Q    Q      Q    Q    E  E  E  E
|-------------------10---|-------------------------|
|--------------11--------|-13---10---11p10----10---|
|---------10-------------|-----------------12------|
|-10b12------------------|-------------------------|
|------------------------|-------------------------|
|------------------------|-------------------------|
|
|                                     ~~~
|  E    E  q    q    q      E E  q    Q.      +E
|------------------------|-------------------------|
|----------1----3----1---|-------------------------|
|------------------------|-------------------------|
|--3----3----------------|-------------------------|
|--1----1----------------|--3-3--------------------|
|------------------------|--3-3--3---/7-------(7)\-|


          D A F  A D  A           C A E  A C  A
   E    E E E  E E  E E    E    E E E  E E  E E
   |    | | |  | |  | |    |    | | |  | |  | |
   x    x o o  o o  o o    x    x o o  o o  o o

   H           Q    Q      H           Q    Q
|-----------------------|-----------------------|
|-----------------------|-----------------------|
|-------------12---14---|------------------12---|
|-14b15-----------------|-12b14-------15--------|
|-----------------------|-----------------------|
|-----------------------|-----------------------|
|
|  H           Q    Q      H           Q    Q
|-----------------------|-----------------------|
|-----------------------|-----------------------|
|--------------9---10---|-------------------9---|
|-10b12-----------------|-10b11-------12--------|
|-----------------------|-----------------------|
|-----------------------|-----------------------|
|
|  E    E q    q    q      E    E q    q    q
|---------0----1----0---|---------0----1----0---|
|-----------------------|-----------------------|
|--2----2---------------|-----------------------|
|--0----0---------------|--2----2---------------|
|-----------------------|--0----0---------------|
|-----------------------|-----------------------|


          Bb F D  F Bb F           C  E   G  F  E
   E    E  E E  E E  E E    E E  E  E  E   E  E  E
   |    |  | |  | |  | |    | |  |  |  |   |  |  |
   x    x  o o  o o  o o    x x  /  o  o   o  o  o

                                              ~~
   Q       Q    Q    Q      Q    E  E  E   E  Q
|-------------------13---|---------------------------|
|--------------15--------|---------------------------|
|---------15-------------|-14---15p14p12--14p12------|
|-14b15------------------|---------------------------|
|------------------------|---------------------------|
|------------------------|---------------------------|
|
|                                             ~~
|  Q       Q    Q    Q      Q    Q     E   E  Q
|-------------------10---|----------------10---------|
|--------------11--------|-13---13----13-------------|
|---------10-------------|--------------------9------|
|-10b12------------------|---------------------------|
|------------------------|---------------------------|
|------------------------|---------------------------|
|
|                                      ~~~
|  E    E  q    q    q      E E  q     Q.       +E
|------------------------|---------------------------|
|----------1----3----1---|---------------------------|
|------------------------|---------------------------|
|--3----3----------------|---------------------------|  repeat to fade
|--1----1----------------|--3-3----------------------|
|------------------------|--3-3--3----/7--------(7)\-|


--------------------------------------------------------------------------------


Duration Legend
---------------
W - whole; H - half; Q - quarter; E - 8th; S - 16th; T - 32nd; X - 64th; a - acciaccatura
+ - note tied to previous; . - note dotted; .. - note double dotted
Uncapitalized letters represent notes that are staccato (1/2 duration)
Irregular groupings are notated above the duration line
Duration letters will always appear directly above the note/fret number it represents the
duration for.  Duration letters with no fret number below them represent rests.  Multi-
bar rests are notated in the form Wxn, where n is the number of bars to rest for.  Low
melody durations appear below the staff

Tablature Legend
----------------
 h   - hammer-on
 p   - pull-off
 b   - bend
 pb  - pre-bend
 r   - bend release (if no number after the r, then release immediately)
 /\  - slide into or out of (from/to "nowhere")
 s   - legato slide
 S   - shift slide
 - natural harmonic
[n]  - artificial harmonic
n(n) - tapped harmonic
 ~   - vibrato
 tr  - trill
 T   - tap
 TP  - trem. picking
 PM  - palm muting
\n/  - tremolo bar dip; n = amount to dip
 \n  - tremolo bar down
 n/  - tremolo bar up
/n\  - tremolo bar inverted dip
 =   - hold bend; also acts as connecting device for hammers/pulls
 > - volume swell (louder/softer)
 x   - on rhythm slash represents muted slash
 o   - on rhythm slash represents single note slash

Misc Legend
-----------
 |  - bar
||  - double bar
||o - repeat start
o|| - repeat end
*|  - double bar (ending)
 :  - bar (freetime)
 $  - Segno
 &  - Coda
Tempo markers -  = BPM(8/16=s8/s16), where s8 = swing 8ths, s16 = swing 16ths


---------------------------------------------------------------------------------------------
Thanks for reading this tab. Good luck playing and learning.
Special Thanks to:
Rockford_rocks for Unbound (The Wild Ride)
Adammn6661 for A Little Piece Of Heaven
Dyuha and Foxxx for all the hard work they do.
Gabriel Ortiz for inspiring me to tab.
Buckethead_jr for the competition with tabbing.
zappp for making it all possible
And last but not least, Everyone who's ever commented or rated my tabs suggesting on 
to improve.

- Seth "Shadows" Sanders. February 21st, 2008
Too Weird to live but much to rare to die.
comments
print report bad tab
21 comments total. Showing first comments. show 1 bad comment
+1 reply
Pete190 wrote on February 13 2008, 03:22 pm

Post-Chorus
N.C. C#5 N.C. C#5 E5 F#G5
Gtrs I, II
~~ PM ~~~~~~~~~
E Q E S E. E E +E e. E. Q E E
||----------------------|-------------------|
||o---------------------|-------------------|
||----------------------|-------------------|
||----------------------|------------3--5-6-|
||o--------0-x-0--------|------0--0--3--5-6-|
||--0sp12--0-x-0--0sp12-|-(12)-0--0--3--5-6-|

I'm definite it slides into a 12, not 10.

+1 reply
Seth Shadows wrote on February 13 2008, 06:09 pm

alright man, ill take note of it in the next update.
Thanks.

I want to post or [tab]
guest
You may want to rate the tab now too:
select rating
Please do not post tabs as comments. Select "correction" instead!