Oops, an error
Loading. Please wait.

Avenged Sevenfold Tab

ver2
ver2

Album

More versions @911Tabs.com
25,496 views 3 this week
2 commentsread comments
1 2 3 4 5
accurate
x 2
add to favorites launch autoscroll
font size
0
reset
Autoscroll
+/-
esc
set tempo
stop
Contributor
Difficulty
Tuning
intermediate
D A D G B E
WARNING: You are trying to view
                                    content from Ultimate-Guitar.com
                                    in an unauthorized application,
                                    which is prohibited.

                                    Please use an official Ultimate
                                    Guitar Tabs application for iPhone,
                                    iPad or Android to access legitimate
                                    chords, guitar, bass, and drum tabs
                                    from Ultimate-Guitar.com database.

                                    Type "ultimate guitar tabs" in Apple
                                    App Store's or Android Market's
                                    search to find the application.
-------------------------------------------------------------------------------
			     Avenged Sevenfold album ---- Avenged Sevenfold
-------------------------------------------------------------------------------


Tabbed by: [travis]





December 28, 2009:
*******R.I.P. Jimmy "The R.E.V." Sullivan. You will be missed.*****








**Don't give me credit for some of these tabs. Some of them
are other people's tabs that I posted on this so I can put
together this album tab, and plus, I really don't want to tab the
whole album. Some of the tabs are mine: "Afterlife solo," "Gunslinger,"
"Unbound (The Wild Ride)," "Brompton Cocktail," "Lost solo," "A Little Piece of Heaven,"
and "Dear God." So please don't give me credit for the other songs. Thanks.**


Table of Contents and Authors:

1. Critical Acclaim ---- Norlando
2. Almost Easy ---- Matt Brown
3. Scream ---- synyster666-|
4. Afterlife ---- speed32--|
4a. Afterlife solo ---- [travis]
5. Gunslinger ---- [travis]
6. Unbound (The Wild Ride) ---- [travis]
7. Brompton Cocktail ---- [travis]
8. Lost ---- Seth Shadows
8a. Lost solo ---- [travis]
9. A Little Piece of Heaven ---- [travis]
10. Dear God ---- [travis]


=============================================
=============================================
=============================================

Artist: Avenged Sevenfold
Song: Critical Acclaim


Title: Critical Acclaim                    ___
Band: A7X Avenged Sevenfold           /\      /  \  /
Album: ????                          /__\    /    \/
Created by Norlando                 /    \  /     /\
Tuning: Drop D                      /    \ /     /  \

After the song please comment and rate so I can make it perfect.
I put the lyrics in just for fun so you can sing or whatever.
They delayed the album to 10/30/07 :( I'll wait!!!
I'll try and tab some of the other songs on the album.

Intro A-Lead
|e:----------------|--------15-17-15|----------------|----------------:e|
|B:-/18--15-----/18|--17~~~~--------|--18--17------17|b-(17)--15-17-15:B|
|G:----------14/---|----------------|----------17----|----------------:G|
|D:----------------|----------------|----------------|----------------:D|
|A:----------------|----------------|----------------|----------------:A|
|E:----------------|----------------|----------------|----------------:E|
|Rythym
|e:----------------|----------------|----------------|----------------:e|
|B:----------------|----------------|----------------|----------------:B|
|G:----------------|----------------|----------------|----------------:G|
|D:--0-------------|--7-------------|---------------5|----7----0------:D|
|A:--0-------------|--5-------------|---------------3|----5----0------:A|
|E:--0-------------|----------------|----------------|---------0------:E|

Lead
|e:----------------|--------15-17-15|----------------|----------------:e|
|B:-/18--15-----/18|--17~~~~--------|--18--17------17|b--17---15-17-15:B|
|G:----------14/---|----------------|----------17----|----------------:G|
|D:----------------|----------------|----------------|----------------:D|
|A:----------------|----------------|----------------|----------------:A|
|E:----------------|----------------|----------------|----------------:E|
|Harmony
|e:-/17--13--10-/17|--15~~~~12-13-12|--10----------15|b--15---13-15-13:e|
|B:----------------|----------------|------13--10----|----------------:B|
|G:----------------|----------------|----------------|----------------:G|
|D:----------------|----------------|----------------|----------------:D|
|A:----------------|----------------|----------------|----------------:A|
|E:----------------|----------------|----------------|----------------:E|


Intro B
|e:----------------|----------------|----------------|----------------:e|
|B:19b--19b--19b---|19b--19b--19b---|19b--19b--19b---|19b--19b--19b---:B|
|G:----------------|----------------|----------------|----------------:G|
|D:----------------|----------------|----------------|----------------:D|
|A:----------------|----------------|----------------|----------------:A|
|E:----------------|----------------|----------------|----------------:E|

|e:----------------|----------------|----------------|----------------:e|
|B:19b--19b--19b---|19b--19b--19b---|19b--19b--19b---|19b--19b--19b---:B|
|G:----------------|----------------|----------------|----------------:G|
|D:----------------|----------------|----------------|----------------:D|
|A:----------------|----------------|----------------|----------------:A|
|E:----------------|----------------|----------------|----------------:E|

Riff A


|e:----------------|----------------|----------------|----------------:e--|
|B:----------17----|--------17------|--------17------|--------17------:B--|
|G:----------20b---|--------20b-----|--------20b-----|--------20b-----:G--|
|D:----------------|----------------|----------------|----------------:D--|
|A:----------------|----------------|----------------|----------------:A--|
|E:--00000000------|00000000--------|00000000--------|00000000--------:E--|
   PM--------       --------         --------         --------------------|

|e:----------------|----------------|----------------|----------------:e--|
|B:----------17----|--------17------|--------17------|17--17--17--17--:B--|
|G:----------20b---|--------20b-----|--------20b-----|20b-20b-20b-20b-:G--|
|D:----------------|----------------|----------------|----------------:D--|
|A:----------------|----------------|----------------|----------------:A--|
|E:--00000000------|00000000--------|00000000--------|----------------:E--|
   PM--------       --------         -------------------------------------|

Verse I
|e:----------------|----------------|----------------|----------------:e|
|B:----------------|----------------|----------------|----------------:B|
|G:----------------|----------------|----------------|----------------:G|
|D:--0----0-0-1-0--|0-----0-0-1--1-3|--0----0-0-1-0--|0-----0-0-1--1-3:D|
|A:--0----0-0-1-0--|0-----0-0-1--1-3|--0----0-0-1-0--|0-----0-0-1--1-3:A|
|E:--0----0-0-1-0--|0-----0-0-1--1-3|--0----0-0-1-0--|0-----0-0-1--1-3:E|
Shh, quiet,you might piss somebody off,Like me motherfucker you’ve been at
                                        it for too long
|e:----------------|----------------|----------------|----------------:e|
|B:----------------|----------------|----------------|----------------:B|
|G:----------------|----------------|----------------|----------------:G|
|D:--0----0-0-1-0--|0-----0-0-1--1-3|--0----0-0-1-0--|0-----0-0-1--1-3:D|
|A:--0----0-0-1-0--|0-----0-0-1--1-3|--0----0-0-1-0--|0-----0-0-1--1-3:A|
|E:--0----0-0-1-0--|0-----0-0-1--1-3|--0----0-0-1-0--|0-----0-0-1--1-3:E|
While you feed off all those insecurities, you stand in front of me and
                             bite the hand that feeds
|e:----------------|----------------|----------------|----------------:e|
|B:----------------|----------------|----------------|----------------:B|
|G:----------------|----------------|----------------|----------------:G|
|D:--0----0-0-1-0--|0--------1--1-3-|--0----0-0-1-0--|0--------1--1-3-:D|
|A:--0----0-0-1-0--|0--------1--1-3-|--0----0-0-1-0--|0--------1--1-3-:A|
|E:--0----0-0-1-0--|0-0-0-0--1--1-3-|--0----0-0-1-0--|0-0-0-0--1--1-3-:E|
                  PM  - - -                             - - -
Self righteousness is wearing thin (lies inside your head, your best friend
|e:----------------|----------------|--17-13-------16|-13-------------:e|
|B:----------------|----------------|--------15-10---|----15-10-------:B|
|G:----------------|----------------|----------------|----------13-9--:G|
|D:--0----0-0-1-0--|0--------1--1-3-|----------------|----------------:D|
|A:--0----0-0-1-0--|0--------1--1-3-|----------------|----------------:A|
|E:--0----0-0-1-0--|0-0-0-0--1--1-3-|----------------|----------------:E|
                  PM  - - -
I’ll bleed but not for fellow man (broken glass, you’ll fade reflection
|e:----------------|----------------:e|
|B:----------------|---17-----------:B|
|G:12-10-----------|----------------:G|
|D:------12--------|19--------------:D|
|A:---------17-20--|----------------:A|
|E:----------------|----------------:E|


Chorus
|e:----------------|----------------|----------------|----------------:e|
|B:----------------|----------------|----------------|----------------:B|
|G:--7--------7---7|//9--------9---9|//6--10-10-10-10|--9---9-10-11-12:G|
|D:--x--------x---x|//x--------x---x|//x---x--x--x--x|--x---x--x--x--x:D|
|A:--5--------5---5|//7--------7---7|//4---8--8--8--8|--7---7--8--9-10:A|
|E:----------------|----------------|----------------|----------------:E|
Telling them it’s all for something real, don’t respect the words your speaking, gone too far, gone

Bridge-Spoken part
|e:----------------|----------------|----------------|----------------:e--|
|B:----------------|----------------|----------------|----------------:B--|
|G:----------------|----------------|----------------|----------------:G--|
|D:--1-0-----------|--1-0-----------|--1-0-----------|--1-0-----------:D--|
|A:--1-0-----------|--1-0-----------|--1-0-----------|--1-0-----------:A--|
|E:--1-0--00000000-|--1-0-----------|--1-0--00000000-|--1-0-----------:E--|
      PM  --------                          ------------------------------|
"How does it feel..."

|e:----------------|----------------|----------------|----------------:e--|
|B:----------------|----------------|----------------|----------------:B--|
|G:----------------|----------------|----------------|----------------:G--|
|D:--1-0-----------|--1-0-----------|--1-0-----------|--1-0------1-3-2:D--|
|A:--1-0-----------|--1-0-----------|--1-0-----------|--1-0------1-3-2:A--|
|E:--1-0--00000000-|--1-0--00000000-|--1-0--00000000-|--1-0--00001-3-2:E--|
      PM  --------         --------         --------         -------------| "...Fuck You"

Riff A
|e:----------------|----------------|----------------|----------------:e--|
|B:----------17----|--------17------|--------17------|17--17--17--17--:B--|
|G:----------20b---|--------20b-----|--------20b-----|20b-20b-20b-20b-:G--|
|D:----------------|----------------|----------------|----------------:D--|
|A:----------------|----------------|----------------|----------------:A--|
|E:--00000000------|00000000--------|00000000--------|----------------:E--|
   PM--------       --------         -------------------------------------|

Verse II
|e:----------------|----------------|----------------|----------------:e|
|B:----------------|----------------|----------------|----------------:B|
|G:----------------|----------------|----------------|----------------:G|
|D:--0----0-0-1-0--|0-----0-0-1--1-3|--0----0-0-1-0--|0-----0-0-1--1-3:D|
|A:--0----0-0-1-0--|0-----0-0-1--1-3|--0----0-0-1-0--|0-----0-0-1--1-3:A|
|E:--0----0-0-1-0--|0-----0-0-1--1-3|--0----0-0-1-0--|0-----0-0-1--1-3:E|
Shh, quiet, you might piss somebody off,Like the heartbeat of this country
                           when antagonized too long
|e:----------------|----------------|----------------|----------------:e|
|B:----------------|----------------|----------------|----------------:B|
|G:----------------|----------------|----------------|----------------:G|
|D:--0----0-0-1-0--|0-----0-0-1--1-3|--0----0-0-1-0--|0-----0-0-1--1-3:D|
|A:--0----0-0-1-0--|0-----0-0-1--1-3|--0----0-0-1-0--|0-----0-0-1--1-3:A|
|E:--0----0-0-1-0--|0-----0-0-1--1-3|--0----0-0-1-0--|0-----0-0-1--1-3:E|
       I’ll be damned if you count me in as part of your generous hypocrisy;
                              collected and amazed
|e:----------------|----------------|----------------|----------------:e|
|B:----------------|----------------|----------------|----------------:B|
|G:----------------|----------------|----------------|----------------:G|
|D:--0----0-0-1-0--|0--------1--1-3-|--0----0-0-1-0--|0--------1--1-3-:D|
|A:--0----0-0-1-0--|0--------1--1-3-|--0----0-0-1-0--|0--------1--1-3-:A|
|E:--0----0-0-1-0--|0-0-0-0--1--1-3-|--0----0-0-1-0--|0-0-0-0--1--1-3-:E|
                  PM  - - -                             - - -
Tabloid gossip we roll as real (There’s no need for us to bury you
|e:----------------|----------------|--17-13-------16|-13-------------:e|
|B:----------------|----------------|--------15-10---|----15-10-------:B|
|G:----------------|----------------|----------------|----------13-9--:G|
|D:--0----0-0-1-0--|0--------1--1-3-|----------------|----------------:D|
|A:--0----0-0-1-0--|0--------1--1-3-|----------------|----------------:A|
|E:--0----0-0-1-0--|0-0-0-0--1--1-3-|----------------|----------------:E|
                  PM  - - -
Selfish agenda, once again (right this way, you dug your own grave
|e:----------------|----------------:e|
|B:----------------|---17-----------:B|
|G:12-10-----------|----------------:G|
|D:------12--------|19--------------:D|
|A:---------17-20--|----------------:A|
|E:----------------|----------------:E|

Chorus
|e:----------------|----------------|----------------|----------------:e|
|B:----------------|----------------|----------------|----------------:B|
|G:--7--------7---7|//9--------9---9|//6--10-10-10-10|--9---9-10-11-12:G|
|D:--x--------x---x|//x--------x---x|//x---x--x--x--x|--x---x--x--x--x:D|
|A:--5--------5---5|//7--------7---7|//4---8--8--8--8|--7---7--8--9-10:A|
|E:----------------|----------------|----------------|----------------:E|
Telling them it’s all for something real, don’t respect the words your speaking, gone too far, gone

Bridge
|e:----------------|----------------|----------------|----------------:e--|
|B:----------------|----------------|----------------|----------------:B--|
|G:----------------|----------------|----------------|----------------:G--|
|D:--1-0-----------|--1-0-----------|--1-0-----------|--1-0-----------:D--|
|A:--1-0-----------|--1-0-----------|--1-0-----------|--1-0-----------:A--|
|E:--1-0--00000000-|--1-0-----------|--1-0--00000000-|--1-0-----------:E--|
      PM  --------                          ------------------------------|
"All the way..."

|e:----------------|----------------|----------------|----------------:e--|
|B:----------------|----------------|----------------|----------------:B--|
|G:----------------|----------------|----------------|----------------:G--|
|D:--1-0-----------|--1-0-----------|--1-0-----------|--1-0------1-3-2:D--|
|A:--1-0-----------|--1-0-----------|--1-0-----------|--1-0------1-3-2:A--|
|E:--1-0--00000000-|--1-0--00000000-|--1-0--00000000-|--1-0--00001-3-2:E--|
      PM  --------         --------         --------         -------------|


|e:----------------|----------------|----------------|----------------:e|
|B:----------------|----------------|----------------|----------------:B|
|G:----------------|----------------|----------------|----------------:G|
|D:----7--7--7--7--|----------------|----------------|----------------:D|
|A:----5--5--5--5--|11--11--11--11--|--4--4--4--4----|--9--9--9--9----:A|
|E:----------------|-9---9---9---9--|--2--2--2--2----|--7--7--7--7----:E|
Excuse the obscene,Ignore the untrue,Depictions we see,Try and get through
|e:----------------|----------------|----------------|----------------:e|
|B:----------------|----------------|----------------|----------------:B|
|G:----------------|----------------|----------------|----------------:G|
|D:----7--7--7--7--|----------------|----------------|----------------:D|
|A:----5--5--5--5--|11--11--11--11--|--4--4--4--4----|--9--9--9--9----:A|
|E:----------------|-9---9---9---9--|--2--2--2--2----|--7--7--7--7----:E|
And many mistakes can hurt,  I’m not the last, but I sure ain’t the first!

Solo A
|e:-/10--8-7-------|--8---8-10-12-15|----------------|--/9------------:e|
|B:----------8-----|----8-----------|-16-13----------|------15--------:B|
|G:----------------|----------------|-------12-10-12-|---------15-----:G|
|D:----------------|----------------|----------------|------------15--:D|
|A:----------------|----------------|----------------|----------------:A|
|E:----------------|----------------|----------------|----------------:E|

|e:-------------13-|----------------|----------------|----------------:e|
|B:----------13----|16-15-----------|13-----13---13--|-16-15-13-15~---:B|
|G:-15----15-------|------15----15--|--15------------|----------------:G|
|D:----15----------|---------15-----|----------------|----------------:D|
|A:----------------|----------------|----------------|----------------:A|
|E:----------------|----------------|----------------|----------------:E|

|e:----------------|---17b-17-------|20b-------------|
|B:-14-15-17-18-17-|18--------18-17-|----------------|
|G:----------------|----------------|----------------|
|D:----------------|----------------|----------------|
|A:----------------|----------------|----------------|
|E:----------------|----------------|----------------|

|e:----------------|----------------|----------------|----------------:e--|
|B:----------------|----------------|----------------|----------------:B--|
|G:----------------|----------------|----------------|----------------:G--|
|D:--1-0-----------|--1-0-----------|--1-0-----------|--1-0------1-3-2:D--|
|A:--1-0-----------|--1-0-----------|--1-0-----------|--1-0------1-3-2:A--|
|E:--1-0--00000000-|--1-0--00000000-|--1-0--00000000-|--1-0--00001-3-2:E--|
      PM  --------         --------         --------         -------------|

Solo B
|e:----------------|----------------|----------------|----------------:e|
|B:--------7-------|----7-------7---|----------------|----------------:B|
|G:--6--7-----7--6-|-7-----7------7-|6---------------|----------------:G|
|D:----------------|----------------|----------------|----------------:D|
|A:----------------|----------------|----------------|----------------:A|
|E:----------------|----------------|----------------|----------------:E|

|e:----------------|----------------|----------------|----------------:e|
|B:----------------|----------------|----------------|----------------:B|
|G:--12--13--16--13|--12--13--16--13|----16-13-12~~~~|----------------:G|
|D:----------------|----------------|----------------|----------------:D|
|A:----------------|----------------|----------------|----------------:A|
|E:----------------|----------------|----------------|----------------:E|

|e:----------------|----------------|----------------|------------20~~:e|
|B:----------17----|----------17----|----------------|----------------:B|
|G:--17--18------18|--17--18------21|1817211817211817|211817211817----:G|
|D:----------------|----------------|----------------|----------------:D|
|A:----------------|----------------|----------------|----------------:A|
|E:----------------|----------------|----------------|----------------:E|

|e:----------------|----------------|----------------|----------------:e|
|B:----------------|----------------|----------17----|------------17--:B|
|G:--13--14--17--14|--13--14--17--14|-15-17-18----18-|17-15-17-18-----:G|
|D:----------------|----------------|----------------|----------------:D|
|A:----------------|----------------|----------------|----------------:A|
|E:----------------|----------------|----------------|----------------:E|

|e:-17-19b~~~~~~~~~|
|B:----------------|
|G:----------------|
|D:----------------|
|A:----------------|
|E:----------------|


Verse III
|e:----------------|----------------|----------------|----------------:e|
|B:----------------|----------------|----------------|----------------:B|
|G:----------------|----------------|----------------|----------------:G|
|D:--0----0-0-1-0--|0--------1--1-3-|--0----0-0-1-0--|0--------1--1-3-:D|
|A:--0----0-0-1-0--|0--------1--1-3-|--0----0-0-1-0--|0--------1--1-3-:A|
|E:--0----0-0-1-0--|0-0-0-0--1--1-3-|--0----0-0-1-0--|0-0-0-0--1--1-3-:E|
                  PM  - - -                             - - -
Self righteousness is wearing thin (lies inside your head, your best friend
|e:----------------|----------------|--17-13-------16|-13-------------:e|
|B:----------------|----------------|--------15-10---|----15-10-------:B|
|G:----------------|----------------|----------------|----------13-9--:G|
|D:--0----0-0-1-0--|0--------1--1-3-|----------------|----------------:D|
|A:--0----0-0-1-0--|0--------1--1-3-|----------------|----------------:A|
|E:--0----0-0-1-0--|0-0-0-0--1--1-3-|----------------|----------------:E|
                  PM  - - -
I’ll bleed but not for fellow man (broken glass, you’ll fade reflection
|e:----------------|----------------:e|
|B:----------------|---17-----------:B|
|G:12-10-----------|----------------:G|
|D:------12--------|19--------------:D|
|A:---------17-20--|----------------:A|
|E:----------------|----------------:E|

Chorus
|e:----------------|----------------|----------------|----------------:e|
|B:----------------|----------------|----------------|----------------:B|
|G:--7--------7---7|//9--------9---9|//6--10-10-10-10|--9---9-10-11-12:G|
|D:--x--------x---x|//x--------x---x|//x---x--x--x--x|--x---x--x--x--x:D|
|A:--5--------5---5|//7--------7---7|//4---8--8--8--8|--7---7--8--9-10:A|
|E:----------------|----------------|----------------|----------------:E|
Telling them it’s all for something real, don’t respect the words your speaking, gone too far, gone

Outro
|e:----------------|----------------|----------------|----------------:e|
|B:----------------|----------------|----------------|----------------:B|
|G:----------------|--------------7-|9--10--10--9--7-|-9----5/----/7--:G|
|D:--3----3--5--7--|3--5----2/------|----------------|----------------:D|
|A:----------------|----------------|----------------|----------------:A|
|E:----------------|----------------|----------------|----------------:E|

|e:----------------|----------------:e|
|B:----------------|----------------:B|
|G:9--10--/6-------|--6--7--9--10---:G|
|D:----------------|----------------:D|
|A:----------------|----------------:A|
|E:----------------|----------------:E|


|e:----------------|----------------|----------------|----------------:e|
|B:19b--19b--19b---|19b--19b--19b---|19b--19b--19b---|19b--19b--19b---:B|
|G:----------------|----------------|----------------|----------------:G|
|D:----------------|----------------|----------------|----------------:D|
|A:----------------|----------------|----------------|----------------:A|
|E:----------------|----------------|----------------|----------------:E|


There it is! Please comment and rate. I worked hard on this!! ENJOY!!!

END


=================================================================================
Artist: Avenged Sevenfold
Song: Almost Easy


Avenged Sevenfold
Almost Easy
tuning: drop d
tabbed by: Matt Brown


 intro
 gtr.1
|-------------------------------------|--8/13---12b~~~~--------------------|
|-------------------------------------|------------------13----\10--10-----|
|-------------------------------------|------------------------------------|
|-------------------------------------|------------------------------------|
|-------------------------------------|------------------------------------|
|-------------------------------------|------------------------------------|
|
| gtr.2
|-------------------------------------|------------------------------------|
|-------------------------------------|------------------------------------|
|-------------------------------------|------------------------------------|
|-----7-7-7-7--7-7--7-7--7-7--7-------|--5-5-5-5--5-5--5----5-5--5---------|
|-----5-5-5-5--5-5--5-5--5-5--5-------|--3-3-3-3--3-3--3----3-3--3---------|
|-------------------------------------|------------------------------------|

          \ w.bar/
 gtr.1     \-1/2/
|-----------------------------------|--6/13---12~~~~--------------------|
|--10/15^---15^15^-----^15~~~~~\----|----------------13----\10----10\---|
|-----------------------------------|-----------------------------------|
|-----------------------------------|-----------------------------------|
|-----------------------------------|-----------------------------------|
|-----------------------------------|-----------------------------------|
|
| gtr.2
|-----------------------------------|-----------------------------------|
|-----------------------------------|-----------------------------------|
|-----------------------------------|-----------------------------------|
|-----------------------------------|-----------------------------------|
|--5-5-5-5--5-5--5---5-----5/-------|--8---8-8-8-8---10---10-10-10------|
|--5-5-5-5--5-5--5---5-----5/-------|--8---8-8-8-8---10---10-10-10------|


      \w.bar /
 gtr.1 \-1/2/
|-8/17^(17)^(17)^(17)^(17\ 6/13\12~---------------|-8/13--12-\9-12/18-17\|
|----------------------------------13\10-10/15b-\-|----------------------|
|-------------------------------------------------|----------------------|
|-------------------------------------------------|----------------------|
|-------------------------------------------------|----------------------|
|-------------------------------------------------|----------------------|
|
| gtr.2
|------------------------------------------|-------------------------------|
|------------------------------------------|-------------------------------|
|------------------------------------------|-------------------------------|
|-----7-7-7-7---7-7---7-7---7-7--7---------|--5-5-5-5--5-5--5----5-5--5----|
|-----5-5-5-5---5-5---5-5---5-5--5---------|--3-3-3-3--3-3--3----3-3--3----|
|------------------------------------------|-------------------------------|

                          gtr.1+2
 gtr.1    p.m........]       ....      ....


|--15/17\----------------|----------------------|-------------------|
|------------------------|----------------------|-------------------|
|------------------------|----------------------|-------------------|
|-----7\---------------8-|-6-------6-3-------6--|-7\----------------|
|-----5\----0-0-0-0-0--6-|-4--0-0--4-1--0-0--4--|-5\--0-0-0-0-0-0---|
|-----------0-0-0-0-0----|----0-0-------0-0-----|-----0-0-0-0-0-0---|
|
| gtr. 2 p.m........
|-----------------------|
|-----------------------|
|-----------------------|
|---------------------8-|
|---12\----0-0-0-0-0--6-|
|---12\----0-0-0-0-0----|

 gtr.1+2
 p.m.....      ........          ................           ..............
|-------------------------------|--------------------------|---------------|
|-------------------------------|--------------------------|---------------|
|-------------------------------|--------------------------|---------------|
|-------------------------------|--------------------------|---------------|
|-------------------------------|--------------------------|-0-0-0-0-0-0-0-|
|-0-0-0-0-7h8p7-0-0-0-0-8h10p8--|-0-0-0-0-0-0-0-0--5--6--5~|-0-0-0-0-0-0-0-|


 gtr.1+2
p.m............   ...............  ................
|----------------|----------------|---------------------------------|
|----------------|----------------|---------------------------------|
|----------------|----------------|---------------------------------|
|----------------|----------------|---------------------------------|
|-0-0-0-0-0-0-0--|-0-0-0-0-0-0-0--|---------------------------------|
|-0-0-0-0-0-0-0--|-0-0-0-0-0-0-0--|-0-0-0-0-0-0-0-0--5---6--5~~~~~--|

 gtr.1+2
p.m............  ..............  ............... ................
|---------------|---------------|---------------|--------------------------|
|---------------|---------------|---------------|--------------------------|
|---------------|---------------|---------------|--------------------------|
|---------------|---------------|---------------|--------------------------|
|-0-0-0-0-0-0-0-|-0-0-0-0-0-0-0-|-0-0-0-0-0-0-0-|--------------------------|
|-0-0-0-0-0-0-0-|-0-0-0-0-0-0-0-|-0-0-0-0-0-0-0-|-0-0-0-0-0-0-0-0--5--6--5~|


 gtr.1+2
p.m...................       ................
|------------------------|  |-------------------------------|
|------------------------|  |-------------------------------|
|------------------------|X3|-------------------------------|
|------------------------|  |-------------------------------|
|-0----------------------|  |-------------------------------|
|-0-0-0-0-0-0-0-0-0-0----|  |-0-0-0-0-0-0-0-0--5---6--5~~~~~|


 gtr.1+2
p.m.............    .................
|----------------|  |-------------------------------|
|----------------|  |-------------------------------|
|----------------|X3|-------------------------------|
|----------------|  |-------------------------------|
|-0-0-0-0-0-0-0--|  |-------------------------------|
|-0-0-0-0-0-0-0--|  |-0-0-0-0-0-0-0-0--5---6--5~~~~~|

 pre-chorus
 gtr.1+2
p.m..     .....        .....    .....             .....
|------------------|------------------|--------------------|---------------|
|------------------|------------------|--------------------|---------------|
|------------------|------------------|--------------------|---------------|
|-------7--------2~|-5--------3-------|--------------------|---------------|
|-0--0--5--0--0--3~|-3--0--0--1--0--0-|-10--10--10------8--|-8--8--8----7-\|
|-0--0-----0--0----|----0--0-----0--0-|-8---8---8--0--0-10-|-10-10-10-0-11\|

 chorus
 gtr.1

|-----------------|------------------|-----------|----------------|
|-----------------|------------------|-----------|----------------|
|-----------------|------------------|-----------|----------------|
|-3---3-3-3-3-3---|-3-3-3-3-3---3-3--|-5-5--5-3--|-3-3--3-3--3-3--|
|-3---3-3-3-3-3---|-3-3-3-3-3---3-3--|-3-3--3-3--|-3-3--3-3--3-3--|
|-3---3-3-3-3-3---|-3-3-3-3-3---3-3--|-3-3--3-3--|-3-3--3-3--3-3--|


 gtr.1
p.m.                                        .................
|--------------|---------------|------------|-----------------------------|
|--------------|---------------|------------|-----------------------------|
|--------------|---------------|------------|-----------------------------|
|-0-0--0-0--0--|-0-0--0-0---0--|-0--0-0--0--|-----------------------------|
|-0-0--0-0--0--|-0-0--0-0---0--|-0--0-0--0--|-----------------------------|
|-0-0--0-0--0--|-0-0--0-0---0--|-0--0-0--0--|-0-0-0-0-0-0-0-0--5---6--5~~~|


 gtr.1
|---------------|-----------------|--------------|--------------|
|---------------|-----------------|--------------|--------------|
|---------------|-----------------|--------------|--------------|
|-0-0---3/5--5--|-3--3-3--3-3-3-3-|-3-3--3-3-3-3-|-5--5-5-5-5--3|
|-0-0---3/5--5--|-3--3-3--3-3-3-3-|-3-3--3-3-3-3-|-3--3-3-3-3--3|
|-0-0---3/5--5--|-3--3-3--3-3-3-3-|-3-3--3-3-3-3-|-3--3-3-3-3--3|


 gtr.1
|---------------|----------------|------------------|----------------|
|---------------|----------------|------------------|----------------|
|---------------|----------------|------------------|----------------|
|-3-3-3--3-3-3--|-0--0-0-0-0--0--|-0-0-0-0--0-0--0--|-0--0-0-0-0--0--|
|-3-3-3--3-3-3--|-0--0-0-0-0--0--|-0-0-0-0--0-0--0--|-0--0-0-0-0--0--|
|-3-3-3--3-3-3--|-0--0-0-0-0--0--|-0-0-0-0--0-0--0--|-0--0-0-0-0--0--|


 gtr.1
p.m..............                  ...........        ....       ....
|-----------------------------|-------------------|----------------------|
|-----------------------------|-------------------|----------------------|
|-----------------------------|-------------------|----------------------|
|-----------------------------|-7\-------------8--|-6-------6--3-------6-|
|-----------------------------|-5\--0-0--0-0-0-6--|-4--0-0--4--1--0-0--4-|
|-0-0-0-0-0-0-0-0--5---6--5~~~|-----0-0--0-0-0----|----0-0--------0-0----|


 gtr.1
p.m. .....................       ........         ...............
|-----------------|------------------------------|-------------------------|
|-----------------|------------------------------|-------------------------|
|-----------------|------------------------------|-------------------------|
|-7\--------------|------------------------------|-------------------------|
|-5\-0-0--0-0-0-0-|------------------------------|-------------------------|
|----0-0--0-0-0-0-|-0-0-0-0-7h8p7-0-0-0-0-8h10p8-|-0-0-0-0-0-0-0-0--5--6-5~|

 solo
 gtr.1
|----------------|-------------|--------13-16-17b/22-22-17-----------------|
|-13b~~~~~~~10---|-------------|------15------------------18---------------|
|----------------|-12b~~~~x-x--|----14----------------------19-------------|
|----------------|-------------|--15--------------------------19-18-19b~~~-|
|----------------|-------------|17-----------------------------------------|
|----------------|-------------|-------------------------------------------|
|
| gtr.2
|------------------------------|--------------------|----------------------|
|------------------------------|--------------------|----------------------|
|------------------------------|--------------------|----------------------|
|------------------------------|-3---5-----6--6--6--|-3---5-----6--6--6----|
|-0----0-----------0----0---0--|-3---5-----6--6--6--|-3---5-----6--6--6----|
|-000000-00000-0-0-000000-0-0--|-3---5-----6--6--6--|-3---5-----6--6--6----|


 gtr.1                                                  ....


|-17-18-17-13--------------------|----------------------------|
|-------------15----18b---(18)~~~|-17-18-17-13-------15b----\-|
|----------------14--------------|-------------14-------------|
|--------------------------------|----------------15----------|
|--------------------------------|----------------------------|
|--------------------------------|----------------------------|


 gtr.1
|-17-13---------------------------|-----------10-12/17---(17)~~~18--|
|-------17-13\10-13---------------|---------10----------------------|
|-------------------10b---(10)~~~~|-------9-------------------------|
|---------------------------------|----12---------------------------|
|---------------------------------|-13------------------------------|
|---------------------------------|---------------------------------|


 gtr.1
|---17------------(17)\-----------|-------------------------------------|
|---------------------------------|--------------------15/22~~~\---10b--|
|-5h7----(7)\---------------------|------------0--7/14-----------7------|
|--------------5h7-------7/14\12--|-12/19~~~~\--------------------------|
|---------------------------------|-------------------------------------|
|---------------------------------|-------------------------------------|
|
| gtr.2
|---------------------------------|--------------------------------|
|---------------------------------|--------------------------------|
|---------------------------------|--------------------------------|
|-7-7-7-7--7-7--7-7--7-7--7---7---|-7-7-7-7--7-7--7-7--7-7--7---7--|
|-5-5-5-5--5-5--5-5--5-5--5---5---|-5-5-5-5--5-5--5-5--5-5--5---5--|
|---------------------------------|--------------------------------|


 gtr.1
|---------------------------------------------|-------------------------|
|--------------10b----------------------------|-------------------------|
|-7~~~~~~\------------7~~~~~~~\---------------|----------------0--7/14--|
|---------5/7------------------5/7--9/14--12--|-12/19--22~~~~~\---------|
|---------------------------------------------|-------------------------|
|---------------------------------------------|-------------------------|


 gtr.1
|---------------------|-18-17-15--------17-13-----20-17-------------------|
|-15/23-23-22~~-------|---------18-17-15-----17-15-----20-17-20-18-17\15--|
|--------------19~~\--|---------------------------------------------------|
|---------------------|---------------------------------------------------|
|---------------------|---------------------------------------------------|
|---------------------|---------------------------------------------------|


 gtr.1
|-----------------------------------|
|-----------------------------------|
|-17-15-14-15p14--------------------|
|---------------17-15p14\-----------|
|-------------------------12~~~~~~\-|
|-----------------------------------|
|
| gtr.2
|----------------------------|------------------------|--------------------|
|----------------------------|------------------------|--------------------|
|----------------------------|------------------------|--------------------|
|-0---0-0-0-0---0---0-0---0--|-3--3-3-3-3--3--3-3--3--|-5--5-5-5-5--5-5--5-|
|-0---0-0-0-0---0---0-0---0--|-3--3-3-3-3--3--3-3--3--|-3--3-3-3-3--3-3--3-|
|-0---0-0-0-0---0---0-0---0--|-3--3-3-3-3--3--3-3--3--|--------------------|


 gtr.1+2
|----------------------|-------------------------|-------------------------|
|----------------------|-------------------------|-------------------------|
|----------------------|-------------------------|-------------------------|
|-2--2-2-2-2-2-2--2-2--|-3--3-3-3-3--3--3-3-3-3--|-3--3-3-3-3--3--3-3-3-3--|
|-0--0-0-0-0-0-0--0-0--|-1--1-1-1-1--1--1-1-1-1--|-3--3-3-3-3--3--3-3-3-3--|
|----------------------|-------------------------|-3--3-3-3-3--3--3-3-3-3--|


 gtr.1+2
|-------------------------|-------------------------|--------------------|
|-------------------------|-------------------------|--------------------|
|-------------------------|-------------------------|--------------------|
|-5--5-5-5-5--5--5-5-5-5--|-2-2-2--2---2---2-2-2-2--|-2--2-2-2--2-2-2-2--|
|-3--3-3-3-3--3--3-3-3-3--|-0-0-0--0---0---0-0-0-0--|-0--0-0-0--0-0-0-0--|
|-------------------------|-------------------------|--------------------|


 gtr.1+2
|---------------------|-----------------------|
|---------------------|-----------------------|
|---------------------|-----------------------|
|-3-3-3---3--3-3-3-3--|-3-3-3-3----3-3-3---5--|
|-1-1-1---1--1-1-1-1--|-1-1-1-1----1-1-1---3--|
|---------------------|-----------------------|


 gtr.
|----------------|--------------------|------------------|-----------------|
|----------------|--------------------|------------------|-----------------|
|----------------|--------------------|------------------|-----------------|
|-------7--2--2--|-2--5---3--3--------|------------------|-----------------|
|-0--0--5--3--3--|-3--3---1--1--------|-10-10-10------8--|-8--8-----7--7-\-|
|-0--0-----------|--------------0--0--|-8--8--8----x--10-|-10-10-11-11-11\-|


 gtr.1
|----------------|
|----------------|
|----------------|X4
|-------7--2--2--|
|-0--0--5--3--3--|
|-0--0-----------|
|
| gtr.2 p.m.....              ...................
|----------------|-----------|-------------------------|------------------|
|----------------|-----------|-------------------------|------------------|
|----------------|-----------|-------------------------|------------------|
|----------------|-----------|-------------------------|------------------|
|----------------|-----------|---------0--0--0--0--8---|-8--8------7------|
|-0-0-0-0--0--0--|-----------|-0-0-0-0-0--0--0--0--10--|-10-10--0--11-11\-|


 gtr.1+2
p.m............        .....       .......        .................
|------------------|-------------------------|----------------------|
|------------------|-------------------------|----------------------|
|------------------|-------------------------|----------------------|
|-7\------------8--|-6--------6--3--------6--|-7\-------------------|
|-5\-0-0-0-0-0--6--|-4--0--0--4--1--0--0--4--|-5\-0--0--0--0--0--0--|
|----0-0-0-0-0-----|----0--0--------0--0-----|----0--0--0--0--0--0--|

END

==================================================================
Artist: Avenged Sevenfold
Song: Scream

Tabbed by: synyster666


TUNING DROP D DOWN HALF A STEP : C# G# C# F# A# D#

INTRO
--------------------------------------------------------------------13-13-16-16--17--|
----------------------------------------------------13-13-15-15----------------------|
--------------------------------------------13-13------------------------------------|
--0-0---0-0---------------12-12-15-15------------------------------------------------|
--0-0---0-0--------12-12-------------------------------------------------------------|
--0-0---0-0--------------------------------------------------------------------------|

--------------------------------------------------------------------------------------------|
--------------------------------------------------------------------------------------------|
--------------------------------------------------------------------------------------------|
--0-0---0-0------------------------15-15-15-15-12-12-12-12----------------------------------|
--0-0---0-0-------12-12-12-12------------------------------12-12-12-12------------11-11-11--|
--0-0---0-0---------------------------------------------------------------------------------|

--------------------------------------------------------------------13-13-16-16--20b(21)--|
----------------------------------------------------13-13-15-15---------------------------|
--------------------------------------------13-13-----------------------------------------|
--0-0---0-0---------------12-12-15-15-----------------------------------------------------|
--0-0---0-0--------12-12------------------------------------------------------------------|
--0-0---0-0-------------------------------------------------------------------------------|

------------------------------------------------------------------------------------------|
---------------------(gradually bend the 14 up to 15 over the course of  picking 14)------|
--------------------14-14-14-14-14-14-14-14-14-14-14-14-14-14-14b(15)---------------------|
--0-0---0-0-------------------------------------------------------------------------------|
--0-0---0-0-------------------------------------------------------------------------------|
--0-0---0-0-------------------------------------------------------------------------------|

VERSE
--------------------------------------------------------------------13-13-16-16--17--|
----------------------------------------------------13-13-15-15----------------------|
--------------------------------------------13-13------------------------------------|
--0-0---0-0---------------12-12-15-15------------------------------------------------|
--0-0---0-0--------12-12-------------------------------------------------------------|
--0-0---0-0--------------------------------------------------------------------------|

-------------------------------------------------------------------------------------------|
-------------------------------------------------------------------------------------------|
-------------------------------------------------------------------------------------------|
--0-0---0-0------------------------15-15-15-15-12-12-12-12---------------------------------|
--0-0---0-0-------12-12-12-12-------------------------------12-12-12-12-----------11-11-11-|
--0-0---0-0--------------------------------------------------------------------------------|

--------------------------------------------------------------------13-13-16-16--20b(21)--|
----------------------------------------------------13-13-15-15---------------------------|
--------------------------------------------13-13-----------------------------------------|
--0-0---0-0---------------12-12-15-15-----------------------------------------------------|
--0-0---0-0--------12-12------------------------------------------------------------------|
--0-0---0-0-------------------------------------------------------------------------------|

-------------------------------------------------------------------------------------------|
-------------------------------------------------------------------------------------------|
-------------------------------------------------------------------------------------------|
--0-0---0-0--------------------------------------------------------------------------------|
--0-0---0-0--------------------------------------------------------------------------------|
--0-0---0-0--------------------------------------------------------------------------------|

PRE CHORUS

-----------------------------------------------------------------------------------------|
-----------------------------------------------------------------------------------------|
-----------------------------------------------------------------------------------------|
-----------0--0-------------0-0--3---5--6--------------0--0-------------0-0--6---5--3----|
-----------0--0-------------0-0--3---5--6--------------0--0-------------0-0--6---5--3----|
--3/12~----0--0----3/12~----0-0--3---5--6-----3/12~----0--0----3/12~----0-0--6---5--3----|

----------------------------------------------------------------------------------------|
----------------------------------------------------------------------------------------|
----------------------------------------------------------------------------------------|
-----------0--0-------------0-0--3---5-6--1-1-1-1-1-1-1-1-1-1-1-1-1---------------------|
-----------0--0-------------0-0--3---5-6--1-1-1-1-1-1-1-1-1-1-1-1-1---------------------|
--3/12~----0--0----3/12~----0-0--3---5-6--1-1-1-1-1-1-1-1-1-1-1-1-1---------------------|


REPEAT VERSE
REPEAT PRE CHORUS (but strum 1 to the end of the bar instead of having a rest)


PRE CHORUS 2 (X4)

-------------------------------------|
-------------------------------------|
-------------------------------------|
-5-5-5-5-5-5-5-5--7-7-7-7-7-7-7-7----|
-5-5-5-5-5-5-5-5--7-7-7-7-7-7-7-7----|
-5-5-5-5-5-5-5-5--7-7-7-7-7-7-7-7----|

CHORUS (X2)
------------------------------------------------------------|
------------------------------------------------------------|
------------------------------------------------------------|
----------7--8----------------------------------------------|
-5---x-5--5--6-----8---x-8---10--10----0--------1-----------|
-5---x-5-----------8---x-8---10--8-----0--------1-----------|


SOLO RHYTHM (X2)
------------------------------------------------------------------------------|
------------------------------------------------------------------------------|
------------------------------------------------------------------------------|
--0-0-----0-0-0----0-2-2-----2-2-2----2-8-8-----8-8-8-----8-7-7----7-7-7----7-|
--0-0-----0-0-0----0-2-2-----2-2-2----2-8-8-----8-8-8-----8-7-7----7-7-7----7-|
--0-0-----0-0-0----0-2-2-----2-2-2----2-8-8-----8-8-8-----8-7-7----7-7-7----7-|

SOLO (X2) (all in triplets apart from final note) ***UPDATED***

-171613--1316-------171612--1216------181713--1317---161514--1415161514-1415/21201817182021--|
-------14-----(X4)--------13-----(X4)-------14----(X4)-----17----------17--------------------|
---------------------------------------------------------------------------------------------|
---------------------------------------------------------------------------------------------|
---------------------------------------------------------------------------------------------|
---------------------------------------------------------------------------------------------|
DUAL SOLO (X4) (Rhythm same as solo above but strummed constantly)

------------------------------------------------------------------------------------|
-------------------------------------------11------------------10-------------------|
-7-9-10-7-9-10-/14----7-9-10-7-/15---14------12------------12----9-9-7-9-10-9-7-----|
-----------------------------------------------12--------12-------------------------|
-------------------------------------------------13-10-13---------------------------|
------------------------------------------------------------------------------------|

-------------------------------------------10------------------9--------------------|
-6-8-10-6-8-10-/15----6-8-10-6-/20---18------11-----------------10-8-6-8-10-8-6-----|
-----------------------------------------------12--------12-------------------------|
-------------------------------------------------12----12---------------------------|
----------------------------------------------------13------------------------------|
------------------------------------------------------------------------------------|

Breakdown sort of thing


-----------------------------------------------------------------------------------------|
-----------------------------------------------------------------------------------------|
-----------------------------------------------------------------------------------------|
---------------------------------------------------------------------0-0-6------5---3----|
---------------------------------------------------------------------0-0-6------5---3----|
-3/12--3/12--3/12-------3/12-3/12-3/12----3/12--3/12--3/12------3/12-0-0-6------5---3----|

------------------------------------------------------------------------------------|
------------------------------------------------------------------------------------|
------------------------------------------------------------------------------------|
-------------------------------------------------------1--1--1--1--1--1--1--1--1--1-|
-------------------------------------------------------1--1--1--1--1--1--1--1--1--1-|
-3/12--3/12--3/12-------3/12-3/12-3/12----3/12--3/12---1--1--1--1--1--1--1--1--1--1-|

PRE CHORUS (X4)
CHORUS (X2)

OUTRO (X4)

|-------------------------------------------------------------------------------|
|-------------------------------------------------------------------------------|
|-------------------------------------------------------------------------------|
|--0-0---0-0-------------------------------0-0---0-0----------------------------|
|--0-0---0-0-------------------------------0-0---0-0----------------------------|
|--0-0---0-0-------------------------------0-0---0-0----------------------------|
|
|       (let ring)(they fade in and out)
|-------------------------------------------------------------------------------|
|-------10--10--10--10--10--10--10--10------------------------------------------|
|---------12--10--12--10--12--10--12--10----------------------------------------|
|-------------------------------------------------------------------------------|
|-------------------------------------------------------------------------------|
|-------------------------------------------------------------------------------|

END

=======================================================================
Artist: Avenged Sevenfold
Song: Afterlife

Tabbed by: speed32

The tabs for this were either missing parts or weren't impressive.  So I decided to do full
tab with the solo and intro.
Sweet song!

In Drop D (DADGBE)


  (VIOLIN PART I)...w/ notes for violinists.
    a  g     g  f     a  g    d# d    a  g     g  f    ed  ed  ed  ed
e|-----------------------------------------------------------------------|
b|-----------------------------------------------------------------------|
g|--14s12----12s10----14s12----8s7----14s12----12s10---9s7-9s7-9s7-9s7---|
d|-----------------------------------------------------------------------|
a|--12s10----10s8-----12s10----6s5----12s10----10s8----7s5-7s5-7s5-7s5---|
d|-----------------------------------------------------------------------|


  (INTRO)

  Lead Guitar
e|-----------------------------------------------------17b-----17b-18b-----|
b|--8-10//17----10p8h10-8-10//18b----10-8-10//20b---18-----20--------------|
g|-------------------------------------------------------------------------|
d|-------------------------------------------------------------------------|
a|-------------------------------------------------------------------------|
d|-------------------------------------------------------------------------|


e|----15-17-15-13------15-17-15-13------15-17-15-13---|
b|----------------15---------------15-----------------|
g|----------------------------------------------------|
d|----------------------------------------------------|
a|----------------------------------------------------|
d|----------------------------------------------------|

e|----15-17-15-13------15-17-15-13------15-17-15-13---|
b|----------------15---------------15-----------------|
g|----------------------------------------------------|
d|----------------------------------------------------|
a|----------------------------------------------------|
d|----------------------------------------------------|

e|----20-22-20-18------20-22-20-18------20-22-20-18---|
b|----------------20---------------20-----------------|
g|----------------------------------------------------|
d|----------------------------------------------------|
a|----------------------------------------------------|
d|----------------------------------------------------|

e|----20-22-20-18------20-22-20-18------21b22---------|
b|----------------20---------------20-----------------|
g|----------------------------------------------------|
d|----------------------------------------------------|
a|----------------------------------------------------|
d|----------------------------------------------------|

  Rhythm Part
e|------------|
b|------------|
g|------------|   (2x)
d|-0--8--5--1-|
a|-0--8--5--1-|
d|-0--8--5--1-|

  (BREAKDOWN/preverse)

  Lead Guitar
e|-------------------------------------------------|
b|-------------------------------------------------|
g|-------------------------------------------------|
d|-------------------------------------------------|
a|--5h8p5-5h8p5------------5h8p5-5h8p5-------------|
d|-------6-----6p0-0--0-0-------6-----6p0-0--0-0---|
                   x  x x                 x  x x

  (VERSE)

  Lead And Rhythm Guitar
e|-----------------------------------------------------------|
b|-----------------------------------------------------------|
g|-----------------------------------------------------------| (3x)
d|------------------------------------------------3--5--6----|
a|--5h8p5-5h8p5------------5h8p5-5h8p5------------3--5--6----|
d|-------6-----6p0-0--0-0-------6-----6p0-0--0-0--3--5--6----|
                   x  x x                 x  x x

e|------------------------------------------------------------------|
b|------------------------------------------------------------------|
g|------------------------------------------------------------------|
d|-------------------------------------------------3--5--6-6--5--3--|
a|--5h8p5-5h8p5------------5h8p5-5h8p5-------------3--5--6-6--5--3--|
d|-------6-----6p0-0--0-0-------6-----6p0--0--0-0--3--5--6-6--5--3--|
                   x  x x                  x  x x

  Rhythm after short bass riff
e|-----------------------------------------------------------------------------------|
b|-----------------------------------------------------------------------------------|
g|--5--5--5-5-5-5--5--5------------------5--5--5-5-5-5--5--5-------------------------|
d|--5--5--5-5-5-5--5--5------------------5--5--5-5-5-5--5--5-------------------------|
a|--3--3--3-3-3-3--3--3------------------3--3--3-3-3-3--3--3-------------------------|
d|-----------------------------------------------------------------------------------|


   Lead Guitar
e|-------------------------------------------------------------------------------------|
b|-------------------------------------------------------------------------------------|
g|-----------------------9-9-9-/-10-/-12-----------------------12-12-12-/-14-/-15------|
d|-------------------------------------------------------------------------------------|
a|-----------------------7-7-7-/-8--/-10-----------------------10-10-10-/-12-/-13------|
d|-------------------------------------------------------------------------------------|

e|-------------------------------------|
b|-------------------------------------|
g|-------------------------------------|
d|-------------------------------------|
a|-------------------------------------|
d|---0-0-8-0-7-0-0-0-8-0-7-0-8-0-7-0---|

e|-------------------|
b|-------------------|
g|--5---3---5---6----|
d|--5---3---5---7----|
a|--3---1---3---4----|
d|-------------------|

  (PRECHORUS)

  Lead and Rhythm
e|--------------------------------------------------------------------|
g|--------------------------------------------------------------------|
b|--------------------------------------------------------------------|  (2x)
d|--0----------0------3------3-----8----------8--10-10-10--14-14-14---|
a|--0----------0------3------3-----8----------8--10-10-10--12-12-12---|
d|--0--0-0-0-0-0--3-3-3--3-3-3-----8--8-8-8-8-8--10-10-10--14-14-14---|
       x x x x    x x    x x          x x x x    x  x      x  x


  (CHORUS)


  Rhythm and Lead together
e|---------------------|
g|---------------------|
b|------5---7----------|  (2x)
d|--3---5---7---8------|
a|--3---3---5---8------|
d|--3-----------8------|


Then play the (Verse) and (Chorus) again, but this time the chorus is played (4x).

  (VIOLIN PART II)

  *This is alot like the intro part for the lead guitar.

Lead and Rhythm during violin
e|-------------------|
g|-------------------|
b|-------------------|
d|-------------------| (2x)
a|--0--8--5--8-7-----|
d|--0--8--5--8-7-----|
    x  x  x  x x

  (BRIDGE)
e|-------------------|
g|-------------------|
b|-------------------|
d|-------------------| (4x)
a|--0--8--5--8-7-----|
d|--0--8--5--8-7-----|


  (SOLO)...starts at (3:57)

Lead Guitar (use sweep picking)...Rythm guitar repeats the (BRIDGE) line
e|----------------------------------------------------------|
b|----------5h6p5---5-6-8//15b-----------5h6p5---5-6-8//17b-|
g|--------5-------7--------------------5-------7------------|
d|------5----------------------------5----------------------|
a|--5-7--------------------------5-7------------------------|
d|----------------------------------------------------------|
    x x                          x x

e|------------------------------|
b|----------5h6p5---5-6-8//20b--|
g|--------5-------7-------------|
d|------5-----------------------|
a|--5-7-------------------------|
d|------------------------------|
    x x

(4:04)
e|--------------------------------------------------------------|
b|--18p17p15-17p15p14-------------------------------------------|
g|--------------------17p15p14h15h17p15p14--14h15p14------------|
d|----------------------------------------17--------17p15p14----|
a|----------------------------------------------------------17--|
d|--------------------------------------------------------------|

(4:06)
e|-----------------------------------------------------17b-----17b-18b-----|
b|--8-10//17----10p8h10-8-10//18b----10-8-10//20b---18-----20--------------|
g|-------------------------------------------------------------------------|
d|-------------------------------------------------------------------------|
a|-------------------------------------------------------------------------|
d|-------------------------------------------------------------------------|

(4:15)
e|--18-17-17-18-18-17-17-18-17-17-18-18-17-17--------------------|
b|------------------------------------------------15h17h18-22b---|
g|----------------------------------------------17---------------|
d|--------------------------------------------18-----------------|
a|---------------------------------------------------------------|
d|---------------------------------------------------------------|

(4:17)
e|---------------------------------------------------------------|
b|--18-17-17-18-18-17-17-18-17-17-18-18-17-17-----14h15h17-20b---|
g|----------------------------------------------15---------------|
d|--------------------------------------------17-----------------|
a|---------------------------------------------------------------|
d|---------------------------------------------------------------|

(4:19)
e|--17-16-16-17-17-16-16-17-16-16-17-17-16-17--------------18b---|
b|------------------------------------------------15h17h18-------|
g|----------------------------------------------17---------------|
d|--------------------------------------------18-----------------|
a|---------------------------------------------------------------|
d|---------------------------------------------------------------|

(4:21)
e|--18-17-17-18-18-17-17--------------22-17-------17-------------|
b|---------------------------15h17h18-----------18---------------|
g|-------------------------17-----------------19-----------------|
d|-----------------------18-----------------19-------------------|
a|---------------------------------------------------------------|
d|---------------------------------------------------------------|

(4:24)                                     I------------triplits-----------------|I
e|--10-10h13-10-10-10h15-10-10-10h13-10-10-15-10-10-13-10-10-15-10-10-13-10-10---|
b|-------------------------------------------------------------------------------|
g|-------------------------------------------------------------------------------|
d|-------------------------------------------------------------------------------|
a|-------------------------------------------------------------------------------|
d|-------------------------------------------------------------------------------|

                                           I------------triplets-----------------|I
e|--10-10h13-10-10-10h15-10-10-10h13-10-10-15-10-10-13-10-10-15-10-10-13-10-10---|
b|-------------------------------------------------------------------------------|
g|-------------------------------------------------------------------------------|
d|-------------------------------------------------------------------------------|
a|-------------------------------------------------------------------------------|
d|-------------------------------------------------------------------------------|

(4:28)                                     I------------triplets-----------------|I
e|--13-13h15-13-13-13h17-13-13-13h15-13-13-17-13-13-15-13-13-17-13-13-15-13-13---|
b|-------------------------------------------------------------------------------|
g|-------------------------------------------------------------------------------|
d|-------------------------------------------------------------------------------|
a|-------------------------------------------------------------------------------|
d|-------------------------------------------------------------------------------|

                                           I------------triplets-----------------|I
e|--13-13h15-13-13-13h17-13-13-13h15-13-13-17-13-13-15-13-13-17-13-13-15-13-13---|
b|-------------------------------------------------------------------------------|
g|-------------------------------------------------------------------------------|
d|-------------------------------------------------------------------------------|
a|-------------------------------------------------------------------------------|
d|-------------------------------------------------------------------------------|

(4:30)
e|--17p15p13----15p13--------------------------------|
b|----------17-------17p15--17p15p13-----------------|
g|----------------------------------16--17p16p14-----|
d|-----------------------------------------------17--|
a|---------------------------------------------------|
d|---------------------------------------------------|

(4:33)    (whammy bar) for those who are cool enough to have one.
e|--------16bbb18\\\\\-------------------------------|
b|--15~~~--------------------------------------------|
g|---------------------------------------------------|
d|---------------------------------------------------|
a|---------------------------------------------------|
d|---------------------------------------------------|


 (4:33) Rythm guitar


e|----------------------------------------------|
g|----------------------------------------------|
b|--7-7-7-7-7------------5-5-5-5-5--------------|(2x)
d|--7-7-7-7-7-0---0-0-0--5-5-5-5-5-2---2-2-2----|
a|--5-5-5-5-5-0---0-0-0--3-3-3-3-3-2---2-2-2----|
d|------------0---0-0-0------------2---2-2-2----|
                  x x x                x x x

e|-------------------------------------------------------------|
g|-------------------------------------------------------------|
b|--7-7-7-7-7---------------------5-5-5-5-5--------------------|(2x)
d|--7-7-7-7-7--0-0-0-0-0--0-0-0---5-5-5-5-5--2-2-2-2-2--2-2-2--|
a|--5-5-5-5-5--0-0-0-0-0--0-0-0---3-3-3-3-3--2-2-2-2-2--2-2-2--|
d|-------------0-0-0-0-0--0-0-0--------------2-2-2-2-2--2-2-2--|
               x x x x x  x x x              x x x x x  x x x

(4:50)
e|----------------------------------------------------------------------|
b|----------------------------------------------------------------------|
g|--9--12--14--15--12---------------------------------------------------|
d|-----------------------------------3--2h3p2h3h2------3-2----2h3s5--2--|
a|--7--10--12--13--10-------------3-----------------3-------3-----------|
d|----------------------------------------------------------------------|


  -REPEAT CHORUS AND YOU'RE DONE :D (and thank god, so am I)


note: I did not use any special program to do this, so if some of the fast parts of the
are missing a note it wouldn't surprise me.  Please comment if anything seems off.

thanks for reading,

Eric

|Legend|

| /  slide up
| \  slide down
| h  hammer-on
| p  pull-off
| b  bend
| ~  vibrato
| +  harmonic
| x  Mute note

END

==============================================================
Artist: Avenged Sevenfold
Song: Afterlife


-------------------------------------------------------------------------------
			     "Afterlife" solo --- Avenged Sevenfold
-------------------------------------------------------------------------------
Updated: July 10th, 2008 (9:00 P.M.)

Tabbed by: [travis]

Tuning: Drop D: D A D G B E (low to high)

This song is in the key of "F Major." (F G A Bb C D E F)


This solo has 32nd notes, and 16th notes all around,
which is what makes this solo hard.


I decided to redo this whole tab, since some people wanted the
other guitar's melody, and rhythm track as well.


Legend:
h = hammer on
p = pull off
V = wammy bar
-1 = push wammy bar down 1 step
-S = push wammy bar to slack
b = bend
1 = full step bend
.5 = half step bend
__ = hold bend
/ = slide up
\ = slide down
hph = pick the phrase once
~ = vibrato
... = palm mute
() = note barely heard, or bring bent note back to normal


Guitars 3 and 4: Listen for the rhythm of each chord.
e|------------------------------|
B|------------------------------|
G|------------------------------|
D|--0-----8-----5-----8-----7---|
A|--0-----8-----5-----8-----7---|
D|--0-----8-----5-----8-----7---|

Guitar 1:
e|-----------------------------------------------------------------------------|
B|---------5h6h8p6p5p\3h/5h6h8h/15~~~~~(15)\---------5h6h8p6p5p\3h/5h6h8h/17~~~|
G|-----5-7---------------------------------------5-7---------------------------|
D|-----------------------------------------------------------------------------|
A|-5-8---------------------------------------5-8-------------------------------|
D|-----------------------------------------------------------------------------|
   ...                                       ...


Guitar 1:
e|----------------------------------------|
B|---------5h8p6p5p\3h/5h6h8h/20~~~~(20)\-|
G|-----5-7--------------------------------|
D|----------------------------------------|
A|-5-8------------------------------------|
D|----------------------------------------|
   ...


Really Fast:
Guitar 1:
e|-/13p\8p6--(6)h8p6p5-------------------------------------------------------|
B|---------------------8p5/-13p10h11h13--------------------------------------|
G|--------------------------------------\7h9p7--10h/12p\9p7------------------|
D|----------------------------------------------------------11p9p7h8--11h/12-|
A|---------------------------------------------------------------------------|
D|---------------------------------------------------------------------------|

+++++++++++++++++++++++
Intro Lick:
Guitar 1:
e|--------------------------------------------------------------------------|
B|-10p\8-10--10h/17~~(17)\-10-8--10-8-10-(10)/18~~~~(18)\10-8-10-(10)/20~~~-|
G|--------------------------------------------------------------------------|
D|--------------------------------------------------------------------------|
A|--------------------------------------------------------------------------|
D|--------------------------------------------------------------------------|

Guitar 2:
e|-----------------------------------------------------------------|
B|-8p\5-6--6h/13~~(13)\-6-5--6-5-6-(6)/15~~~~(15)\6-5-6--(6)/17~~~-|
G|-----------------------------------------------------------------|
D|-----------------------------------------------------------------|
A|-----------------------------------------------------------------|
D|-----------------------------------------------------------------|

++++++++++++++++++++++
Intro Lick Continued:
Guitar 1:
         1         .5__________
e|------------------------------------|
B|-18--20b---20---22b~~~~~~~~~~(22)\--|
G|------------------------------------|
D|------------------------------------|
A|------------------------------------|
D|------------------------------------|

Guitar 2:
        .5          1__________
e|------------------------------------|
B|-15--17b---17---18b~~~~~~~~~~(18)\--|
G|------------------------------------|
D|------------------------------------|
A|------------------------------------|
D|------------------------------------|


Really Fast:
Guitar 1:
e|-17-16-15-13-15-16-17-16-15-13-15-16-15-13----------------------13-16-17~~~(17)\-|
B|-------------------------------------------15----------------15------------------|
G|----------------------------------------------14-14-------14---------------------|
D|-------------------------------------------------------15------------------------|
A|----------------------------------------------------17---------------------------|
D|---------------------------------------------------------------------------------|


Really Fast:
Guitar 1:


e|-/13-12-10-12-13-12-10-------13-10-------------------------10-12-13~~(13)\-|
B|-----------------------11-11-------11-------------------11-----------------|
G|-----------------------------------------10----------10--------------------|
D|--------------------------------------12----12----12-----------------------|
A|-----------------------------------------------13--------------------------|
D|---------------------------------------------------------------------------|


Really Fast:
Guitar 1:
e|-18-17-16-15-16-17-18-17-16-16------------------------------------18~~~~(18)\-|
B|-------------------------------18p16p15-/19-19-----------------15-------------|
G|------------------------------------------------------------15----------------|
D|-----------------------------------------------19-19-----16-------------------|
A|-----------------------------------------------------/17----------------------|
D|------------------------------------------------------------------------------|


Really Fast:
Guitar 1:
e|-18-17-15----15-17-18-17-15-------------------------18h/23\13-12-----------------16-17/22~~~|
B|----------18----------------18-------------------18--------------10---------17h18-----------|
G|-------------------------------15-------------15-----------------------18h19----------------|
D|----------------------------------15-------15----------------------/19----------------------|
A|-------------------------------------17-17--------------------------------------------------|
D|--------------------------------------------------------------------------------------------|

Really Fast:
Guitar 1:
e|----------------------15-------------------------15-------------------|
B|-15-18-15-13-15-13-15----15-15-13-15-18-15-13-15----15-13-18-15-13-15-|
G|----------------------------------------------------------------------|
D|----------------------------------------------------------------------|
A|----------------------------------------------------------------------|
D|----------------------------------------------------------------------|


Really Fast:
Guitar 1:
e|-15-----------------------------15-----------------------15-----------------15---------------|
B|---15-13-18-15-18-15-18-15-13-15--15-13-15-13-15-18-15-15--15-13-15-18-15-15--15-13-15-18-15-|
G|---------------------------------------------------------------------------------------------|
D|---------------------------------------------------------------------------------------------|
A|---------------------------------------------------------------------------------------------|
D|---------------------------------------------------------------------------------------------|


Really Fast: You can either play the 22 on the B string or the (17) instead.
Guitar 1:
e|------------(17)--------------------(17)--------------(17)---------------|
B|-18-20-18-17-22-18-18-17-18-20-18-18-22-18-17-18-20-18-22-18-17-18-20-18-|
G|-------------------------------------------------------------------------|
D|-------------------------------------------------------------------------|
A|-------------------------------------------------------------------------|
D|-------------------------------------------------------------------------|

Really Fast:
Guitar 1:
e|-18-17-15----------17p15p13h17----------------------------------------------------------------|
B|----------18-16-14-------------15-14-13----------12-14-12-------------14----------------------|
G|----------------------------------------15----12----------12----------------------------14-15-|
D|-------------------------------------------15----------------15-14-15----15-14-15----15-------|
A|----------------------------------------------------------------------------------17----------|
D|----------------------------------------------------------------------------------------------|


Guitar 1: After you bend the 16 and bring it back to normal
          press the wammy bar down. Or you can hit
          the 24th fret harmonic on the G string, and
          raise the whammy bar instead.
     1_______________        1_________
e|-------------------------16b~~~~~~~~~(16)\---------|
B|------------------------------------------\--------|
G|-17b~~~~~~~~~~~~~~~(17)-(24)*--------------\-------|
D|--------------------------------------------\------|
A|---------------------------------------------\-----|
D|----------------------------------------------\----|


Please Rate and Comment This Tab
[travis]

END

===============================================================


Artist: Avenged Sevenfold
Song: Gunslinger


-------------------------------------------------------------------------------
			     "Gunslinger" ---- Avenged Sevenfold

                                    Tabbed by: [travis]
-------------------------------------------------------------------------------


Tabbed by: [travis]

Tuning: Drop D: D A D G B E (low to high)

Key: F Major (F G A Bb C D E F)

Legend:
... = palm mute
~ = vibrato
/ = slide up
\ = slide down
h = hammer on
p = pull off
! = harmonic
* = pinch harmonic
h/ = one pick
h/p\ = one pick
() = note barely heard or bring bent note back to normal
b = bend
__ = hold bend
.25 = quarter bend
1 = whole step bend
.5 = half step bend


Chords: These are the chords you'll use in this song.

  Dm(add4/9)   C    Am7   Bb6(add#11)  Dm11    C(type 2)   Bb    C type 3
e|----0-----|--0--|--0--|----0------|---8----|---7------|------|---0------|
B|----6-----|--5--|--1--|----3------|---6----|---5------|---3--|---1------|
G|----0-----|--0--|--0--|----0------|---0----|---0------|---3--|---0------|
D|----7-----|--5--|--2--|----3------|---7----|---5------|---3--|---2------|
A|----5-----|--3--|--0--|----1------|---5----|---3------|---1--|---3------|
D|----------|-----|-----|-----------|--------|----------|------|----------|


    F     Dm    C/E    Gm
e|--1--|---1--|--0---|--3--|
B|--1--|---3--|--1---|--3--|
G|--2--|---2--|--0---|--3--|
D|--3--|---0--|--2---|--5--|
A|--x--|------|--x---|--x--|
D|--3--|------|--2---|--5--|


===================================================
Intro:
Guitar 1: Play this twice.
                              .25                    .25
e|------------------------------------------------------------0--0-|
B|-3----3----3-----3---3-3-3-3-3---3-----3----3---3-----------3--3-|
G|-2----2----2-----2---2-2-2-2-2---2-----2----2-2-2-2---------2----|
D|------0----------0---0-3-3-3-3b--0--------------------------0----|
A|---3~~--3~~--3~~---3---------------3~~~--3~~---------------------|
D|----------------------------------------------------3b--0--------|


Guitar 2: Play this through Guitar 1's riff.
e|--------------------------------------------------------8h/10~~~~~~~|
B|-10p\9--9p\8--8p\6~~~~~~~~------------------------------------------|
G|--------------------------5--5h/7~~~~~~7h/9--9h/10------------------|
D|----------------------------------------------------/10-------------|
A|--------------------------------------------------------------------|
D|--------------------------------------------------------------------|

======================================
Verse
Guitar 1: "Yeah, you've been alone..."
                                                         .25
e|-----------------------------------------------------------------0-|
B|-------3----3------3----3-------3------3-----3----3--------------3-|
G|-2----------2--2----------------2------2-----2----2--------------2-|
D|-0-------0----------------0---0---0------0-----------------------0-|
A|-0--------------------0--------------------0----0----3------0------|
D|----0------------0----------0-------0-------------------3b--0------|


Guitar 1: "for far too long..."
                                                           .25
e|--------------------------------------------------0--------------|
B|-3--3----3------------3-----3--------3-----3------3--3-----------|
G|-2--------------2-----------2--------2-----2------2--2-----------|
D|------------------0------0----0---0----0-------0-----0---------0-|
A|-----------0--0-----------------------------------------3------0-|
D|------0-------------0-----------0--------0----------------3b---0-|

====================================
Guitar 1: "But with all that..."
e|-0----0--------0----0-----0--0-----0h/0---0---0--0---0--0---0--0---0----|
B|-3----3--3--3--3----3-----3--3-----3h/5---5---5--5---5--5---5--5---5--0-|
G|-0----0--0--0--0----0-----0--0-----0h/0---0------0---0--0---0------0--0-|
D|-3-------3--3----------3--3-----3--3h/5---5------5---5------5------5----|
A|-1---------------------1--1-----1--1h/3---3------3---3------3-----------|
D|------------------------------------------------------------------------|

Guitar 2:
e|-------------------------------------|
B|-------------------------------------|
G|-5h/7~~~~~~~~--------7h/9~~~~~~~~~~--|
D|-------------------------------------|
A|-------------------------------------|
D|-------------------------------------|

====================================
Guitar 1: Play this once
                              .25                    .25
e|------------------------------------------------------------0--0-|
B|-3----3----3-----3---3-3-3-3-3---3-----3----3---3-----------3--3-|
G|-2----2----2-----2---2-2-2-2-2---2-----2----2-2-2-2---------2----|
D|------0----------0---0-3-3-3-3b--0--------------------------0----|
A|---3~~--3~~--3~~---3---------------3~~~--3~~---------------------|
D|----------------------------------------------------3b--0--------|

Guitar 2:
e|-8h/10~~~~~~~~8h/10---10p\8~~~~~--------------------------------|
B|--------------------------------10h/13p\10---9p\8--6------------|
G|------------------------------------------------------5h/7~~~~~~|
D|----------------------------------------------------------------|
A|----------------------------------------------------------------|
D|----------------------------------------------------------------|

====================================
Guitar 1: "Never let it show..."
                                                         .25
e|-----------------------------------------------------------------0-|
B|-------3----3------3----3-------3------3-----3----3--------------3-|
G|-2----------2--2----------------2------2-----2----2--------------2-|
D|-0-------0----------------0---0---0------0-----------------------0-|
A|-0--------------------0--------------------0----0----3------0------|
D|----0------------0----------0-------0-------------------3b--0------|

=====================================
Guitar 1: "The pain..."
                                                           .25
e|--------------------------------------------------0--------------|
B|-3--3----3------------3-----3--------3-----3------3--3-----------|
G|-2--------------2-----------2--------2-----2------2--2-----------|
D|------------------0------0----0---0----0-------0-----0---------0-|
A|-----------0--0-----------------------------------------3------0-|
D|------0-------------0-----------0--------0----------------3b---0-|

====================================
Guitar 1: "Cause with all these things..."
e|-0----0--------0----0-----0--0-----0h/0---0---0--0---0--0---0--0---0----|
B|-3----3--3--3--3----3-----3--3-----3h/5---5---5--5---5--5---5--5---5--0-|
G|-0----0--0--0--0----0-----0--0-----0h/0---0------0---0--0---0------0--0-|
D|-3-------3--3----------3--3-----3--3h/5---5------5---5------5------5----|
A|-1---------------------1--1-----1--1h/3---3------3---3------3-----------|
D|------------------------------------------------------------------------|

Guitar 2:
e|------------------------------------------|
B|------------------------------------------|
G|-10p\7~~~~~~~~~~~5h/9~~~~~~~~~~10p\7~~~~~~|
D|------------------------------------------|
A|------------------------------------------|
D|------------------------------------------|

=======================================
Chorus 1:
Guitar 1: Play the chords over the lyrics:

Dm(add 4/9)                    C
I reach towards the sky. I've said my goodbyes.

Guitar 2:
e|--------------------------------------------------|
B|--------------------------------------------------|
G|-(7)~~~~~~~~---------7h/9~~~~~~~~~~~--------9p\\\\|
D|--------------------------------------------------|
A|--------------------------------------------------|
D|--------------------------------------------------|

========================================
Chorus Continued:
Guitar 1:

Am 7                   Bb6(add#11)   Dm(add 4/9)   Dm11
My heart's always with you now.        I won't question why so

Guitar 2:
e|----------------------------------------------------------------|
B|----------------------------------------------------------------|
G|-\\\5----------------------------------9h/10---10--------7h/12~~|
D|----------10h/12--12h/14---(14)p\7~~~~~-------------------------|
A|----------------------------------------------------------------|
D|----------------------------------------------------------------|

=========================================
Chorus Continued:
Guitar 1:

C         C type 2             Am7               Bb6(add#11)
many have died.     My prayers have made it through yeah. Cause with all

Guitar 2:
e|---------------------------------------------------|
B|---------------------------------------------------|
G|-12p\9--------9h/10p\9-------10p\9p\7-------7h/////|
D|---------------------------------------------------|
A|---------------------------------------------------|
D|---------------------------------------------------|

========================================
Chorus Continued:
Guitar 1:

Bb6(add#11)                       C
these things we do, it don't matter when I'm comin' home to you.

Guitar 2:
e|-----------------------------------------------------------|
B|-----------------------------------------------------------|
G|-///10--------------------------------------------10p\9p\7-|
D|------------------12p\\\\\10h/////14-----------------------|
A|-----------------------------------------------------------|
D|-----------------------------------------------------------|

======================================
Guitars 3 and 4:
                                                            !!!!!!!!!!!
e|----------------------------------------------------------------------|
B|----------------------------------------------------------------------|
G|----------------------------------------------------------15-15-15-15-|
D|-0--3---5---6----/10-10-10-10----0--0--3----3--0----------------------|
A|-0--3---5---6----/10-10-10-10----0--0--3----3--0----0--0--------------|
D|-0--3---5---6----/10-10-10-10----0--0--3----3--0----0--0--------------|
                                                      ....

========================================
Guitars 3 and 4:
                                                        !!!!!!!!!!!
e|------------------------------------------------------------------|
B|------------------------------------------------------------------|
G|------------------------------------------------------15-15-15-15-|
D|-0--3---5---6---/10-10-10-10----0---3----0------------------------|
A|-0--3---5---6---/10-10-10-10----0---3----0---0-0-0-0--------------|
D|-0--3---5---6---/10-10-10-10----0---3----0---0-0-0-0--------------|
                                               .......

=========================================
Verse 2:
Guitars 3 and 4: Play this twice.
e|---------------------------------------------------------------------|
B|---------------------------------------------------------------------|
G|---------------------------------------------------------------------|
D|---------------------------------------------------------------------|
A|-5-3~~-5-3~~-5-3~~~--5-3-5/8-8-8-8--5-3~~-5-3~~-5-3--0-0-0-0-0-0-0-0-|
D|-----------------------------------------------------0-0-0-0-0-0-0-0-|
                                                       ...............

=========================================
"But with all that we've been through..."
Guitars 3 and 4: Listen for the rhythm of the () chords.
e|---------------|
B|-(-)-----(-)---|
G|--3-------5----|
D|--3-------5----|
A|--1-------3----|
D|---------------|

==========================================
Chorus 2: "I reach towards the sky..."
Guitar 3: Listen for rhythm of the chords with the () above it.
e|-------------------------------|
B|-------(-)----------------(-)--|
G|-5h/7---7----------7h/9----9---|
D|-x--x---x----------x--x----x---|
A|-3h/5---5----------5h/7----7---|
D|-------------------------------|

Guitar 4: Listen for rhythm of the chords with the ()s.
e|--------------|
B|-(-)----(-)---|
G|--7------5----|
D|--7------5----|
A|--5------3----|
D|--------------|

==========================================
"My heart's always with you now..."
Guitar 3: Rhythm of () chord only.

e|----------------------------------------------|
B|-(-)------------------------------------------|
G|--5------7---9---7------9h/10---9---7--9--10--|
D|--x------x---x---x------x---x---x---x--x--x---|
A|--3------5---7---5------7h/-8---7---5--7--8---|
D|----------------------------------------------|

Guitar 4: Rhythm of () chords.
e|-----------|
B|-(-)---(-)-|
G|--2-----3--|
D|--2-----3--|
A|--0-----1--|
D|-----------|

==========================================
"I won't question why..."
Guitar 3: Rhythm of () chords only.
e|---------------------|
B|-(-)-----------(-)---|
G|--7-----7h/9----9----|
D|--x-----x--x----x----|
A|--5-----5h/7----7----|
D|---------------------|

Guitar 4: Listen for rhythm of the chords with the ()s.
e|--------------|
B|-(-)----(-)---|
G|--7------5----|
D|--7------5----|
A|--5------3----|
D|--------------|

===========================================
"Have made it through..."
Guitar 3: Rhythm of () chords only.
e|----------------------------------------|
B|-(-)------------------------------------|
G|--5---7---9---7----9h/10--9--7---9---10-|
D|--x---x---x---x----x--x---x--x---x---x--|
A|--3---5---7---5----7h/8---7--5---7---8--|
D|----------------------------------------|

Guitar 4: Rhythm of () chords.
e|-----------|
B|-(-)---(-)-|
G|--2-----3--|
D|--2-----3--|
A|--0-----1--|
D|-----------|

============================================
"These things we do..."
Guitar 3: Rhythm of () chords only.
e|--------------------------|
B|-(-)-----------------(-)--|
G|--7------7p\5--7h/9---9---|
D|--x------x--x--x--x---x---|
A|--5------5p\3--5h/7---7---|
D|--------------------------|

Guitar 4: Rhythm of () chords.
e|-------------|
B|-(-)----(-)--|
G|--3------5---|
D|--3------5---|
A|--1------3---|
D|-------------|

=============================================
Bridge:
Guitar 1: Play the chords over the lyrics:

Bb                    C type 3
I've always been true.  I've waited so long

Guitar 3:
e|-----------------------------------------------------------|
B|-----3-----3---------3-----3--------5----5--------5----5---|
G|---3-----3-----3---3-----3----3---5----5----5---5----5-----|
D|-3-----3-----3---3-----3----3---5----5----5---5----5-----5-|
A|-----------------------------------------------------------|
D|-----------------------------------------------------------|
  ...........................................................

Guitar 4: Just hold each chord.
e|-----------------------------------------------------------|
B|-----------------------------------------------------------|
G|--3------------------------------5-------------------------|
D|--3------------------------------5-------------------------|
A|--1------------------------------3-------------------------|
D|-----------------------------------------------------------|

===============================================
Guitar 1:

F           C          Dm        C type 3
Just to come hold you.     I'm making it through.

Guitar 3:

e|---------------------------------------------------------------------|
B|---------------------------------------------------------------------|
G|-----10-----10----------5-----5----------6-----6---------5-----5-----|
D|---10-----10-----10---5-----5-----5----7-----7-----7---5-----5-----5-|
A|-10-----10-----10---5-----5-----5----7-----7-----7---5-----5-----5---|
D|---------------------------------------------------------------------|
  .....................................................................

Guitar 4: Hold each chord.
e|------------------------------|
B|------------------------------|
G|-10-----10--------------------|
D|-10-----10-------12-----10----|
A|--8------7-------12-----10----|
D|-----------------12-----10----|

==============================================
Guitar 1:

Bb                    C type 3
It's been far too long. We've proven our love


Guitar 3:
e|-----------------------------------------------------------|
B|-----3-----3---------3-----3--------5----5--------5----5---|
G|---3-----3-----3---3-----3----3---5----5----5---5----5-----|
D|-3-----3-----3---3-----3----3---5----5----5---5----5-----5-|
A|-----------------------------------------------------------|
D|-----------------------------------------------------------|
  ...........................................................

Guitar 4: Just hold each chord.
e|-----------------------------------------------------------|
B|-----------------------------------------------------------|
G|--3------------------------------5-------------------------|
D|--3------------------------------5-------------------------|
A|--1------------------------------3-------------------------|
D|-----------------------------------------------------------|

================================================
Guitar 1:

F         C         Dm      C type 3
Over time's so strong   in all that we do.

Guitar 3:


e|---------------------------------------------------------------------|
B|---------------------------------------------------------------------|
G|-----10-----10----------5-----5----------6-----6---------5-----5-----|
D|---10-----10-----10---5-----5-----5----7-----7-----7---5-----5-----5-|
A|-10-----10-----10---5-----5-----5----7-----7-----7---5-----5-----5---|
D|---------------------------------------------------------------------|
  .....................................................................

Guitar 4: Hold each chord.
e|------------------------------|
B|------------------------------|
G|-10-----10--------------------|
D|-10-----10-------12-----10----|
A|--8------7-------12-----10----|
D|-----------------12-----10----|

================================================
Guitar 1:

Bb                     C type 3
The stars in the night,    they lend me their light

Guitar 3:
e|-----------------------------------------------------------------|
B|-----3---3-----------3---3-----------5---5-----------5---5-------|
G|---3---3---3---3---3---3---3---3---5---5---5---5---5---5---5---5-|
D|-3-----------3---3-----------3---5-----------5---5-----------5---|
A|-----------------------------------------------------------------|
D|-----------------------------------------------------------------|
  .................................................................

Guitar 4: Hold each chord.
e|---------------------------------------|
B|---------------------------------------|
G|---------------------------------------|
D|---8------------------------------10---|
A|---8------------------------------10---|
D|---8------------------------------10---|


=====================================================
Guitar 1:

Dm           C/E        F        Gm     F
      to bring    me closer to heaven with you.

Guitar 3:
e|---------------------------------------------------------------------------------|
B|-----6---6-----------5---5-------------10----10----------11----------10----------|
G|---7---7---7---7---5---5---5---5----10----10----10----10----12----12----10----10-|
D|-7-----------7---5-----------5---10----------------10----------12----------10----|
A|---------------------------------------------------------------------------------|
D|---------------------------------------------------------------------------------|
  .................................................................................

Guitar 4: Hold each chord.
e|-----------------------------------|
B|-----------------------------------|
G|---------10-----10-----12-----10---|
D|--12-----10-----10-----12-----10---|
A|--12------7------8-----10------8---|
D|--12-------------------------------|

==========================================
Solo:
Guitar 5:
                                                                 .5_____
e|------------------------------------------------------------------------------|
B|-13h/15~~~~~~(15)p\9h/15--17--18--17~~~~~~~------17--18*--20--22b-----(22)~~~~|
G|-------------------------------------------9h/17------------------------------|
D|------------------------------------------------------------------------------|
A|------------------------------------------------------------------------------|
D|------------------------------------------------------------------------------|

Guitar 1: Play these chords:  Bb    C type 3


Guitar 3:
e|-----------------------------------------------------------|
B|-----3-----3---------3-----3--------5----5--------5----5---|
G|---3-----3-----3---3-----3----3---5----5----5---5----5-----|
D|-3-----3-----3---3-----3----3---5----5----5---5----5-----5-|
A|-----------------------------------------------------------|
D|-----------------------------------------------------------|
  ...........................................................

Guitar 4: Just hold each chord.
e|-----------------------------------------------------------|
B|-----------------------------------------------------------|
G|--3------------------------------5-------------------------|
D|--3------------------------------5-------------------------|
A|--1------------------------------3-------------------------|
D|-----------------------------------------------------------|

============================================
Solo Continued:
Guitar 5:
                   1_____                   .5___
e|--------------------------------------------------------------|
B|-(22)~~-------------------------------------------------------|
G|-------20~~~~~~20b-----(20)-18~~~~~(18)\-17b---(17)~~~~~17----|
D|-----------------------------------------------------------17-|
A|--------------------------------------------------------------|
D|--------------------------------------------------------------|

Guitar 1: Play these Chords:  F  C  Dm  C type 3

Guitar 3:

e|---------------------------------------------------------------------|
B|---------------------------------------------------------------------|
G|-----10-----10----------5-----5----------6-----6---------5-----5-----|
D|---10-----10-----10---5-----5-----5----7-----7-----7---5-----5-----5-|
A|-10-----10-----10---5-----5-----5----7-----7-----7---5-----5-----5---|
D|---------------------------------------------------------------------|
  .....................................................................

Guitar 4: Hold each chord.
e|------------------------------|
B|------------------------------|
G|-10-----10--------------------|
D|-10-----10-------12-----10----|
A|--8------7-------12-----10----|
D|-----------------12-----10----|

=============================================
Solo Continued:
Guitar 5:
     1_______                                     .5__
e|---------------------------------------------------------|
B|----------------15--17--18--17~~~~-------13--------------|
G|-20b~~~~~~~(20)-----------------------------15-14b--(14)-|
D|----------------------------------10h/14-----------------|
A|---------------------------------------------------------|
D|---------------------------------------------------------|

Guitar 1: Play these chords:  Bb  C type 3

Guitar 3:
e|-----------------------------------------------------------|
B|-----3-----3---------3-----3--------5----5--------5----5---|
G|---3-----3-----3---3-----3----3---5----5----5---5----5-----|
D|-3-----3-----3---3-----3----3---5----5----5---5----5-----5-|
A|-----------------------------------------------------------|
D|-----------------------------------------------------------|
  ...........................................................

Guitar 4: Just hold each chord.


e|-----------------------------------------------------------|
B|-----------------------------------------------------------|
G|--3------------------------------5-------------------------|
D|--3------------------------------5-------------------------|
A|--1------------------------------3-------------------------|
D|-----------------------------------------------------------|

==============================================
Solo Continued:
Guitar 5:
e|-13*-------------12---12b--(12)---12b~~~~~------17----17b--(17)--------------------------|
B|----------------------------------------------------------------20b--(20)b---(20)p/15~~~~|
G|-----14-14p/12-----12----------12---------17-17----17------------------------------------|
D|-----------------------------------------------------------------------------------------|
A|-----------------------------------------------------------------------------------------|
D|-----------------------------------------------------------------------------------------|


Guitar 1: Play these chords:  F   C   Dm   C type 3


Guitar 3:

e|---------------------------------------------------------------------|
B|---------------------------------------------------------------------|
G|-----10-----10----------5-----5----------6-----6---------5-----5-----|
D|---10-----10-----10---5-----5-----5----7-----7-----7---5-----5-----5-|
A|-10-----10-----10---5-----5-----5----7-----7-----7---5-----5-----5---|
D|---------------------------------------------------------------------|
  .....................................................................

Guitar 4: Hold each chord.
e|------------------------------|
B|------------------------------|
G|-10-----10--------------------|
D|-10-----10-------12-----10----|
A|--8------7-------12-----10----|
D|-----------------12-----10----|

===============================================
Guitar 1: Hold the chords over the lyrics:

Bb                                          C type 3
But with all that we've been through, after all this time I'm coming home to you.

Guitar 5:
     ;;;;;;;;;;;;;;;                    ;;;;;;;;;;;;;;;;;;;;;;;;
                                       1________________________
e|-------------------------------------------------------------------|
B|-15~~~~~~~~~~~~~~~(15)p\13---15--(15)b-------(15)~~~~~~~~~~~~~(15)-|
G|-------------------------------------------------------------------|
D|-------------------------------------------------------------------|
A|-------------------------------------------------------------------|
D|-------------------------------------------------------------------|

Guitars 3 and 4:
e|-----------------------------------------------------------------|
B|-----------------------------------------------------------------|
G|-----------------------------------------------------------------|
D|--8~--------------------------/10---10--10--10--10----10--10--10-|
A|--8~--------------------------/10---10--10--10--10----10--10--10-|
D|--8~--------------------------/10---10--10--10--10----10--10--10-|
                                      .............................

===============================================
Chorus 2: "I reach towards the sky..."
Guitar 3: Listen for rhythm of the chords with the () above it.
e|-------------------------------|
B|-------(-)----------------(-)--|
G|-5h/7---7----------7h/9----9---|
D|-x--x---x----------x--x----x---|
A|-3h/5---5----------5h/7----7---|
D|-------------------------------|

Guitar 4: Listen for rhythm of the chords with the ()s.

e|--------------|
B|-(-)----(-)---|
G|--7------5----|
D|--7------5----|
A|--5------3----|
D|--------------|

==================================================
"My heart's always with you now..."
Guitar 3: Rhythm of () chord only.
e|----------------------------------------------|
B|-(-)------------------------------------------|
G|--5------7---9---7------9h/10---9---7--9--10--|
D|--x------x---x---x------x---x---x---x--x--x---|
A|--3------5---7---5------7h/-8---7---5--7--8---|
D|----------------------------------------------|

Guitar 4: Rhythm of () chords.
e|-----------|
B|-(-)---(-)-|
G|--2-----3--|
D|--2-----3--|
A|--0-----1--|
D|-----------|

==========================================
"I won't question why..."
Guitar 3: Rhythm of () chords only.
e|---------------------|
B|-(-)-----------(-)---|
G|--7-----7h/9----9----|
D|--x-----x--x----x----|
A|--5-----5h/7----7----|
D|---------------------|

Guitar 4: Listen for rhythm of the chords with the ()s.
e|--------------|
B|-(-)----(-)---|
G|--7------5----|
D|--7------5----|
A|--5------3----|
D|--------------|

==========================================
"Have made it through yeah..."
Guitar 4: Rhythm of () chords.
e|-----------|
B|-(-)---(-)-|
G|--2-----3--|
D|--2-----3--|
A|--0-----1--|
D|-----------|

Guitar 5:
e|------------------------------------------------------6--6-----6---6-6--------6---8----------6-8|
B|----------------------------------------------------6-------6--6-6----------6---6---6-6------6-8|
G|2----5----7-------9-----------3--3-3-3--3-3--3-5h/7------------------9p\7---------------5h/7----|
D|2----x----x-------x-----------3--3-3-3--3-3-----------------------------------------------------|
A|0----3----5-------7-----------1--1-1-1--1-1-----------------------------------------------------|
D|------------------------------------------------------------------------------------------------|

===========================================
"matter when I'm coming home..."
Guitar 5:
e|-8h/10------------10----------------6--------6---8--------------|
B|-------8------8-8----8--------8\--6--------6---6---6-6------6-8-|
G|---------9h10----------9-9h10---------5h/7-------------5h/7-----|
D|----------------------------------------------------------------|
A|----------------------------------------------------------------|
D|----------------------------------------------------------------|

Guitar 4: Rhythm of () chords.


e|--------------|
B|-(-)---(-)----|
G|--5-----3-----|
D|--5-----3-----|
A|--3-----1-----|
D|--------------|

==============================================
"this time I'm coming home to you."
Guitar 5:
e|---10----------------10----------------------------|
B|-8----8--------8-8-8----8---10-10------------------|
G|--------9-9h10------------9-------x----7~~~~~~~~~~~|
D|----------------------------------x----7~~~~~~~~~~~|
A|----------------------------------x----5~~~~~~~~~~~|
D|---------------------------------------------------|

Guitar 4: Rhythm of () chord.
e|--------------------|
B|-(-)----------------|
G|--5-----------------|
D|--5------0~~~~~~~~~~|
A|--3------0~~~~~~~~~~|
D|---------0~~~~~~~~~~|

Guitar 3: Rhythm for () chord.
e|--------------------------|
B|--------(-)---------------|
G|-7h/9----9------7~~~~~~~~~|
D|-x--x----x------x~~~~~~~~~|
A|-5h/7----7------5~~~~~~~~~|
D|--------------------------|

=============================================

Please rate and comment.
Thanks.
[travis]

*****************************

END

===============================================================================
Artist: Avenged Sevenfold
Song: Unbound The Wild Ride


-------------------------------------------------------------------------------
			   "Unbound (The Wild Ride)" --- Avenged Sevenfold
-------------------------------------------------------------------------------

Tabbed by: [travis]

Tuning: Drop D (D A D G B E) [low to high]

Key: F Major [F G A Bb C D E F)


Legend:
... = palm mute
h = hammer on
p = pull off
b = bend
*** = feedback
__ = hold bend
1 = whole step bend
.5 = half step bend
1.5 = step and a half bend
x/x/ = pick slide
/ = slide up
\ = slide down
x = muffled string/muted string
~~ = vibrato
() = note barely heard, or bring bent note back to normal
h/ = one pick
h/p\ = one pick
2h/4 = one pick phrase
++ = section divider


Guitar 1: There's no Guitar 1 in the second section below the (VV).
                                    VV
e|---------------------------------|--|------------------------------------|----------------|
B|------------15h/17---\15--15\11~-|--|------------15h/17--\15--15--15h/18-|-18-17---15--17-|
G|-7/15--14----x---x-----x---x--x--|--|-7/15--14----x---x----x---x---x---x-|--x--x----x---x-|
D|-x--x---x---12h/14---\12--12\-8~-|--|-x--x---x---12h/14--\12--12--12h/15-|-15-14---12--14-|
A|-5/13--12------------------------|--|-5/13--12---------------------------|----------------|
D|---------------------------------|--|------------------------------------|----------------|


Guitars 2 and 3:
Listen for Rhythm. Each section below matches the section above.
The 5/7 chord goes with the 1st section above, and the 5/8 goes with the second section,
and the 5/7 chord goes with the 3rd section above. Same for the fourth sections.
e|----------|------------|----------|----------|
B|----------|------------|----------|----------|
G|----------|------------|----------|----------|
D|------7---|------8-----|-----7----|-----8----|
A|------5---|------5-----|-----5----|-----5----|
D|----------|------------|----------|----------|

++++++++++++++++++++++++++++++++++++
Guitar 4:
     1____________         1____  1.5_________

e|--------------------------------------------|
B|--------------------------------------------|
G|-10b~~~~~~~~~~~~(10)---12b----(12)b~~~~~~~~-|
D|--------------------------------------------|
A|--------------------------------------------|
D|--------------------------------------------|

Guitar 5:
    1______________        1____ 1.5__________
e|--------------------------------------------|
B|--------------------------------------------|
G|-7b~~~~~~~~~~~~~~(7)----9b----(9)b~~~~~~~~~-|
D|--------------------------------------------|
A|--------------------------------------------|
D|--------------------------------------------|

Guitars 2 and 3: Listen for Rhythym.
e|--------|
B|--------|
G|--------|
D|----5---|
A|----3---|
D|--------|

+++++++++++++++++++++++++++++++++++++
Guitar 1: There's no Guitar 1 in the second section below the (VV).
                                    VV
e|---------------------------------|--|------------------------------------|----------------|
B|------------15h/17---\15--15\11~-|--|------------15h/17--\15--15--15h/18-|-18-17---15--17-|
G|-7/15--14----x---x-----x---x--x--|--|-7/15--14----x---x----x---x---x---x-|--x--x----x---x-|
D|-x--x---x---12h/14---\12--12\-8~-|--|-x--x---x---12h/14--\12--12--12h/15-|-15-14---12--14-|
A|-5/13--12------------------------|--|-5/13--12---------------------------|----------------|
D|---------------------------------|--|------------------------------------|----------------|


Guitars 2 and 3:
Listen for Rhythm. Each section below matches the section above.
The 5/7 chord goes with the 1st section above, and the 5/8 goes with the second section,
and the 5/7 chord goes with the 3rd section above. Same for the fourth sections.
e|----------|------------|----------|----------|
B|----------|------------|----------|----------|
G|----------|------------|----------|----------|
D|------7---|------8-----|-----7----|-----8----|
A|------5---|------5-----|-----5----|-----5----|
D|----------|------------|----------|----------|

Guitar 4:
e|-----------------------------------------------------------|
B|------------------------8---10---------------------8----10-|
G|-7h/10~~~~~~~~-7h/10-------------10~~~~~~~~7h/10-----------|
D|-----------------------------------------------------------|
A|-----------------------------------------------------------|
D|-----------------------------------------------------------|

Guitar 5:
e|--------------------------------------------------------|
B|-----------------------5----6--------------------5----6-|
G|-5h/7~~~~~~~~~-5h/7--------------7~~~~~~~~~5h7----------|
D|--------------------------------------------------------|
A|--------------------------------------------------------|
D|--------------------------------------------------------|

+++++++++++++++++++++++++++++++++++++++
Guitar 4:
     1_____________                    1___________
e|-------------------------------------------------|
B|-------------------10-8----10-8----10b~~~~~~~~~~~|
G|-10b~~~~~~~~~~~~~-------10------10---------------|
D|-------------------------------------------------|
A|-------------------------------------------------|
D|-------------------------------------------------|

Guitar 5:
    1______________               1____________


e|---------------------------------------------|
B|-------------------6-5-3-6-5-3-6b~~~~~~~~~~~~|
G|-7b~~~~~~~~~~~~~~----------------------------|
D|---------------------------------------------|
A|---------------------------------------------|
D|---------------------------------------------|


Guitars 2 and 3: Listen for Rhythym.
e|--------|
B|--------|
G|--------|
D|----5---|
A|----3---|
D|--------|

+++++++++++++++++++++++++++++++++++++
Guitar 1: Just play this chord once, and don't let it ring out.
"Somewhere Life is good..."
e|-------------|
B|-------------|
G|-------------|
D|------7------|
A|------5------|
D|-------------|

Guitar 2: Pickslide before the next part.
e|---------------------|
B|---------------------|
G|---------------------|
D|-x/x/x/x/x/x/x/x/x/--|
A|-x/x/x/x/x/x/x/x/x/--|
D|---------------------|

+++++++++++++++++++++++++++++++++++++
Guitar 1: Listen for rhythm on the 7/9, 8/10, 10/12 octave
chords. But not the last 8/10 octave chord.
e|-----------------------------------------------------------|
B|-----------------------------------------------------------|
G|-5h/9-----9----10-----12---10------------------------------|
D|-x--x-----x-----x------x----x------------------------------|
A|-3h/7-----7-----8-----10----8------------------------------|
D|-------------------------------0-0-0-0-0-0-0-0-0-0-0-0-0-0-|
                                 ...........................

Guitar 2: Listen for Rhythm, only for the C5 (3/5) chord:
e|-------------------------------------------------|
B|-------------------------------------------------|
G|-------------------------------------------------|
D|--5---------------7------------------------------|
A|--3---------------5------------------------------|
D|---------------------0-0-0-0-0-0-0-0-0-0-0-0-0-0-|
                       ...........................

+++++++++++++++++++++++++++++++++++++
Guitar 1:
e|-15p13-----------------------------------------------|
B|-------15p13----13----13-----------------------------|
G|-------------14----12----12p10-13-12-10--------------|
D|----------------------------------------12-10-11-12~-|
A|-----------------------------------------------------|
D|-----------------------------------------------------|

Guitar 2:
e|-----------------------------------|
B|-----------------------------------|
G|-----------------------------------|
D|-----------------------------------|
A|-----------------------------------|
D|-0-0-0-0-0-0-0-0-0-0-0-0-0-0-0-0-0-|
   .................................

+++++++++++++++++++++++++++++++++++++
No Guitars on this part:
"Searching for the way..."

+++++++++++++++++++++++++++++++++++++
Guitar 1: Listen for rhythm for the chords with the ()s above them.
e|----------------------------|
B|-----------()-----()----()--|
G|-5h/9------9------10----12--|
D|-x--x------x-------x-----x--|
A|-3h/7------7-------8----10--|
D|----------------------------|

Guitar 2: Listen for Rhythm: It's just this chord C5 (3/5):
e|----|
B|----|
G|----|
D|-5--|
A|-3--|
D|----|

+++++++++++++++++++++++++++++++++++++
Guitar 1:
e|--------------------------------------------------------|
B|--------------------------------------------------------|
G|-10---------------------------------------------10---9--|
D|-x-----------------------------------------------x---x--|
A|-8-----------------------------------------------8---7--|
D|----0-0-0-0-0-0-0-0-0-0-0-0-0-0-0-0-0-0-0-0-0-0---------|
      ...........................................

Guitar 2:
e|-------------------------------------------------------|
B|-------------------------------------------------------|
G|-------------------------------------------------------|
D|-7----------------------------------------------7---5--|
A|-5----------------------------------------------5---3--|
D|---0-0-0-0-0-0-0-0-0-0-0-0-0-0-0-0-0-0-0-0-0-0---------|
     ...........................................

+++++++++++++++++++++++++++++++++++++
Guitar 1: Listen for Rhythm only for the chords with the () above them.
e|----------------------------------------------------------|
B|-()--()----()---()---()---()--()--------------------------|
G|-7----6----14---12---10---14--15---14---------------------|
D|-x----x-----x----x----x----x---x----x---------------------|
A|-5----4----12---10----8---12--13---12---------------------|
D|----------------------------------------------------------|

Guitar 2: Listen for Rhythm for the ()s chords only.
e|----------------------------------------------------------|
B|----------------------------------------------------------|
G|-()--()--()-()-()-()--()----------------------------------|
D|-3---2---7--5---3--2---3--2-------------------------------|
A|-1---0---5--3---1--0---1--0--0-0-0-0-0-0-0-0-0-0-0-0-0-0--|
D|----------------------------------------------------------|
                               ...........................

++++++++++++++++++++++++++++++++++++++
Chorus:
Guitar 1: Hit each of these notes twice (2):
e|----------------10-15-10-14-10---------------------------------10-15-10-14-10------------------|
B|-------------11----------------10---------------------------11----------------10---------------|
G|----------12----------------------11---------------------12----------------------11------------|
D|-------12----------------------------12---------------12----------------------------12---------|
A|-10-13----------------------------------12-10-9-10-13----------------------------------12-10-9-|
D|-----------------------------------------------------------------------------------------------|

Guitar 2: Listen for Rhythm for the () chords.
e|------------------------|
B|------------------------|
G|--()----()----()----()--|
D|--5-----0-----5-----0---|
A|--5-----0-----5-----0---|
D|--5-----0-----5-----0---|

++++++++++++++++++++++++++++++++++++
Guitar 1: Hit each of these notes twice (2):


e|----------------11-15-11-13-10-----------------------------9----12-9-10----13-10-------------|
B|-------------11----------------11---------------------10-----10---------11-------11----------|
G|----------12----------------------10----------10-9-------9--------------------------10-------|
D|-------13----------------------------12----12------11----------------------------------12----|
A|-10-13----------------------------------13------------------------------------------------13-|
D|---------------------------------------------------------------------------------------------|

Guitar 2: Listen for Rhythm for the () chords.
e|------------------------|
B|--------()---()-----()--|
G|--()----3-----2-----3---|
D|--1-----3-----2-----3---|
A|--1-----1-----0-----1---|
D|--1---------------------|

++++++++++++++++++++++++++++++++++++
Guitar 1: Hit each of these notes twice (2):
e|----------------10-15-10-14-10---------------------------------10-15-10-14-10------------------|
B|-------------11----------------10---------------------------11----------------10---------------|
G|----------12----------------------11---------------------12----------------------11------------|
D|-------12----------------------------12---------------12----------------------------12---------|
A|-10-13----------------------------------12-10-9-10-13----------------------------------12-10-9-|
D|-----------------------------------------------------------------------------------------------|

Guitar 2: Listen for Rhythm for the () chords.
e|------------------------|
B|------------------------|
G|--()----()----()----()--|
D|--5-----0-----5-----0---|
A|--5-----0-----5-----0---|
D|--5-----0-----5-----0---|

++++++++++++++++++++++++++++++++++++
Guitar 1: The x's under the #s are how many times you play those notes.
e|---------------------------------10-------|
B|-----10--11--10--11--13--11--13------11---|
G|-12---------------------------------------|
D|------------------------------------------|
A|-x6--x6--x4--x6--x6--x4--x6--x6--x4--x16--|
D|------------------------------------------|

Guitar 2: Same goes for the x's on this one too.
e|----------------------------------------|
B|--------------------10------10--11------|
G|-8--10--12--10--12------12---------12---|
D|----------------------------------------|
A|x6--x6--x4--x6--x6--x4--x6--x6--x4-x16--|
D|----------------------------------------|

Guitar 3:
e|----------------|
B|----------------|
G|-()---()----()--|
D|-1-----3-----5--|
A|-1-----3-----5--|
D|-1-----3-----5--|

++++++++++++++++++++++++++++++++++++
Guitar 1: There's no Guitar 1 in the second section below the (VV).
                                    VV
e|---------------------------------|--|------------------------------------|----------------|
B|------------15h/17---\15--15\11~-|--|------------15h/17--\15--15--15h/18-|-18-17---15--17-|
G|-7/15--14----x---x-----x---x--x--|--|-7/15--14----x---x----x---x---x---x-|--x--x----x---x-|
D|-x--x---x---12h/14---\12--12\-8~-|--|-x--x---x---12h/14--\12--12--12h/15-|-15-14---12--14-|
A|-5/13--12------------------------|--|-5/13--12---------------------------|----------------|
D|---------------------------------|--|------------------------------------|----------------|


Guitars 2 and 3:
Listen for Rhythm. Each section below matches the section above.
The 5/7 chord goes with the 1st section above, and the 5/8 goes with the second section,
and the 5/7 chord goes with the 3rd section above. Same for the fourth sections.


e|----------|------------|----------|----------|
B|----------|------------|----------|----------|
G|----------|------------|----------|----------|
D|------7---|------8-----|-----7----|-----8----|
A|------5---|------5-----|-----5----|-----5----|
D|----------|------------|----------|----------|

Guitar 4:
e|-----------------------------------------------------------|
B|------------------------8---10---------------------8----10-|
G|-7h/10~~~~~~~~-7h/10-------------10~~~~~~~~7h/10-----------|
D|-----------------------------------------------------------|
A|-----------------------------------------------------------|
D|-----------------------------------------------------------|

Guitar 5:
e|--------------------------------------------------------|
B|-----------------------5----6--------------------5----6-|
G|-5h/7~~~~~~~~~-5h/7--------------7~~~~~~~~~5h7----------|
D|--------------------------------------------------------|
A|--------------------------------------------------------|
D|--------------------------------------------------------|

+++++++++++++++++++++++++++++++++++++++
Guitar 4:
     1_____________                    1___________
e|-------------------------------------------------|
B|-------------------10-8----10-8----10b~~~~~~~~~~~|
G|-10b~~~~~~~~~~~~~-------10------10---------------|
D|-------------------------------------------------|
A|-------------------------------------------------|
D|-------------------------------------------------|

Guitar 5:
    1______________               1____________
e|---------------------------------------------|
B|-------------------6-5-3-6-5-3-6b~~~~~~~~~~~~|
G|-7b~~~~~~~~~~~~~~----------------------------|
D|---------------------------------------------|
A|---------------------------------------------|
D|---------------------------------------------|


Guitars 2 and 3: Listen for Rhythym.
e|--------|
B|--------|
G|--------|
D|----5---|
A|----3---|
D|--------|

+++++++++++++++++++++++++++++++++++++++
Guitar 1: Hit this chord once.
"Sometimes when we're young..."
e|-------------|
B|-------------|
G|-------------|
D|------7------|
A|------5------|
D|-------------|

Guitar 2: Pickslide before the next part.
e|---------------------|
B|---------------------|
G|---------------------|
D|-x/x/x/x/x/x/x/x/x/--|
A|-x/x/x/x/x/x/x/x/x/--|
D|---------------------|

++++++++++++++++++++++++++++++++++++++++
Guitar 1: Listen for rhythm on the 7/9, 8/10, 10/12 octave
chords. But not the last 8/10 octave chord.


e|-----------------------------------------------------------|
B|-----------------------------------------------------------|
G|-5h/9-----9----10-----12---10------------------------------|
D|-x--x-----x-----x------x----x------------------------------|
A|-3h/7-----7-----8-----10----8------------------------------|
D|-------------------------------0-0-0-0-0-0-0-0-0-0-0-0-0-0-|
                                 ...........................

Guitar 2: Listen for Rhythm, only for the C5 (3/5) chord:
e|-------------------------------------------------|
B|-------------------------------------------------|
G|-------------------------------------------------|
D|--5---------------7------------------------------|
A|--3---------------5------------------------------|
D|---------------------0-0-0-0-0-0-0-0-0-0-0-0-0-0-|
                       ...........................

++++++++++++++++++++++++++++++++++++++++
Guitar 1:
e|-15p13-------------15---------------------------------------|
B|-------15p13----13----13------------------------------------|
G|-------------14----------12p10-13-12-10---------------------|
D|----------------------------------------12-10-11-12~~~~h/15-|
A|------------------------------------------------------------|
D|------------------------------------------------------------|

Guitar 2:
e|-----------------------------------|
B|-----------------------------------|
G|-----------------------------------|
D|-----------------------------------|
A|-----------------------------------|
D|-0-0-0-0-0-0-0-0-0-0-0-0-0-0-0-0-0-|
   .................................

+++++++++++++++++++++++++++++++++++++++++
No guitars on this part:
"So don't be too concerned..."

+++++++++++++++++++++++++++++++++++++++++
Guitar 1: Listen for rhythm for the chords with the ()s above them.
e|----------------------------|
B|-----------()-----()----()--|
G|-5h/9------9------10----12--|
D|-x--x------x-------x-----x--|
A|-3h/7------7-------8----10--|
D|----------------------------|

Guitar 2: Listen for Rhythm: It's just this chord C5 (3/5):
e|----|
B|----|
G|----|
D|-5--|
A|-3--|
D|----|

++++++++++++++++++++++++++++++++++++++++++
Guitar 1:
e|--------------------------------------------------------|
B|--------------------------------------------------------|
G|-10---------------------------------------------10---9--|
D|-x-----------------------------------------------x---x--|
A|-8-----------------------------------------------8---7--|
D|----0-0-0-0-0-0-0-0-0-0-0-0-0-0-0-0-0-0-0-0-0-0---------|
      ...........................................

Guitar 2:
e|-------------------------------------------------------|
B|-------------------------------------------------------|
G|-------------------------------------------------------|
D|-7----------------------------------------------7---5--|
A|-5----------------------------------------------5---3--|
D|---0-0-0-0-0-0-0-0-0-0-0-0-0-0-0-0-0-0-0-0-0-0---------|
     ...........................................


+++++++++++++++++++++++++++++++++++++
Guitar 1: Listen for Rhythm only for the chords with the () above them.
e|----------------------------------------------------------|
B|-()--()----()---()---()---()--()--------------------------|
G|-7----6----14---12---10---14--15---14---------------------|
D|-x----x-----x----x----x----x---x----x---------------------|
A|-5----4----12---10----8---12--13---12---------------------|
D|----------------------------------------------------------|

Guitar 2: Listen for Rhythm for the ()s chords only.
e|----------------------------------------------------------|
B|----------------------------------------------------------|
G|-()--()--()-()-()-()--()----------------------------------|
D|-3---2---7--5---3--2---3--2-------------------------------|
A|-1---0---5--3---1--0---1--0--0-0-0-0-0-0-0-0-0-0-0-0-0-0--|
D|----------------------------------------------------------|
                               ...........................

++++++++++++++++++++++++++++++++++++++
Chorus:
Guitar 1: Hit each of these notes twice (2):
e|----------------10-15-10-14-10---------------------------------10-15-10-14-10------------------|
B|-------------11----------------10---------------------------11----------------10---------------|
G|----------12----------------------11---------------------12----------------------11------------|
D|-------12----------------------------12---------------12----------------------------12---------|
A|-10-13----------------------------------12-10-9-10-13----------------------------------12-10-9-|
D|-----------------------------------------------------------------------------------------------|

Guitar 2: Listen for Rhythm for the () chords.
e|------------------------|
B|------------------------|
G|--()----()----()----()--|
D|--5-----0-----5-----0---|
A|--5-----0-----5-----0---|
D|--5-----0-----5-----0---|

++++++++++++++++++++++++++++++++++++
Guitar 1: Hit each of these notes twice (2):
e|----------------11-15-11-13-10-----------------------------9----12-9-10----13-10-------------|
B|-------------11----------------11---------------------10-----10---------11-------11----------|
G|----------12----------------------10----------10-9-------9--------------------------10-------|
D|-------13----------------------------12----12------11----------------------------------12----|
A|-10-13----------------------------------13------------------------------------------------13-|
D|---------------------------------------------------------------------------------------------|

Guitar 2: Listen for Rhythm for the () chords.
e|------------------------|
B|--------()---()-----()--|
G|--()----3-----2-----3---|
D|--1-----3-----2-----3---|
A|--1-----1-----0-----1---|
D|--1---------------------|

++++++++++++++++++++++++++++++++++++
Guitar 1: Hit each of these notes twice (2):
e|----------------10-15-10-14-10---------------------------------10-15-10-14-10------------------|
B|-------------11----------------10---------------------------11----------------10---------------|
G|----------12----------------------11---------------------12----------------------11------------|
D|-------12----------------------------12---------------12----------------------------12---------|
A|-10-13----------------------------------12-10-9-10-13----------------------------------12-10-9-|
D|-----------------------------------------------------------------------------------------------|

Guitar 2: Listen for Rhythm for the () chords.
e|------------------------|
B|------------------------|
G|--()----()----()----()--|
D|--5-----0-----5-----0---|
A|--5-----0-----5-----0---|
D|--5-----0-----5-----0---|

++++++++++++++++++++++++++++++++++++++++++
Guitar 1: The x's under the #s are how many times you play those notes.


e|---------------------------------10-------|
B|-----10--11--10--11--13--11--13------11---|
G|-12---------------------------------------|
D|------------------------------------------|
A|-x6--x6--x4--x6--x6--x4--x6--x6--x4--x16--|
D|------------------------------------------|

Guitar 2: Same goes for the x's on this one too.
e|----------------------------------------|
B|--------------------10------10--11------|
G|-8--10--12--10--12------12---------12---|
D|----------------------------------------|
A|x6--x6--x4--x6--x6--x4--x6--x6--x4-x16--|
D|----------------------------------------|

Guitar 3:
e|----------------|
B|----------------|
G|-()---()----()--|
D|-1-----3-----5--|
A|-1-----3-----5--|
D|-1-----3-----5--|

+++++++++++++++++++++++++++++++++++++++++++
Cool Sweep Picking Part:
Guitar 1:
e|-17-13----------------------------17-18-15-------------------------13-17-|
B|-------15-------------------14-17----------15-------------------15-------|
G|----------14-------------14-------------------15-------------14----------|
D|-------------15-------14-------------------------17-------15-------------|
A|----------------17-16-------------------------------16-17----------------|
D|-------------------------------------------------------------------------|

Guitar 2:
e|-13-10------------------------9/12-15----------------------------10-13-|
B|-------10------------------10---------15-11-------------------10-------|
G|----------10-------------9------------------12-------------10----------|
D|-------------12-------11-----------------------12-------12-------------|
A|----------------13-12-----------------------------13-12----------------|
D|-----------------------------------------------------------------------|

Guitar 3: Listen for rhythm.
e|----------------------|
B|----------------------|
G|()-----()----()----()-|
D|-3-----2-----8-----7--|
A|-0-----0-----5-----5--|
D|-0-----------5-----3--|

++++++++++++++++++++++++++++++++++++++++++
Sweep Picking Part Continued:
Guitar 1:
e|-18-15-------------------------13-16-17---------------------|
B|-------15-------------------15----------17-14---------------|
G|----------15-------------14-------------------14------------|
D|-------------17-------15-------------------------14---------|
A|----------------16-17-------------------------------16-17~~-|
D|------------------------------------------------------------|

Guitar 2:
e|-15----------------------------10-12-12\9------------------|
B|----15-11-------------------10------------10---------------|
G|----------12-------------10------------------9-------------|
D|-------------12-------12-----------------------11----15~~~-|
A|----------------13-12-----------------------------12-------|
D|-----------------------------------------------------------|

Guitar 3: Listen for rhythm only for the chords with the ().
e|-----------------------|
B|()----()----()---------|
G|-------------2---------|
D|-8-----7-----5-----3---|
A|-5-----5-----4-----0---|
D|-5-----3-----2-----0---|


Play the whole "Cool Sweep Picking Part" twice. Then move on.
+++++++++++++++++++++++++++++++++++++++++
Guitar 1 plays the sweep picking part twice over this.

Guitars 2: Play this part twice with the sweep picking part.
e|---------------------------------------------------------------------------------|
B|-------------------------------------------------------------------------------3-|
G|-------------------------------------------------------------------2---2-------2-|
D|-3--3----2--2-2--2--2-2--8---8-8-8-7---7-7-7--8--8-8-8-7---7-7-7---5---5---3---3-|
A|-0--0----0--0-0--0--0-0--5---5-5-5-5---5-5-5--5--5-5-5-5---5-5-5---4---4---0-----|
D|-0--0--------------------5---5-5-5-3---3-3-3--5--5-5-5-3---3-3-3---2---2---0-----|
              ...     ...

+++++++++++++++++++++++++++++++++++++++++++
Guitars 1 and 2: Listen for rhythm for the () chords.
"Never lived in fear..."
e|-----------------------------|
B|-----------------------------|
G|-----------------------------|
D|-()-----()-------------------|
A|--8-----0--------------------|
D|--8-----0-----0--2--3--3/7---|

++++++++++++++++++++++++++++++++++++++++++
Guitars 1 and 2: Listen for rhythm only for the () chord.
e|-----------------------------------|
B|---------------2-------------------|
G|---------------2-------------------|
D|-()------2-----2-------------------|
A|--8------0-----0-------0-----------|
D|--8-----------------------5--3--2--|

++++++++++++++++++++++++++++++++++++++++++
Guitar 1 plays the sweep picking part twice over this.

Guitars 2: Play this part 3 TIMES NOW, with the sweep picking part.
e|---------------------------------------------------------------------------------|
B|-------------------------------------------------------------------------------3-|
G|-------------------------------------------------------------------2---2-------2-|
D|-3--3----2--2-2--2--2-2--8---8-8-8-7---7-7-7--8--8-8-8-7---7-7-7---5---5---3---3-|
A|-0--0----0--0-0--0--0-0--5---5-5-5-5---5-5-5--5--5-5-5-5---5-5-5---4---4---0-----|
D|-0--0--------------------5---5-5-5-3---3-3-3--5--5-5-5-3---3-3-3---2---2---0-----|
              ...     ...

+++++++++++++++++++++++++++++++++++++++++++
Guitars 1 and 2: Listen for rhythm for the () chords.
"Never lived in fear..."
e|-----------------------------|
B|-----------------------------|
G|-----------------------------|
D|-()-----()-------------------|
A|--8-----0--------------------|
D|--8-----0-----0--2--3--3/7---|

Guitar 3:
     1______                             1_______     .5____________
e|------------------------------------------------------------------|
B|------------------------------------------------------------------|
G|--7b------(7)~~~----------------------7b-------(7)h/9b~~~~~~~~~~~~|
D|-----------------7~~~---------------------------------------------|
A|-----------------------8--7~~~~~5--7------------------------------|
D|------------------------------------------------------------------|

++++++++++++++++++++++++++++++++++++++++++++
Guitars 1 and 2: Listen for rhythm only for the () chord.
e|-----------------------------------|
B|---------------2-------------------|
G|---------------2-------------------|
D|-()------2-----2-------------------|
A|--8------0-----0-------0-----------|
D|--8-----------------------5--3--2--|

Guitar 3:
    1______


e|-----------------------------------------------------------------|
B|-----------------------------------------------------8/11--10~~~~|
G|-7b------(7)--------------------------------------6--------------|
D|--------------7~~~--------------------------5--8-----------------|
A|------------------8--7~~~5--7---1h/4--5--7-----------------------|
D|-----------------------------------------------------------------|

++++++++++++++++++++++++++++++++++++++++++++
Pre Ending Interlude:
Guitar 1: Play this 3 times.
e|-13--------13--------12--------12--------12--|
B|----15--------15--------15--------15---------|
G|-------14--------14--------14--------14------|
D|---------------------------------------------|
A|---------------------------------------------|
D|---------------------------------------------|

Guitar 2: listen for timing.
e|--13~----------13~-------13~-----13~--|
B|--15~----------15~-------15~------0~--|
G|--14~----------14~-------14~-----14~--|
D|---0~-----------0~--------0~------0~--|
A|---0~-----------0~--------0~------0~--|
D|---0~-----------0~--------0~------0~--|

Guitar 3:
e|-------|
B|-------|
G|-------|
D|--0~---|
A|--0~---|
D|--0~---|

Guitar 4:
                                 1_______________
e|-------------------------------------------------------------------|
B|-------------------------------------------------------------------|
G|--7-------(7)~~~~~~~~~~~----(7)b---------------(7)*****************|
D|-------------------------------------------------------------------|
A|-------------------------------------------------------------------|
D|-------------------------------------------------------------------|

+++++++++++++++++++++++++++++++++++++++++++++
Here's the part with that annoying kid singing.
Guitar 1:
e|--------------------------------------------------------------------------|
B|-6---(6)h/18h20p18\5---(5)h/17h18p17\3---(3)h/15h17p15\13h/15h/17h/20p\6--|
G|--------------------------------------------------------------------------|
D|--------------------------------------------------------------------------|
A|--------------------------------------------------------------------------|
D|--------------------------------------------------------------------------|

Guitar 2:
e|-------------------------------------------------------------------------|
B|-------------------------------------------------------------------------|
G|-7---(7)h/14h15p14\6---(6)h/12h14p12\3---(3)h/10h12p10\9--10h/12h/15p\7--|
D|-------------------------------------------------------------------------|
A|-------------------------------------------------------------------------|
D|-------------------------------------------------------------------------|

Guitar 3:
e|-------------10-------------------9-----------------10------------------12-------|
B|-----10----------10----------10-----10--------11-------11---------13-------13----|
G|-10------10----------10----9----9------9---10----10-------10---12----12-------12-|
D|---------------------------------------------------------------------------------|
A|---------------------------------------------------------------------------------|
D|---------------------------------------------------------------------------------|

+++++++++++++++++++++++++++++++++++++++++++++++
Guitar 1:
e|-----------------------------------------------------------|
B|-(6)h/18h20p18p\5--(5)h/17h18p17p\3---(3)h/15h17p15h17p\13-|
G|-----------------------------------------------------------|
D|-----------------------------------------------------------|
A|-----------------------------------------------------------|
D|-----------------------------------------------------------|

Guitar 2:
e|-----------------------------------------------------------------------|
B|-----------------------------------------------------------------------|
G|-(7)h/14h15p14p\6--(6)h/12h14p12p\3---(3)h/10h12p10h12p\9---(9)~~~(9)\-|
D|-----------------------------------------------------------------------|
A|-----------------------------------------------------------------------|
D|-----------------------------------------------------------------------|

Guitar 3:
e|-------------10-------------------9-----------------10------------------12-------|
B|-----10----------10----------10-----10--------11-------11---------13-------13----|
G|-10------10----------10----9----9------9---10----10-------10---12----12-------12-|
D|---------------------------------------------------------------------------------|
A|---------------------------------------------------------------------------------|
D|---------------------------------------------------------------------------------|

++++++++++++++++++++++++++++++++++++++++++++++++
Guitar 1:
                                         1____
e|-------13-17-15-12----------------13-15b----(15)p13p12--13~~~~~~|
B|----13-------------13----------15-------------------------------|
G|-14-------------------12----15----------------------------------|
D|-------------------------15-------------------------------------|
A|----------------------------------------------------------------|
D|----------------------------------------------------------------|

Guitar 2:
                                    .5____
e|-------8-13-12-8--------------10-12b----(12)p10p8--10~~~~~~-|
B|----10-----------8---------11-------------------------------|
G|-10----------------9----10----------------------------------|
D|---------------------12-------------------------------------|
A|------------------------------------------------------------|
D|------------------------------------------------------------|

Guitar 3:
e|--------------------------10----------10-------10----------|
B|-10~-----5~---------11-------11----------11---------11-----|
G|-10~-----5~------10----10-------10----------10---------10--|
D|-10~-----5~------------------------------------------------|
A|--8~-----3~------------------------------------------------|
D|-----------------------------------------------------------|

++++++++++++++++++++++++++++++++++++++++++++++++
Guitar 1:
e|-10h/12-13-12/15-17-15--------------|
B|--------------------------10-15-14\-|
G|-----------------------12-----------|
D|------------------------------------|
A|------------------------------------|
D|------------------------------------|

Guitar 2:
e|-8h/9-10-9/12-13-12\----------------|
B|--------------------------10h11-10\-|
G|---------------------9-10-----------|
D|------------------------------------|
A|------------------------------------|
D|------------------------------------|

Guitar 3:
e|-9-------9------------------9------|
B|---10------10---10---10-------10---|
G|------9-------9---------9--------9-|
D|-----------------------------------|
A|-----------------------------------|
D|-----------------------------------|

+++++++++++++++++++++++++++++++++++++++++++++++
Guitar 1:

e|--------------------------------------------------------------------------|
B|-6---(6)h/18h20p18\5---(5)h/17h18p17\3---(3)h/15h17p15\13h/15h/17h/20p\6--|
G|--------------------------------------------------------------------------|
D|--------------------------------------------------------------------------|
A|--------------------------------------------------------------------------|
D|--------------------------------------------------------------------------|

Guitar 2:
e|-------------------------------------------------------------------------|
B|-------------------------------------------------------------------------|
G|-7---(7)h/14h15p14\6---(6)h/12h14p12\3---(3)h/10h12p10\9--10h/12h/15p\7--|
D|-------------------------------------------------------------------------|
A|-------------------------------------------------------------------------|
D|-------------------------------------------------------------------------|

Guitar 3:
e|-------------10-------------------9-----------------10------------------12-------|
B|-----10----------10----------10-----10--------11-------11---------13-------13----|
G|-10------10----------10----9----9------9---10----10-------10---12----12-------12-|
D|---------------------------------------------------------------------------------|
A|---------------------------------------------------------------------------------|
D|---------------------------------------------------------------------------------|

+++++++++++++++++++++++++++++++++++++++++++++++
Guitar 1:
e|-----------------------------------------------------------|
B|-(6)h/18h20p18p\5--(5)h/17h18p17p\3---(3)h/15h17p15h17p\13-|
G|-----------------------------------------------------------|
D|-----------------------------------------------------------|
A|-----------------------------------------------------------|
D|-----------------------------------------------------------|

Guitar 2:
e|-----------------------------------------------------------------------|
B|-----------------------------------------------------------------------|
G|-(7)h/14h15p14p\6--(6)h/12h14p12p\3---(3)h/10h12p10h12p\9---(9)~~~(9)\-|
D|-----------------------------------------------------------------------|
A|-----------------------------------------------------------------------|
D|-----------------------------------------------------------------------|

Guitar 3:
e|-------------10-------------------9-----------------10------------------12-------|
B|-----10----------10----------10-----10--------11-------11---------13-------13----|
G|-10------10----------10----9----9------9---10----10-------10---12----12-------12-|
D|---------------------------------------------------------------------------------|
A|---------------------------------------------------------------------------------|
D|---------------------------------------------------------------------------------|

++++++++++++++++++++++++++++++++++++++++++++++++
Guitar 1:
                                         1____
e|-------13-17-15-12----------------13-15b----(15)p13p12--13~~~~~~|
B|----13-------------13----------15-------------------------------|
G|-14-------------------12----15----------------------------------|
D|-------------------------15-------------------------------------|
A|----------------------------------------------------------------|
D|----------------------------------------------------------------|

Guitar 2:
                                    .5____
e|-------8-13-12-8--------------10-12b----(12)p10p8--10~~~~~~-|
B|----10-----------8---------11-------------------------------|
G|-10----------------9----10----------------------------------|
D|---------------------12-------------------------------------|
A|------------------------------------------------------------|
D|------------------------------------------------------------|

Guitar 3:
e|--------------------------10----------10-------10----------|
B|-10~-----5~---------11-------11----------11---------11-----|
G|-10~-----5~------10----10-------10----------10---------10--|
D|-10~-----5~------------------------------------------------|
A|--8~-----3~------------------------------------------------|
D|-----------------------------------------------------------|


++++++++++++++++++++++++++++++++++++++++++++++++
Guitar 1:
e|-10h/12-13-12/15-17-15--------------|
B|--------------------------10-15-14\-|
G|-----------------------12-----------|
D|------------------------------------|
A|------------------------------------|
D|------------------------------------|

Guitar 2:
e|-8h/9-10-9/12-13-12\----------------|
B|--------------------------10h11-10\-|
G|---------------------9-10-----------|
D|------------------------------------|
A|------------------------------------|
D|------------------------------------|

Guitar 3:
e|-9-------9------------------9------|
B|---10------10---10---10-------10---|
G|------9-------9---------9--------9-|
D|-----------------------------------|
A|-----------------------------------|
D|-----------------------------------|

++++++++++++++++++++++++++++++++++++++++++++++++
Guitar 1: Play this 3 times.
e|-13--------13--------12--------12--------12--|
B|----15--------15--------15--------15---------|
G|-------14--------14--------14--------14------|
D|---------------------------------------------|
A|---------------------------------------------|
D|---------------------------------------------|

Guitar 2: listen for timing.
e|--13~----------13~-------13~-----13~--|
B|--15~----------15~-------15~------0~--|
G|--14~----------14~-------14~-----14~--|
D|---0~-----------0~--------0~------0~--|
A|---0~-----------0~--------0~------0~--|
D|---0~-----------0~--------0~------0~--|

Please comment and rate this tab.
[travis]


***********************************

END
=============================================================================
Artist: Avenged Sevenfold
Song: Brompton Cocktail


-------------------------------------------------------------------------------
			     "Brompton Cocktail" --- Avenged Sevenfold
-------------------------------------------------------------------------------


Tabbed by: [travis]


Tuning: Drop D: D A D G B E (low to high)


Key: F Major

Legend:
... = palm muted
/ = slide up
\ = slide down
h = hammer on
p = pull off
__ = hold bend
~ = vibrato
() = note barely heard, or bring bent note back to normal
* = feedback
W = wammy bar
-2 = how many steps you push down the wammy bar
h/ = pick once
p\ = pick once
b = bend
1 = full step bend
.5 = half step bend

++++++++++++

The first couple of seconds of this song is just percussion, and
some random feedback.


Intro:
Guitars 1 and 2:
e|-----------------------------------------------------------------------------|
B|-----------------------------------------------------------------------------|
G|-----------------------------------------------------------------------------|
D|-----------------------------------------------------------------------------|
A|-0---------------------------------------------------------------------------|
D|-0--0-0-0-0-3h/8--8--7~~~~--0-3-0-3h/12--0-8-0-7---0--0-0-0-0--3h/8--8-7~~~~-|
      .......                                           .......

Intro Continued:
Guitars 1 and 2:
e|-------------------------|
B|-------------------------|
G|-------------------------|
D|-------------------------|
A|-------------------------|
D|-0--3--0--3h/6--0--3~~~~-|

Play the whole intro twice in all.
+++++++++++++++++++++++++++++++++++++++++++++
Guitars 1 and 2:
"Out of time."


e|----------------------------|
B|----------------------------|
G|----------------------------| x2
D|----------------------------|
A|-0----0----0--0----0--------|
D|-0----0----0--0----0---8~~~-|
   ...................

+++++++++++++++++++++++++++++++++++++++++++++
Verse:
Guitars 1 and 2:
"Doc, I'm Dying..."
e|----------------------------|
B|----------------------------|
G|----------------------------|
D|----------------------------| x4
A|-0----0----0--0----0--------|
D|-0----0----0--0----0---7~~~-|
   ...................

+++++++++++++++++++++++++++++++++++++++++++++
Guitars 1 and 2: Play this once.
e|--------------------------------------------------------------------------------------|
B|--------------------------------------------------------------------------------------|
G|--------------------------------------------------------------------------------------|
D|---------------------------------------------------------------------------3--3--2--2-|
A|-0--0--0--8--0--0--7---0--0--0--5--0--0--7---0--0--0--5--5--3--3--0--0--0--5--5--4--4-|
D|-0--0--0--8--0--0--7---0--0--0--5--0--0--7---0--0--0--5--5--3--3--0--0--0-------------|

++++++++++++++++++++++++++++++++++++++++++++
Guitars 1 and 2: Play this once.
e|--------------------------------------------------------------|
B|--------------------------------------------------------------|
G|--------------------------------------------------------------|
D|--------------------------------------------------------------|
A|--------------8------------7------------------5------------7--|
D|-0-0-0-0-0-0--8---0-0-0-0--7-----0-0-0-0-0-0--5---0-0-0-0--7--|
   ...........      .......        ...........      .......

+++++++++++++++++++++++++++++++++++++++++++++
Guitars 1 and 2: Play this once.
e|---------------------------------------------------------|
B|---------------------------------------------------------|
G|---------------------------------------------------------|
D|------------------------------------------3--3---2----2--|
A|--------------5--5---3--3-----------------5--5---4----4--|
D|-0-0-0-0-0-0--5--5---3--3----0-0-0-0-0-0-----------------|
   ...........                 ...........
+++++++++++++++++++++++++++++++++++++++++++++
Guitars 1 and 2: Play this once.
e|---------------------------------------------------------------|
B|---------------------------------------------------------------|
G|---------------------------------------------------------------|
D|-3----------------3--5---------------5--2---------------2---8--|
A|-5--0-0-0---0-0---5--7--0-0-0--0-0---7--3--0-0-0--0-0---3--10--|
D|----0-0-0---0-0---------0-0-0--0-0---------0-0-0--0-0----------|
      ...........         ..........         ..........

++++++++++++++++++++++++++++++
Guitars 1 and 2: Play this once.
e|------------------------------------------------------------|
B|------------------------------------------------------------|
G|------------------------------------------------------------|
D|---------------8--7---------------7--2---------------2---8--|
A|-0-0-0--0-0---10--8--0-0-0--0-0---8--3--0-0-0--0-0---3--10--|
D|-0-0-0--0-0----------0-0-0--0-0---------0-0-0--0-0----------|
   ..........          ..........         ..........

++++++++++++++++++++++++++++++
Guitars 1 and 2: Play this once.


e|--------------------------------------|
B|--------------------------------------|
G|--------------------------------------|
D|---------------8--7-------7-----2--2--|
A|-0-0-0--0-0---10--8--0-0--8--0--3--3--|
D|-0-0-0--0-0----------0-0-----0--------|
   ..........          ...     .

++++++++++++++++++++++++++++++
Chorus
Guitars 1 and 2: Play this twice.
e|--------------------------------------------------------------------------------|
B|--------------------------------------------------------------------------------|
G|--------------------------------------------------------------------------------|
D|---------14---14-14---12---12--12---12--12-----2----2--2---3--5---7--7-7--------|
A|-0---0---12---12-12---10---10--10---10--10-----3----3--3---3--3---5--5-5---5--5-|
D|-0---0---12---12-12---10---10--10---10--10--0---------------------5--5-5---5--5-|


++++++++++++++++++++++++++++++
Verse 2:
Guitars 1 and 2:
e|----------------------------|
B|----------------------------|
G|----------------------------|
D|----------------------------| x4
A|-0----0----0--0----0--------|
D|-0----0----0--0----0---7~~~-|
   ...................

+++++++++++++++++++++++++++++++++++++++++++++
Guitars 1 and 2: Play this once.
e|--------------------------------------------------------------------------------------|
B|--------------------------------------------------------------------------------------|
G|--------------------------------------------------------------------------------------|
D|---------------------------------------------------------------------------3--3--2--2-|
A|-0--0--0--8--0--0--7---0--0--0--5--0--0--7---0--0--0--5--5--3--3--0--0--0--5--5--4--4-|
D|-0--0--0--8--0--0--7---0--0--0--5--0--0--7---0--0--0--5--5--3--3--0--0--0-------------|

++++++++++++++++++++++++++++++++++++++++++++
Guitars 1 and 2: Play this once.
e|--------------------------------------------------------------|
B|--------------------------------------------------------------|
G|--------------------------------------------------------------|
D|--------------------------------------------------------------|
A|--------------8------------7------------------5------------7--|
D|-0-0-0-0-0-0--8---0-0-0-0--7-----0-0-0-0-0-0--5---0-0-0-0--7--|
   ...........      .......        ...........      .......

+++++++++++++++++++++++++++++++++++++++++++++
Guitars 1 and 2: Play this once.
e|---------------------------------------------------------|
B|---------------------------------------------------------|
G|---------------------------------------------------------|
D|------------------------------------------3--3---2----2--|
A|--------------5--5---3--3-----------------5--5---4----4--|
D|-0-0-0-0-0-0--5--5---3--3----0-0-0-0-0-0-----------------|
   ...........                 ...........
+++++++++++++++++++++++++++++++++++++++++++++
Guitars 1 and 2: Play this once.
e|---------------------------------------------------------------|
B|---------------------------------------------------------------|
G|---------------------------------------------------------------|
D|-3----------------3--5---------------5--2---------------2---8--|
A|-5--0-0-0---0-0---5--7--0-0-0--0-0---7--3--0-0-0--0-0---3--10--|
D|----0-0-0---0-0---------0-0-0--0-0---------0-0-0--0-0----------|
      ...........         ..........         ..........

++++++++++++++++++++++++++++++
Guitars 1 and 2: Play this once.


e|------------------------------------------------------------|
B|------------------------------------------------------------|
G|------------------------------------------------------------|
D|---------------8--7---------------7--2---------------2---8--|
A|-0-0-0--0-0---10--8--0-0-0--0-0---8--3--0-0-0--0-0---3--10--|
D|-0-0-0--0-0----------0-0-0--0-0---------0-0-0--0-0----------|
   ..........          ..........         ..........

++++++++++++++++++++++++++++++
Guitars 1 and 2: Play this once.
e|--------------------------------------|
B|--------------------------------------|
G|--------------------------------------|
D|---------------8--7-------7-----2--2--|
A|-0-0-0--0-0---10--8--0-0--8--0--3--3--|
D|-0-0-0--0-0----------0-0-----0--------|
   ..........          ...     .

++++++++++++++++++++++++++++++
Chorus 2
Guitars 1 and 2: Play this twice.
e|--------------------------------------------------------------------------------|
B|--------------------------------------------------------------------------------|
G|--------------------------------------------------------------------------------|
D|---------14---14-14---12---12--12---12--12-----2----2--2---3--5---7--7-7--------|
A|-0---0---12---12-12---10---10--10---10--10--0--3----3--3---3--3---5--5-5---5--5-|
D|-0---0---12---12-12---10---10--10---10--10--0---------------------5--5-5---5--5-|

++++++++++++++++++++++++++++++
Guitars 1 and 2: Play this once.
"And I take my life tonight..."
e|----------------------------------------------------------------------------|
B|------------------------------------------3-3-3-3-3-3-3-3-------------------|
G|-9-9-9-9-9-9-9----------------------------5-5-5-5-5-5-5-5-------------------|
D|-7-7-7-7-7-7-7---12-12-12-12-12-12-12-12--5-5-5-5-5-5-5-5-------------------|
A|-5-5-5-5-5-5-5---10-10-10-10-10-10-10-10--3-3-3-3-3-3-3-3--3h/5-5-5-5-5-5-0-|
D|-0-0-0-0-0-0-0---10-10-10-10-10-10-10-10--3-3-3-3-3-3-3-3--3h/5-5-5-5-5-5-0-|

++++++++++++++++++++++++++++++
Guitars 1 and 2:
"And leave how I arrived. So alive..."
e|---------------------------------------------------------------------------|
B|------------------------------------------3-3-3-3-3-3-3-3------------------|
G|-9-9-9-9-9-9-9----------------------------5-5-5-5-5-5-5-5------------------|
D|-7-7-7-7-7-7-7---12-12-12-12-12-12-12-12--5-5-5-5-5-5-5-5------------------|
A|-5-5-5-5-5-5-5---10-10-10-10-10-10-10-10--3-3-3-3-3-3-3-3--5-5-5-5-5-5-5-5-|
D|-0-0-0-0-0-0-0---10-10-10-10-10-10-10-10--3-3-3-3-3-3-3-3--5-5-5-5-5-5-5-5-|

++++++++++++++++++++++++++++++
Cool Riff:
Guitars 1 and 2: Play this twice.
e|----------------------------------------------------|
B|----------------------------------------------------|
G|----------------------------------------------------|
D|----------------------------------------------------|
A|-/8-7-----8-7-----7---7-8\-5-3-----5-3-----3---3-5/-|
D|------0-0-----0-0---0----------2-2-----2-2---2------|
        ...     ...   .          ...     ...   .

++++++++++++++++++++++++++++++
Guitars 1 and 2: Play this once.
e|-----------------------------------------------------------|
B|-----------------------------------------------------------|
G|-----------------------------------------------------------|
D|-----------------------------------------------------------|
A|-/12-10-----12-10-----10---10-12\-10-8-----10-8-----8---8\-|
D|--------8-8-------8-8----8-------------6-6------6-6---6----|
          ...       ...    .             ...      ...   .

++++++++++++++++++++++++++++++++
Guitars 1 and 2: Play this twice.

e|----------------------------------------------------|
B|----------------------------------------------------|
G|----------------------------------------------------|
D|----------------------------------------------------|
A|-/8-7-----8-7-----7---7-8\-5-3-----5-3-----3---3-5/-|
D|------0-0-----0-0---0----------2-2-----2-2---2------|
        ...     ...   .          ...     ...   .


Guitar 3: The * means feedback.
e|------------------------------------------------------------------------|
B|------------------------------------------------------------------------|
G|-5h/7~~~~~--5--5h/9----(9)\5---(5)*~~~~~(5)\2---5---(5)h/7~~~~~(7)p\5/9-|
D|------------------------------------------------------------------------|
A|------------------------------------------------------------------------|
D|------------------------------------------------------------------------|

++++++++++++++++++++++++++++++
Guitars 1 and 2: Play this once.
e|-----------------------------------------------------------|
B|-----------------------------------------------------------|
G|-----------------------------------------------------------|
D|-----------------------------------------------------------|
A|-/12-10-----12-10-----10---10-12\-10-8-----10-8-----8---8\-|
D|--------8-8-------8-8----8-------------6-6------6-6---6----|
          ...       ...    .             ...      ...   .

Guitar 3:
e|-------------------------------------------------------------------------|
B|-------------------------------------------------------------------------|
G|-(9)p\5*~~~~(5)p\2---5--(5)h/7~~~~(7)*h/9--(9)h/10*-(10)h/12h/13*--13~~~-|
D|-------------------------------------------------------------------------|
A|-------------------------------------------------------------------------|
D|-------------------------------------------------------------------------|


++++++++++++++++++++++++++++++++++
Pre Solo:
Guitars 1 and 2:
e|---------------------------------------------------|
B|---------------------------------------------------|
G|---------------------------------------------------|
D|----------------------------------------5\2--2---3-|
A|-0---2----(2)/8---5---7\3----5------0---7\4--4---5-|
D|-0---2----(2)/8---5---7\3----5------0--------------|


Guitar 3: The W means push the wammy bar down.
                           1                                -2
e|------------------------------------------------------------------|
B|------------------------------------------------------------------|
G|-(13)h/15--(15)h/17--(17)b----(17)~~~~~~~~~~(17)*~~~~~~(17)w\-----|
D|-------------------------------------------------------------\----|
A|--------------------------------------------------------------\---|
D|---------------------------------------------------------------\--|

+++++++++++++++++++++++++++++++++
Solo:
Guitars 1 and 2: Play this riff twice over whole solo.
e|---------------------------------------------------|
B|---------------------------------------------------|
G|---------------------------------------------------|
D|----------------------------------------5\2--2---3-|
A|-0---2----(2)/8---5---7\3----5------0---7\4--4---5-|
D|-0---2----(2)/8---5---7\3----5------0--------------|

Guitar 3: use a wah wah pedal.
     1______  1__________  1______  1____________
e|-17--------------------17-------17-------------|
B|-20b------20b~~~~~~~~~~20b------20b~~~~~~~~~~~~|
G|-----------------------------------------------|
D|-----------------------------------------------|
A|-----------------------------------------------|
D|-----------------------------------------------|


+++++++++++++++++++++++++++++++++++
Guitar 3: rock the wah wah pedal back and forth real fast.
e|-----------------------------8h/13\----------14p13h15p13---------|
B|-----10h13----10p8-10p8-11p9-------11p9-13p10-----------11h13p11-|
G|-9h10-----9h10---------------------------------------------------|
D|-----------------------------------------------------------------|
A|-----------------------------------------------------------------|
D|-----------------------------------------------------------------|

+++++++++++++++++++++++++++++++++++
Guitar 3: rock the wah wah pedal back and forth real fast.
                                                             1_____________
e|-------10-----------------------------------------------------------------|
B|-10-13----13-10-------------------10----------10---------13b~~~~~~~~~~~~~-|
G|----------------13-12-10-12-10h12----12p10-12----9-12---------------------|
D|------------------------------------------------------12------------------|
A|--------------------------------------------------------------------------|
D|--------------------------------------------------------------------------|

+++++++++++++++++++++++++++++++++++
Guitars 1 and 2: Play this once.
e|---------------------------------------------------------------|
B|---------------------------------------------------------------|
G|---------------------------------------------------------------|
D|-3----------------3--5---------------5--2---------------2---8--|
A|-5--0-0-0---0-0---5--7--0-0-0--0-0---7--3--0-0-0--0-0---3--10--|
D|----0-0-0---0-0---------0-0-0--0-0---------0-0-0--0-0----------|
      ...........         ..........         ..........

++++++++++++++++++++++++++++++
Guitars 1 and 2: Play this once.
e|------------------------------------------------------------|
B|------------------------------------------------------------|
G|------------------------------------------------------------|
D|---------------8--7---------------7--2---------------2---8--|
A|-0-0-0--0-0---10--8--0-0-0--0-0---8--3--0-0-0--0-0---3--10--|
D|-0-0-0--0-0----------0-0-0--0-0---------0-0-0--0-0----------|
   ..........          ..........         ..........

++++++++++++++++++++++++++++++
Guitars 1 and 2: Play this once.
e|--------------------------------------|
B|--------------------------------------|
G|--------------------------------------|
D|---------------8--7-------7-----2--2--|
A|-0-0-0--0-0---10--8--0-0--8--0--3--3--|
D|-0-0-0--0-0----------0-0-----0--------|
   ..........          ...     .

++++++++++++++++++++++++++++++
Chorus 3:
Guitars 1 and 2: Play this twice.
e|--------------------------------------------------------------------------------|
B|--------------------------------------------------------------------------------|
G|--------------------------------------------------------------------------------|
D|---------14---14-14---12---12--12---12--12-----2----2--2---3--5---7--7-7--------|
A|-0---0---12---12-12---10---10--10---10--10--0--3----3--3---3--3---5--5-5---5--5-|
D|-0---0---12---12-12---10---10--10---10--10--0---------------------5--5-5---5--5-|

++++++++++++++++++++++++++++++
Guitars 1 and 2: Play this once.
"And I take my life tonight..."
e|----------------------------------------------------------------------------|
B|------------------------------------------3-3-3-3-3-3-3-3-------------------|
G|-9-9-9-9-9-9-9----------------------------5-5-5-5-5-5-5-5-------------------|
D|-7-7-7-7-7-7-7---12-12-12-12-12-12-12-12--5-5-5-5-5-5-5-5-------------------|
A|-5-5-5-5-5-5-5---10-10-10-10-10-10-10-10--3-3-3-3-3-3-3-3--3h/5-5-5-5-5-5-0-|
D|-0-0-0-0-0-0-0---10-10-10-10-10-10-10-10--3-3-3-3-3-3-3-3--3h/5-5-5-5-5-5-0-|

++++++++++++++++++++++++++++++
Guitars 1 and 2:
"And leave how I arrived. So alive..."


e|---------------------------------------------------------------------------|
B|------------------------------------------3-3-3-3-3-3-3-3------------------|
G|-9-9-9-9-9-9-9----------------------------5-5-5-5-5-5-5-5------------------|
D|-7-7-7-7-7-7-7---12-12-12-12-12-12-12-12--5-5-5-5-5-5-5-5------------------|
A|-5-5-5-5-5-5-5---10-10-10-10-10-10-10-10--3-3-3-3-3-3-3-3--5-5-5-5-5-5-5-5-|
D|-0-0-0-0-0-0-0---10-10-10-10-10-10-10-10--3-3-3-3-3-3-3-3--5-5-5-5-5-5-5-5-|

++++++++++++++++++++++++++++++
Outro:
Guitars 1 and 2:
              x2                End of 2nd time only.
e|---------------------------|-|-----|
B|---------------------------|O|-----|
G|---------------------------|-|-----|
D|---------------------------|-|--3--|
A|-0----0----0--0----0-------|O|--0--|
D|-0----0----0--0----0---8~~~|-|--0--|
   ...................

Please Rate And Comment My Tab.
[travis]


END


=============================================================================
Artist: Avenged Sevenfold
Song: Lost


Lost
Avenged Sevenfold


Transcribed by Seth "Shadows" Sanders {F.u.c.kallyourfalsebeauty@hotmail.com}

Dropped D (D A D G B E)

D5
x 5 7 7 x x

C5
x 3 5 5 x x

Bb5
x 1 3 3 x x

D5(type 2)
x 5 7 x x x

C5(type 2)
x 3 5 x x x

Bb5(type 2)
x 1 3 x x x


Gtr I (D A D G B E) - 'Rhythm I'
Gtr II (D A D G B E) - 'Rhythm II'
Gtr III (D A D G B E) - 'Lead I'
Gtr IV (D A D G B E) - 'Lead II'
Gtr V (D A D G B E) - 'Lead III'
Gtr VI (D A D G B E) - 'Lead IV'


 Intro
  Q=92
 4/4
  Gtr III
    ~~~    ~                        ~~~~~~~~~~~~~~~~~~~~~~~~~~~
    E S  S E  E E  E    E  E    a   W
|-----------------------------|-8s=10-------------------------|
|---------------------/10-10\-|-------------------------------|
|-----9h10p9----9h10\---------|-------------------------------|
|-/12--------12---------------|-------------------------------|
|-----------------------------|-------------------------------|
|-----------------------------|-------------------------------|
|
| Gtr IV
|                                   ~~~    ~
|   W                               E S  S E  E E  E    E  E
|-----------------------------|-------------------------------|
|-----------------------------|-----------------------/10-10\-|
|-----------------------------|-------9h10p9----9h10\---------|
|-----------------------------|---/12--------12---------------|
|-----------------------------|-------------------------------|
|-----------------------------|-------------------------------|


 ~~~~~~~     ~                        ~~~
      E S  S E  E E  E    E  E    a   W

|-------------------------------|-8s=10--------------------------|
|-----------------------/10-10\-|--------------------------------|
|-------9h10p9----9h10\---------|--------------------------------|
|---/12--------12---------------|--------------------------------|
|-------------------------------|--------------------------------|
|-------------------------------|--------------------------------|
|
|     ~~~~~~~~~~~~~~~~~~~~~~~~~~~~~~~~~~     ~
| a   W                               E S  S E  E E  E    E  E
|-8s=10-------------------------|--------------------------------|
|-------------------------------|-----------------------/10-10\--|
|-------------------------------|-------9h10p9----9h10\----------|
|-------------------------------|---/12--------12----------------|
|-------------------------------|--------------------------------|
|-------------------------------|--------------------------------|


  Gtr II
    W                                   E S  S E  E E  E    E  E
    |                                   | |  | |  | |  |    |  |
    o                                   o o  o o  o o  o    o  o

  Gtr V
    ~~~      ~~                         ~~~~~~~~~~~~~~~~~~~~~~~~~~~
    E  S  S  E  E  E  E    E  E     a   W
|--------------------------------|--8s=10-------------------------|
|------------------------/10-10\-|--------------------------------|
|------9h10p=9-----9h10\---------|--------------------------------|
|-/12----------12----------------|--------------------------------|
|--------------------------------|--------------------------------|
|--------------------------------|--------------------------------|
|
| Gtr IV
|   ~~~~~~~~~~~~~~~~~~~~~~~~~~~~~~~~~~~~~~     ~
|   W                                   E S  S E  E E  E    E  E
|-/10----------------------------|--------------------------------|
|--------------------------------|------------------------/10-10\-|
|--------------------------------|--------9h10p9----9h10\---------|
|--------------------------------|----/12--------12---------------|
|--------------------------------|--------------------------------|
|--------------------------------|--------------------------------|
|
| Gtr I
|                                       ~~~
|   E  S  S  E  E  E  E    E  E     a   W
|--------------------------------|-10s=13-------------------------|
|------------------------/15-15\-|--------------------------------|
|-----12h14p12----12h14\---------|--------------------------------|
|-/15----------15----------------|--------------------------------|
|--------------------------------|--------------------------------|
|--------------------------------|--------------------------------|


      W                                   E  S  S E  E E  E    E  E
      |                                   |  |  | |  | |  |    |  |
      o                                   o  o  o o  o o  o    o  o

 ~~~~~~~       ~~                         ~~~~
      E  S  S  E  E  E  E    E  E     a   W
|----------------------------------|--8s=10----------------------------|
|--------------------------/10-10\-|-----------------------------------|
|--------9h10p=9-----9h10\---------|-----------------------------------|
|---/12----------12----------------|-----------------------------------|
|----------------------------------|-----------------------------------|
|----------------------------------|-----------------------------------|
|
|     ~~~~~~~~~~~~~~~~~~~~~~~~~~~~~~~~~~~~~~~     ~
| a   W                                   E  S  S E  E E  E    E  E
|-8s=10----------------------------|-----------------------------------|
|----------------------------------|-------------------------/10-10\---|
|----------------------------------|---------9h10p9----9h10\-----------|
|----------------------------------|----/12---------12-----------------|
|----------------------------------|-----------------------------------|
|----------------------------------|-----------------------------------|
|

|                                         ~~~~
|     E  S  S  E  E  E  E    E  E     a   H.                   E  E
|----------------------------------|-10s=13-------------------13p12\---|
|--------------------------/15-15\-|-----------------------------------|
|-------12h14p12----12h14\---------|-----------------------------------|
|---/15----------15----------------|-----------------------------------|
|----------------------------------|-----------------------------------|
|----------------------------------|-----------------------------------|


    H                  H                  E  E   E  S  S  E  S  S  E   E
    |                  |                  |  |   |  |  |  |  |  |  |   |
    o                  o                  o  o   o  o  o  o  o  o  o   o

  Gtr III
                                             ~~~
    E     E  E  S  S   E   S  S  E  E     E  H.                       +E
|-/10---------------------------------|------------------------------------|
|--------11----11---------------------|------------------------------------|
|-----------12----12------12----------|------------------------------------|
|---------------------12-----12-------|------8------------------------(8)\-|
|-------------------------------13p10-|---8--------------------------------|
|-------------------------------------|------------------------------------|
|
| Gtr I
|                                            ~~~
|   E     E  E  S  S   E   S  S  E  E     E  H.                       +E
|-------------------------------------|------------------------------------|
|-/11---------------------------------|------------------------------------|
|--------12----12---------------------|------------------------------------|
|-----------12----12------12----------|------------------------------------|
|---------------------13-----13p10----|--12p10-----------------------(10)\-|
|----------------------------------13-|------------------------------------|
|
| Gtr IV
|                      ~~~~
|   H                 +H                  E  E   E  S  S  E  S  S  E   E
|-------------------------------------|-/10--------------------------------|
|--10b11-------------(10)-------------|-----11-----11----------------------|
|-------------------------------------|---------12----12----12-------------|
|-------------------------------------|------------------12----12----------|
|-------------------------------------|---------------------------13p=10s==|
|-------------------------------------|------------------------------------|


    W                                E  E   E  S  S  E  S  S  E   E
    |                                |  |   |  |  |  |  |  |  |   |
    o                                o  o   o  o  o  o  o  o  o   o

                                        ~~~
    E  E  E  S  S  E  S  S  E  E     E  H.                       +E
|-/10----------------------------|-------------------------------------||
|-----11----11-------------------|-------------------------------------||
|--------12----12----12----------|-------------------------------------||
|-----------------12----12-------|------8------------------------(8)\--||
|--------------------------13p10-|---8---------------------------------||
|--------------------------------|-------------------------------------||
|
|                                       ~~~
|   E  E  E  S  S  E  S  S  E  E     E  H.                       +E
|--------------------------------|-------------------------------------||
|-/11----------------------------|-------------------------------------||
|-----12----12-------------------|-------------------------------------||
|--------12----12----12----------|-----12-----------------------(12)\--||
|-----------------13----13p10----|--12---------------------------------||
|-----------------------------13-|-------------------------------------||
|
|   ~~~
|   W                                E  E   E  S  S  E  S  S  E   E
|--------------------------------|-/10---------------------------------||
|--------------------------------|-----11-----11-----------------------||
|--------------------------------|---------12----12----12--------------||
|--------------------------------|------------------12----12-----------||
|--12----------------------------|---------------------------13p=10----||
|--------------------------------|-------------------------------------||


 Pre-Verse
  D5(type 2)                   C5(type 2)    Bb5(type 2)                 C5(type
  Gtrs I, II
   S  S S  S S S  S S S S  S S  S  S  S S     S S S  S S S  S S S S  S S  E  E
   |  | |  | | |  | | | |  | |  |  |  | |     | | |  | | |  | | | |  | |  |  |
   /  / /  / / /  / / / /  / /  /  /  / /     / / /  / / /  / / / /  / /  /  /

  Gtr III
   ~~~       ~~                               ~~~~~~~~~~~~~~~~~~~~~~~~~~~~~~~~~~
   E    S  S E    E   E    E    E     E       W
|------------------------------10----10---|--13--------------------------------|
|-------8h10p8--------8h==10---10----10---|--15--------------------------------|
|-10----9h10p9---10---9h==10--------------|------------------------------------|
|-12-------------12-----------------------|------------------------------------|
|-----------------------------------------|------------------------------------|
|-----------------------------------------|------------------------------------|
|  E    S  S E    E   E    E    E     E       W
|   ^^^^^^^^^^^^^^^^^^^^^^^^^^ LOWER AND HIGHER MELODIES
| Gtr IV
|  ~~~                                        ~~       ~~
|  H.                           Q             E   S  S E    E   E    E    E  E
|-----------------------------------------|------------------------------17-15-|
|-----------------------------------------|-------8h10p8--------8h==10---18-17-|
|-----------------------------------------|--10---9h10p9---10---9h==10---------|
|-----------------------------------------|--12------------12------------------|
|-/8----------------------------7\--------|------------------------------------|
|-----------------------------------------|------------------------------------|
                                              E   S  S E    E   E    E    E  E


  D5(type 2)                  C5(type 2)  Bb5(type 2)                 C5(type 2)
   S S S  S S S  S S S S  S S  S S  S S    S S S  S S S  S S S S  S S  E  E
   | | |  | | |  | | | |  | |  | |  | |    | | |  | | |  | | | |  | |  |  |
   / / /  / / /  / / / /  / /  / /  / /    / / /  / / /  / / / /  / /  /  /

 ~~~~       ~~                             ~~
   E   S  S E    E   E    E    E    E      W
|-----------------------------10---10---|-13---------------------------------|
|------8h10p8--------8h==10---10---10---|-15---------------------------------|
|-10---9h10p9---10---9h==10-------------|------------------------------------|
|-12------------12----------------------|------------------------------------|
|---------------------------------------|------------------------------------|
|---------------------------------------|------------------------------------|
|  E   S  S E    E   E    E    E    E      W
|
|  ~~~~~~~~~~~~~~~~~~~~~~~~~~~~~~~~~~~~~~~~~~       ~~
|  W                                       E   S  S E    E   E    E    E  E
|-13------------------------------------|-----------------------------13-15--|
|-15------------------------------------|------8h10p8--------8h==10---15-17--|
|---------------------------------------|-10---9h10p9---10---9h==10----------|
|---------------------------------------|-12------------12-------------------|
|---------------------------------------|------------------------------------|
|---------------------------------------|------------------------------------|
   W                                       E   S  S E    E   E    E    E  E


  D5(type 2)                          C5(type Bb5(type 2)                       C5(type 2)D5(type
  Gtrs I, II
   S    S  S S  S S  S  S   S  S  S  S  E  E    S    S  S  S  S S  S  S   S  S  S  S  E  E
   |    |  | |  | |  |  |   |  |  |  |  |  |    |    |  |  |  | |  |  |   |  |  |  |  |  |
   /    /  / /  / /  /  /   /  /  /  /  /  /    /    /  /  /  / /  /  /   /  /  /  /  /  /

  Gtr III
                                                        ~~~
   E       E    E    S  S   E     S  S  E  E    E       H.                              +E
|-10-----------------------------------------|-----------------------------------------------|
|-11------11--------11-----------------------|-----------------------------------------------|
|---------12---12---12-12--------12----------|-----------------------------------------------|
|--------------12------12--12----12-12-------|----------8-------------------------------(8)\-|
|--------------------------13-------13-13p10-|--8--------------------------------------------|
|--------------------------------------17-13-|-----------------------------------------------|
|  E       E    E    S  S   E     S  S  E  E
|
| Gtr IV

|                           ~~~~
|  H                       +H                   E       E     E    S  S   E     S  S  E  E
|--------------------------------------------|-10--------------------------------------------|
|-10b11-------------------(10)---------------|-11------11---------11-------------------------|
|--------------------------------------------|---------12----12---12-12--------12------------|
|--------------------------------------------|---------------12------12--12----12-12---------|
|--------------------------------------------|---------------------------13-------13-13p10---|
|--------------------------------------------|---------------------------------------17-13---|
|                                               E       E     E    S  S   E     S  S  E  E
|
| Gtr V
|                           ~~~~                                          ~~~~
|  H                       +H                   H                        +H
|--8b10--------------------(8)---------------|-----------------------------------------------|
|--------------------------------------------|-10b11--------------------(10)-----------------|
|--------------------------------------------|-----------------------------------------------|
|--------------------------------------------|-----------------------------------------------|
|--------------------------------------------|-----------------------------------------------|
|--------------------------------------------|-----------------------------------------------|


          2)                           C5(type 2)Bb5(type 2)                             C5(type 2)
   S    S  S  S  S S  S  S  S  S  S  S  E  E      S    S  S  S  S S  S  S   S    S  S  S  E  E
   |    |  |  |  | |  |  |  |  |  |  |  |  |      |    |  |  |  | |  |  |   |    |  |  |  |  |
   /    /  /  /  / /  /  /  /  /  /  /  /  /      /    /  /  /  / /  /  /   /    /  /  /  /  /

                                                          ~~~
   E       E     E    S  S  E     S  S  E  E      E       H.                                +E
|-10-------------------------------------------|-------------------------------------------------||
|-11------11---------11------------------------|-------------------------------------------------||
|---------12----12---12-12-------12------------|-------------------------------------------------||
|---------------12------12-12----12-12---------|----------8---------------------------------(8)\-||
|--------------------------13-------13-13p10---|--8----------------------------------------------||
|--------------------------------------17-13---|-------------------------------------------------||
|  E       E     E    S  S  E     S  S  E  E
|
|          ~~~
|  E       H.                             +E      E       E     E    S  S   E       S  S  E  E
|----------------------------------------------|-10----------------------------------------------||
|----------------------------------------------|-11------11---------11---------------------------||
|----------------------------------------------|---------12----12---12-12----------12------------||
|----------8------------------------------(8)\-|---------------12------12--12------12-12---------||
|--8-------------------------------------------|---------------------------13---------13-13p10\--||
|----------------------------------------------|-----------------------------------------17-13\--||
|                                                 E       E     E    S  S   E       S  S  E  E
|
|                                                                           \1.5
|                           ~~~
|  H                       +H                     H                        +H
|--8b10--------------------(8)-----------------|-------------------------------------------------||
|----------------------------------------------|-10b11--------------------(10)-------------------||
|----------------------------------------------|-------------------------------------------------||
|----------------------------------------------|-------------------------------------------------||
|----------------------------------------------|-------------------------------------------------||
|----------------------------------------------|-------------------------------------------------||


 Post-Verse
  Gtr II
  PM----------|     PM------|   PM--------|   PM--|   PM  PM---
  T   T T T T T S T T T T T T S T T T T T T S T T T T T T T T
|-------------------------------------------------------------|
|-------------------------------------------------------------|
|-------------------------------------------------------------|
|-7---7-7-7-7-7-8-7-5-5-5-5-5-7-------------5-------5---5-----|
|-------------------------------8-8-8-8-8-8---7-7-7---7---7-7-|
|-------------------------------------------------------------|
|
| Gtr I
|                                                     PM-------
| H..                                                 S   S

|-------------------------------------------------------------|
|-------------------------------------------------------------|
|-------------------------------------------------------------|
|-------------------------------------------------------------|
|-----------------------------------------------------0---0---|
|-----------------------------------------------------0---0---|


 ------------|     PM------|   PM--------|   PM|   PM  PM--|
  T T T T T  T S T T T T T T S T T T T T T S T T T T T T T T
|------------------------------------------------------------||
|------------------------------------------------------------||
|------------------------------------------------------------||
|-7-7-7-7-7--7-8-7-5-5-5-5-5-7-------------5-----5---5-------||
|------------------------------8-8-8-8-8-8---7-7---7---7-5-7-||
|------------------------------------------------------------||
|
|--------------------------------------------------------|
| e       H.                                         S   S
|------------------------------------------------------------||
|------------------------------------------------------------||
|------------------------------------------------------------||
|------------------------------------------------------------||
|-0--------------------------------------------------0---0---||
|-0--------------------------------------------------0---0---||


   Verse
    Gtrs I, II
    S S S S S S  S S  S S S S  S S S S    S S S S  S S S S  S S S S  S S  S S
||-------------------------------------|---------------------------------------|
||o------------------------------------|---------------------------------------|
||-------------------------------------|--3-3-3-3--3-3-3-3---------------------|
||--0-0-0-0-0-0--0-0--5-5-5-5--5-5-5-5-|--3-3-3-3--3-3-3-3--3-3-3-3--3-3--3-3--|
||o-0-0-0-0-0-0--0-0--5-5-5-5--5-5-5-5-|--1-1-1-1--1-1-1-1--3-3-3-3--3-3--3-3--|
||--0-0-0-0-0-0--0-0--5-5-5-5--5-5-5-5-|--------------------3-3-3-3--3-3--3-3--|
|
|   Gtr V
|   Q       E    E    Q        Q          Q        Q        Q        E    E
||-------------------------------------|---------------------------------------|
||o------------------------------------|---------------------------------------|
||--7-------9---10---15-------15-------|-15-------17-------10-------12---14----|
||--x-------x----x----x--------x-------|--x--------x--------x--------x----x----|
||o-5-------7----8---13-------13-------|-13-------15--------8-------10---12----|
||-------------------------------------|---------------------------------------|


   S S S S  S S  S S  S S S S  S S  S S    E E  E  E  S S S S  S S  S S
|---------------------------------------|--------------------------------||
|---------------------------------------|-------------------------------o||
|---------------------7-7-7-7--7-7--7-7-|--------------------------------||
|--7-7-7-7--7-7--7-7--8-8-8-8--8-8--8-8-|--2-2--2--2--3-3-3-3--3-3--3-3--||
|--5-5-5-5--5-5--5-5--5-5-5-5--5-5--5-5-|--3-3--3--3--3-3-3-3--3-3--3-3-o||
|--4-4-4-4--4-4--4-4--------------------|--2-2--2--2--3-3-3-3--3-3--3-3--||
|
|  Q        E    E    Q        E    E      Q    E  E  Q        E    E
|---------------------------------------|--------------------------------||
|---------------------------------------|-------------------------------o||
|-14-------14---14---15-------14---15---|-12---12-12-14-------12---14----||
|--x--------x----x----x--------x----x---|--x----x--x--x--------x----x----||
|-12-------12---12---13-------12---13---|-10---10-10-12-------10---12---o||
|---------------------------------------|--------------------------------||


 Pre-Chorus
   S S  S S S E    S  S S S S S E S    S S  S S  S E    S  S S E E E
|-----------------------------------|--------------------------------|
|-----------------------------------|--------------------------------|
|--3-3--3-3-3-3----3----------------|--------------------------------|
|--3-3--3-3-3-3----3--1-1-1-1-1-1-1-|--2-2--2-2--2-2----2--3-3-3-3-3-|
|--1-1--1-1-1-1----1--1-1-1-1-1-1-1-|--3-3--3-3--3-3----3--3-3-3-3-3-|
|---------------------1-1-1-1-1-1-1-|--2-2--2-2--2-2----2--3-3-3-3-3-|
|
|  E    E   E    E    H                E    E    E    E    H


|-----------------------------------|--------------------------------|
|-----------------------------------|--------------------------------|
|-10---10---9---10---12-------------|-12---12---10---12---14---------|
|--x----x---x----x----x-------------|--x----x----x----x----x---------|
|--8----8---7----8---10-------------|-10---10----8---10---12---------|
|-----------------------------------|--------------------------------|


  Gtrs I, II
  PM--------|     PM------|   PM----------------|       ~
  T T T T T T S T T T T T T S T T T T T T S T T T T T T S
|----------------------------------------------------------||
|----------------------------------------------------------||
|----------------------------------------------------------||
|-7-7-7-7-7-7-8-7-5-5-5-5-5-7---------------------5-5-8-8--||
|-----------------------------8-8-8-8-8-8-5-5-7-7----------||
|----------------------------------------------------------||


   Chorus
    Gtr IV
     S  S  S  S  S  S  S  S  S  S  S  S  S  S  S  S
||--------------------------------------------------|
||o-11p10-------11p10-13p10-11p10-------11p10-13p10-|
||--------10----------------------10----------------|
||-----------10----------------------10-------------|
||o-------------------------------------------------|
||--------------------------------------------------|
|
|   Gtrs I, II
|    S  S  S  S  S  S  E     S  S  S  S  S  S  E
||--------------------------------------------------|
||o-------------------------------------------------|
||--------------------------------------------------|
||---3--3--3--3--3--3--3-----3--3--3--3--3--3--3----|
||o--3--3--3--3--3--3--3-----3--3--3--3--3--3--3----|
||---3--3--3--3--3--3--3-----3--3--3--3--3--3--3----|


   S  S  S  S  S  S  S  S  S  S  S  S  S  S  S  S
|-13p12-------13p12-15p12-13p12-------13h17-15h18--|
|-------13----------------------13-----------------|
|----------12----------------------12--------------|
|--------------------------------------------------|
|--------------------------------------------------|
|--------------------------------------------------|
|
|  S  S  S  S  S  S  E     S  S  S  S  S  S  E
|--------------------------------------------------|
|--------------------------------------------------|
|--5--5--5--5--5--5--5-----5--5--5--5--5--5--5-----|
|--5--5--5--5--5--5--5-----5--5--5--5--5--5--5-----|
|--3--3--3--3--3--3--3-----3--3--3--3--3--3--3-----|
|--------------------------------------------------|


                                                    1.
   S  S  S  S  S  S  S  S  S  S  S  S  S  S  S  S    S  S  S  S  S  S  S  S  S  S  S  S  S  S
|15----------------15-18-15----------------17-18-|-------------------------------------------15----|
|15----------15----------15----------15-------|-18-------17-------------18p17-------18p17----17-o--|
|-------15----15----------------15----15----------|----17-------17----------------17---------------|
|----------17----------------------17-------------|-------17-------17p15-------------17------------|
|-------------------------------------------------|----------------------17------------------o-----|
|-------------------------------------------------|------------------------------------------------|
|
|  S  S  S  S  S  S  E     S  S  S  S  S  S  S  S    S  S  S  S  E     E     S  S  S  S  S  S  S
|-------------------------------------------------|----------------------------------------------|
|-------------------------------------------------|-------------------------------------------o--|
|-------------------------------------------|--3--3--3--3--3-----3-----5--5--5--5--5--5--5--5----|
|5--5--5--5--5--5--5-----5--5--5--5--5--5--5--5-|--3--3--3--3--3---3---5--5--5--5--5--5--5--5----|
|5--5--5--5--5--5--5---5--5--5--5--5--5--5--5-|--1--1--1--1--1----1---3--3--3--3--3--3--3--3-o---|
|--5--5--5--5--5--5--5-----5--5--5--5--5--5--5--5-|----------------------------------------------|


  2.

   S  S  S  S  S  S  S  S  S  S  S  S  S  S  S  S
|-------------------------------------------17h18-||
|-18-------17-------------18p17-------18p17-------||
|----17-------17----------------17----------------||
|-------17-------17p15-------------17-------------||
|----------------------17-------------------------||
|-------------------------------------------------||
|
|  S  S  S  S  E     E     S  S  S  S  q
|-------------------------------------------------||
|-------------------------------------------------||
|--3--3--3--3--3-----3-----5--5--5--5--5----------||
|--3--3--3--3--3-----3-----5--5--5--5--5----------||
|--1--1--1--1--1-----1-----3--3--3--3--3----------||
|-------------------------------------------------||


 Pre-Verse
  D5(type 2)                  C5(type 2)  Bb5(type 2)                 C5(type
  Gtrs I, II
   S S S  S S S  S S S S  S S  S S  S S    S S S  S S S  S S S S  S S  E  E
   | | |  | | |  | | | |  | |  | |  | |    | | |  | | |  | | | |  | |  |  |
   / / /  / / /  / / / /  / /  / /  / /    / / /  / / /  / / / /  / /  /  /

  Gtr III
   ~~       ~~                             ~~~~~~~~~~~~~~~~~~~~~~~~~~~~~~~~~~
   E   S  S E    E   E    E    E    E      W
|-----------------------------10---10---|-13--------------------------------|
|------8h10p8--------8h==10---10---10---|-15--------------------------------|
|-10---9h10p9---10---9h==10-------------|-----------------------------------|
|-12------------12----------------------|-----------------------------------|
|---------------------------------------|-----------------------------------|
|---------------------------------------|-----------------------------------|
|  E   S  S E    E   E    E    E    E      W
|
| Gtr IV
|                                          ~~       ~~
|  W                                       E   S  S E    E   E    E    E  E
|---------------------------------------|-----------------------------17-15-|
|---------------------------------------|------8h10p8--------8h==10---18-17-|
|---------------------------------------|-10---9h10p9---10---9h==10---------|
|---------------------------------------|-12------------12------------------|
|---------------------------------------|-----------------------------------|
|---------------------------------------|-----------------------------------|
                                           E   S  S E    E   E    E    E  E


  D5(type 2)                  C5(type 2)  Bb5(type 2)                 C5(type 2)
   S S S  S S S  S S S S  S S  S S  S S    S S S  S S S  S S S S  S S  E  E
   | | |  | | |  | | | |  | |  | |  | |    | | |  | | |  | | | |  | |  |  |
   / / /  / / /  / / / /  / /  / /  / /    / / /  / / /  / / / /  / /  /  /

 ~~~~       ~~                             ~~
   E   S  S E    E   E    E    E    E      W
|-----------------------------10---10---|-13----------------------------------|
|------8h10p8--------8h==10---10---10---|-15----------------------------------|
|-10---9h10p9---10---9h==10-------------|-------------------------------------|
|-12------------12----------------------|-------------------------------------|
|---------------------------------------|-------------------------------------|
|---------------------------------------|-------------------------------------|
|  E   S  S E    E   E    E    E    E      W
|
|  ~~~~~~~~~~~~~~~~~~~~~~~~~~~~~~~~~~~~~~~~~~       ~~
|  W                                       E   S  S E    E   E    E    E  E
|-13------------------------------------|-----------------------------13-15---|
|-15------------------------------------|------8h10p8--------8h==10---15-17---|
|---------------------------------------|-10---9h10p9---10---9h==10-----------|
|---------------------------------------|-12------------12--------------------|
|---------------------------------------|-------------------------------------|
|---------------------------------------|-------------------------------------|
   W                                       E   S  S E    E   E    E    E  E


  D5(type 2)                           C5(type Bb5(type 2)                      C5(type 2)D5(type
  Gtrs I, II

   S    S  S S  S S  S  S   S  S  S  S  E  E    S S  S  S  S S  S  S  S S  S  S  E  E
   |    |  | |  | |  |  |   |  |  |  |  |  |    | |  |  |  | |  |  |  | |  |  |  |  |
   /    /  / /  / /  /  /   /  /  /  /  /  /    / /  /  /  / /  /  /  / /  /  /  /  /

  Gtr III
                                                     ~~~
   E       E    E    S  S   E     S  S  E  E    E    H.                            +E
|-10-----------------------------------------|------------------------------------------|
|-11------11--------11-----------------------|------------------------------------------|
|---------12---12---12-12--------12----------|------------------------------------------|
|--------------12------12--12----12-12-------|-------8-----------------------------(8)\-|
|--------------------------13-------13-13p10-|--8---------------------------------------|
|--------------------------------------17-13-|------------------------------------------|
|  E       E    E    S  S   E     S  S  E  E
|
| Gtr IV
|                           ~~~~
|  H                       +H                   E    E     E    S  S  E    S  S  E  E
|--------------------------------------------|-10---------------------------------------|
|-10b11-------------------(10)---------------|-11---11---------11-----------------------|
|--------------------------------------------|------12----12---12-12------12------------|
|--------------------------------------------|------------12------12-12---12-12---------|
|--------------------------------------------|-----------------------13------13-13p10---|
|--------------------------------------------|----------------------------------17-13---|
                                                E    E     E    S  S  E    S  S  E  E


          2)                       C5(type 2)Bb5(type 2)                      C5(type 2)
   S S  S  S  S S  S  S  S S  S  S  E  E      S S  S  S  S S  S  S  S S  S  S  E  E
   | |  |  |  | |  |  |  | |  |  |  |  |      | |  |  |  | |  |  |  | |  |  |  |  |
   / /  /  /  / /  /  /  / /  /  /  /  /      / /  /  /  / /  /  /  / /  /  /  /  /

                                                   ~~~
   E    E     E    S  S  E    S  S  E  E      E    H.                            +E
|-10---------------------------------------|------------------------------------------|
|-11---11---------11-----------------------|------------------------------------------|
|------12----12---12-12------12------------|------------------------------------------|
|------------12------12-12---12-12---------|-------8-----------------------------(8)\-|
|-----------------------13------13-13p10---|--8---------------------------------------|
|----------------------------------17-13---|------------------------------------------|
|  E    E     E    S  S  E    S  S  E  E
|
|       ~~~
|  E    H.                            +E      E    E     E    S  S  E    S  S  E  E
|------------------------------------------|-10---------------------------------------|
|------------------------------------------|-11---11---------11-----------------------|
|------------------------------------------|------12----12---12-12------12------------|
|-------8-----------------------------(8)\-|------------12------12-12---12-12---------|
|--8---------------------------------------|-----------------------13------13-13p10\--|
|------------------------------------------|----------------------------------17-13\--|
                                              E    E     E    S  S  E    S  S  E  E


  Gtr I
  PM----------|     PM------|   PM--------|   PM--|   PM  PM|
  T   T T T T T S T T T T T T S T T T T T T S T T T T T T T T
|-------------------------------------------------------------||
|-------------------------------------------------------------||
|-------------------------------------------------------------||
|-7---7-7-7-7-7-8-7-5-5-5-5-5-7-------------5-------5---5-----||
|-------------------------------8-8-8-8-8-8---7-7-7---7---7-7-||
|-------------------------------------------------------------||
|
| Gtr II
|                                                     PM--|
| H..                                                 S   S
|-------------------------------------------------------------||
|-------------------------------------------------------------||
|-------------------------------------------------------------||
|-------------------------------------------------------------||
|-----------------------------------------------------0---0---||
|-----------------------------------------------------0---0---||


 Verse

  Gtrs I, II
  S S S S S S  S S  S S S S  S S S S    S S S S  S S S S  S S S S  S S  S S
|------------------------------------|----------------------------------------|
|------------------------------------|----------------------------------------|
|------------------------------------|--3-3-3-3--3-3-3-3----------------------|
|-0-0-0-0-0-0--0-0--5-5-5-5--5-5-5-5-|--3-3-3-3--3-3-3-3--3-3-3-3--3-3--3-3---|
|-0-0-0-0-0-0--0-0--5-5-5-5--5-5-5-5-|--1-1-1-1--1-1-1-1--3-3-3-3--3-3--3-3---|
|-0-0-0-0-0-0--0-0--5-5-5-5--5-5-5-5-|--------------------3-3-3-3--3-3--3-3---|
|
| Gtr V
| Q       E    E    Q        Q          Q        Q        Q        E    E
|------------------------------------|----------------------------------------|
|------------------------------------|----------------------------------------|
|-7-------9---10---15-------15-------|-15-------17-------10-------12---14-----|
|-x-------x----x----x--------x-------|--x--------x--------x--------x----x-----|
|-5-------7----8---13-------13-------|-13-------15--------8-------10---12-----|
|------------------------------------|----------------------------------------|


   S S S S  S E    S  S S S S  S E    S    S S S S  S E    S  q  Q
|---------------------------------------|---------------------------|
|---------------------------------------|---------------------------|
|--3-3-3-3--3-3----3--------------------|---------------------------|
|--3-3-3-3--3-3----3--1-1-1-1--1-1----1-|--2-2-2-2--2-2----2--3-----|
|--1-1-1-1--1-1----1--1-1-1-1--1-1----1-|--3-3-3-3--3-3----3--3-----|
|---------------------1-1-1-1--1-1----1-|--2-2-2-2--2-2----2--3-----|
|
|  Q        E    E    Q        E    E      Q        E    E    q  Q
|---------------------------------------|---------------------------|
|---------------------------------------|---------------------------|
|-14-------14---14---15-------14---15---|-12-------12---12---14-----|
|--x--------x----x----x--------x----x---|--x--------x----x----x-----|
|-12-------12---12---13-------12---13---|-10-------10---10---12-----|
|---------------------------------------|---------------------------|


  S S S S S S  S S  S S S S  S S S S    S S S S  S S S S  S S S S  S S  S S
|------------------------------------|----------------------------------------|
|------------------------------------|----------------------------------------|
|------------------------------------|--3-3-3-3--3-3-3-3----------------------|
|-0-0-0-0-0-0--0-0--5-5-5-5--8-8-8-8-|--3-3-3-3--3-3-3-3--3-3-3-3--3-3--3-3---|
|-0-0-0-0-0-0--0-0--5-5-5-5--5-5-5-5-|--1-1-1-1--1-1-1-1--3-3-3-3--3-3--3-3---|
|-0-0-0-0-0-0--0-0--5-5-5-5--5-5-5-5-|--------------------3-3-3-3--3-3--3-3---|
|
| Q       E    E    Q        Q          Q        Q        Q        E    E
|------------------------------------|----------------------------------------|
|------------------------------------|----------------------------------------|
|-7-------9---10---15-------15-------|-15-------17-------10-------12---14-----|
|-x-------x----x----x--------x-------|--x--------x--------x--------x----x-----|
|-5-------7----8---13-------13-------|-13-------15--------8-------10---12-----|
|------------------------------------|----------------------------------------|


   S S S S  S E    S  S S S S  S E    S    S S S S  S E    S  S S E  E  E
|---------------------------------------|---------------------------------||
|---------------------------------------|---------------------------------||
|--3-3-3-3--3-3----3--------------------|---------------------------------||
|--3-3-3-3--3-3----3--1-1-1-1--1-1----1-|--2-2-2-2--2-2----2--3-3-3--3--3-||
|--1-1-1-1--1-1----1--1-1-1-1--1-1----1-|--3-3-3-3--3-3----3--3-3-3--3--3-||
|---------------------1-1-1-1--1-1----1-|--2-2-2-2--2-2----2--3-3-3--3--3-||
|
|  Q        E    E    Q        E    E      Q        E    E    Q      E  E
|---------------------------------------|---------------------------------||
|---------------------------------------|---------------------------------||
|-14-------14---14---15-------14---15---|-12-------12---12---14-----12-14-||
|--x--------x----x----x--------x----x---|--x--------x----x----x------x--x-||
|-12-------12---12---13-------12---13---|-10-------10---10---12-----10-12-||
|---------------------------------------|---------------------------------||


 Pre-Chorus
   S S  S S S E    S  S S S S S E S    S S  S S  S E    S  S S E E E


|-----------------------------------|--------------------------------|
|-----------------------------------|--------------------------------|
|--3-3--3-3-3-3----3----------------|--------------------------------|
|--3-3--3-3-3-3----3--1-1-1-1-1-1-1-|--2-2--2-2--2-2----2--3-3-3-3-3-|
|--1-1--1-1-1-1----1--1-1-1-1-1-1-1-|--3-3--3-3--3-3----3--3-3-3-3-3-|
|---------------------1-1-1-1-1-1-1-|--2-2--2-2--2-2----2--3-3-3-3-3-|
|
|  E    E   E    E    H                E    E    E    E    H
|-----------------------------------|--------------------------------|
|-----------------------------------|--------------------------------|
|-10---10---9---10---12-------------|-12---12---10---12---14---------|
|--x----x---x----x----x-------------|--x----x----x----x----x---------|
|--8----8---7----8---10-------------|-10---10----8---10---12---------|
|-----------------------------------|--------------------------------|


  Gtrs I, II
  PM--------|     PM------|   PM----------------|       ~
  T T T T T T S T T T T T T S T T T T T T S T T T T T T S
|----------------------------------------------------------||
|----------------------------------------------------------||
|----------------------------------------------------------||
|-7-7-7-7-7-7-8-7-5-5-5-5-5-7---------------------5-5-8-8--||
|-----------------------------8-8-8-8-8-8-5-5-7-7----------||
|----------------------------------------------------------||


   Chorus
    Gtr IV
     S  S  S  S  S  S  S  S  S  S  S  S  S  S  S  S
||--------------------------------------------------|
||o-11p10-------11p10-13p10-11p10-------11p10-13p10-|
||--------10----------------------10----------------|
||-----------10----------------------10-------------|
||o-------------------------------------------------|
||--------------------------------------------------|
|
|   Gtrs I, II
|    S  S  S  S  S  S  E     S  S  S  S  S  S  E
||--------------------------------------------------|
||o-------------------------------------------------|
||--------------------------------------------------|
||---3--3--3--3--3--3--3-----3--3--3--3--3--3--3----|
||o--3--3--3--3--3--3--3-----3--3--3--3--3--3--3----|
||---3--3--3--3--3--3--3-----3--3--3--3--3--3--3----|


   S  S  S  S  S  S  S  S  S  S  S  S  S  S  S  S
|-13p12-------13p12-15p12-13p12-------13h17-15h18--|
|-------13----------------------13-----------------|
|----------12----------------------12--------------|
|--------------------------------------------------|
|--------------------------------------------------|
|--------------------------------------------------|
|
|  S  S  S  S  S  S  E     S  S  S  S  S  S  E
|--------------------------------------------------|
|--------------------------------------------------|
|--5--5--5--5--5--5--5-----5--5--5--5--5--5--5-----|
|--5--5--5--5--5--5--5-----5--5--5--5--5--5--5-----|
|--3--3--3--3--3--3--3-----3--3--3--3--3--3--3-----|
|--------------------------------------------------|


   S  S  S  S  S  S  S  S  S  S  S  S  S  S  S  S
|-15----------------15-18-15----------------17-18-|
|----15----------15----------15----------15-------|
|-------15----15----------------15----15----------|
|----------17----------------------17-------------|
|-------------------------------------------------|
|-------------------------------------------------|
|
|  S  S  S  S  S  S  E     S  S  S  S  S  S  S  S

|-------------------------------------------------|
|-------------------------------------------------|
|-------------------------------------------------|
|--5--5--5--5--5--5--5-----5--5--5--5--5--5--5--5-|
|--5--5--5--5--5--5--5-----5--5--5--5--5--5--5--5-|
|--5--5--5--5--5--5--5-----5--5--5--5--5--5--5--5-|


   S  S  S  S  S  S  S  S  S  S  S  S  S  S  S  S
|-------------------------------------------15-----||
|-18-------17-------------18p17-------18p17----17-o||
|----17-------17----------------17-----------------||
|-------17-------17p15-------------17--------------||
|----------------------17-------------------------o||
|--------------------------------------------------||
|
|  S  S  S  S  E     E     S  S  S  S  S  S  S  S
|--------------------------------------------------||
|-------------------------------------------------o||
|--3--3--3--3--3-----3-----5--5--5--5--5--5--5--5--||
|--3--3--3--3--3-----3-----5--5--5--5--5--5--5--5--||
|--1--1--1--1--1-----1-----3--3--3--3--3--3--3--3-o||
|--------------------------------------------------||


   Interlude
    Gtr III
      ~~~      ~~       ~~     ~~~
      E     S  E     S  E   S  E.      E     E
||------------------15-15-----------------------|
||o-----------------------/18-18------------18--|
||--/14---/17-17----------------------17--------|
||----------------------------------------------|
||o---------------------------------------------|
||----------------------------------------------|
|
|   Gtr IV
|     ~~~      ~~       ~~     ~~~
|     E     S  E     S  E   S  E.      E     E
||----------------------------------------------|
||o--------10-10---/13-13--10-10------10---/13\-|
||--/10-----------------------------------------|
||----------------------------------------------|
||o---------------------------------------------|
||----------------------------------------------|
|
|   Gtrs I, II
|     S S   S  S S   S  E   S  S  S S  S S   E
||----------------------------------------------|
||o---------------------------------------------|
||----------------------------------------------|
||----3-3---3--3-3---3--3---3--3--3-3--3-3---3--|
||o---3-3---3--3-3---3--3---3--3--3-3--3-3---3--|
||----3-3---3--3-3---3--3---3--3--3-3--3-3---3--|


               ~~~~~~~~~~~~~~~~~~~~
    E       S  Q.              +Q           +S     E
|-----------------------------------------------------|
|--20------18-17--------------(17)---------(17)\------|
|------------------------------------------------/14--|
|-----------------------------------------------------|
|-----------------------------------------------------|
|-----------------------------------------------------|
|
|              ~~~                  ~~~
|   S  +S   S  Q          E     S   E.      +S     E
|-/12-(12)p10-----------/15----13--12------(12)\------|
|-------------13--------------------------------------|
|------------------------------------------------/10--|
|-----------------------------------------------------|
|-----------------------------------------------------|
|-----------------------------------------------------|
|
|   S   S   S  S  S S E     S   S   S  S S   S     E

|-----------------------------------------------------|
|-----------------------------------------------------|
|---5---5---5--5--5-5-5-----5---5---5--5-5---5-----5--|
|---5---5---5--5--5-5-5-----5---5---5--5-5---5-----5--|
|---3---3---3--3--3-3-3-----3---3---3--3-3---3-----3--|
|-----------------------------------------------------|


                    ~~~
   E.      E.       H              E
|--------------------------------------|
|-----------------/18------------------|
|-15------14----------------------14---|
|--------------------------------------|
|--------------------------------------|
|--------------------------------------|
|
|                   ~~~
|  E.      E.       H              E
|--------------------------------------|
|-----------------/13------------------|
|-12------10----------------------10---|
|--------------------------------------|
|--------------------------------------|
|--------------------------------------|
|
|  S  S S  S  S S   E S S S S S S  S S
|--------------------------------------|
|--------------------------------------|
|--------------------------------------|
|--5--5-5--5--5-5---5-5-5-5-5-5-5--5-5-|
|--5--5-5--5--5-5---5-5-5-5-5-5-5--5-5-|
|--5--5-5--5--5-5---5-5-5-5-5-5-5--5-5-|


                  ~~~
   E.      E.     Q      E    E       E
|----------------------------17b18---17\----||
|---------------/20-----18-----------------o||
|-15------14--------------------------------||
|-------------------------------------------||
|------------------------------------------o||
|-------------------------------------------||
|
|                 ~~~
|  E.      E.     Q      E    E       E
|-------------------------------------------||
|---------------/17----------18b20---18\---o||
|-12------10------------17------------------||
|-------------------------------------------||
|------------------------------------------o||
|-------------------------------------------||
|
|  S  S S  S  E   E S S  S S  S    S  S  S
|-------------------------------------------||
|------------------------------------------o||
|--3--3-3--3--3---3-5-5--5-5--5----5--5--5--||
|--3--3-3--3--3---3-5-5--5-5--5----5--5--5--||
|--1--1-1--1--1---1-3-3--3-3--3----3--3--3-o||
|-------------------------------------------||


   Bridge
    Gtr V
     E    S  E    S  E  S  E    S  S  S  E
||-----------------------------------------|
||o----------------------------------------|
||--10---14-14---17-17-15-15---14-14-15-14-|
||---x----x--x----x--x--x--x----x--x--x--x-|
||o--8---12-12---15-15-13-13---12-12-13-12-|
||-----------------------------------------|
|
|   Gtrs I, II
|    S S  S  S S  S  E  S  S S  S  S  S  E


||-----------------------------------------|
||o----------------------------------------|
||-----------------------------------------|
||---3-3--3--3-3--3--3--3--3-3--3--3--3--3-|
||o--3-3--3--3-3--3--3--3--3-3--3--3--3--3-|
||---3-3--3--3-3--3--3--3--3-3--3--3--3--3-|


  E    S  E    S  E  S  E    S  S  S  E
|---------------------------------------|
|---------------------------------------|
|-9---14-14---17-17-15-15---14-14-15-14-|
|-x----x--x----x--x--x--x----x--x--x--x-|
|-7---12-12---15-15-13-13---12-12-13-12-|
|---------------------------------------|
|
| S S  S  S S  S  E  S  S S  S  S  S  E
|---------------------------------------|
|---------------------------------------|
|-5-5--5--5-5--5--5--5--5-5--5--5--5--5-|
|-5-5--5--5-5--5--5--5--5-5--5--5--5--5-|
|-3-3--3--3-3--3--3--3--3-3--3--3--3--3-|
|---------------------------------------|


  E    S  E    S  E  S  E    S  S  S  E
|-----------------------------------------|
|-----------------------------------------|
|-7---14-14---17-17-15-15---14-14-15-14---|
|-x----x--x----x--x--x--x----x--x--x--x---|
|-5---12-12---15-15-13-13---12-12-13-12---|
|-----------------------------------------|
|
| S S  S  S S  S  E  S  S S  S  S  S  S S
|-----------------------------------------|
|-----------------------------------------|
|-----------------------------------------|
|-5-5--5--5-5--5--5--5--5-5--5--5--5--5-5-|
|-5-5--5--5-5--5--5--5--5-5--5--5--5--5-5-|
|-5-5--5--5-5--5--5--5--5-5--5--5--5--5-5-|


  E    S  E    S  E  S  E    S  S  S  E
|-------------------------------------------||
|------------------------------------------o||
|-9---14-14---17-17-15-15---17-17-17-17-----||
|-x----x--x----x--x--x--x----x--x--x--x-----||
|-7---12-12---15-15-13-13---15-15-15-15----o||
|-------------------------------------------||
|
| S S  S  S E     E  S  S S  S  S  S  S S
|-------------------------------------------||
|------------------------------------------o||
|-3-3--3--3-3-----3--5--5-5--5--5--5--5-5---||
|-3-3--3--3-3-----3--5--5-5--5--5--5--5-5---||
|-1-1--1--1-1-----1--3--3-3--3--3--3--3-3--o||
|-------------------------------------------||


   Interlude
    Gtr III
      ~~~      ~~       ~~     ~~~
      E     S  E     S  E   S  E.      E     E
||------------------15-15-----------------------|
||o-----------------------/18-18------------18--|
||--/14---/17-17----------------------17--------|
||----------------------------------------------|
||o---------------------------------------------|
||----------------------------------------------|
|
|   Gtr IV
|     ~~~      ~~       ~~     ~~~
|     E     S  E     S  E   S  E.      E     E

||----------------------------------------------|
||o--------10-10---/13-13--10-10------10---/13\-|
||--/10-----------------------------------------|
||----------------------------------------------|
||o---------------------------------------------|
||----------------------------------------------|
|
|   Gtrs I, II
|     S S   S  S S   S  E   S  S  S S  S S   E
||----------------------------------------------|
||o---------------------------------------------|
||----------------------------------------------|
||----3-3---3--3-3---3--3---3--3--3-3--3-3---3--|
||o---3-3---3--3-3---3--3---3--3--3-3--3-3---3--|
||----3-3---3--3-3---3--3---3--3--3-3--3-3---3--|


               ~~~~~~~~~~~~~~~~~~~~
    E       S  Q.              +Q           +S     E
|-----------------------------------------------------|
|--20------18-17--------------(17)---------(17)\------|
|------------------------------------------------/14--|
|-----------------------------------------------------|
|-----------------------------------------------------|
|-----------------------------------------------------|
|
|              ~~~                  ~~~
|   S  +S   S  Q          E     S   E.      +S     E
|-/12-(12)p10-----------/15----13--12------(12)\------|
|-------------13--------------------------------------|
|------------------------------------------------/10--|
|-----------------------------------------------------|
|-----------------------------------------------------|
|-----------------------------------------------------|
|
|   S   S   S  S  S S E     S   S   S  S S   S     E
|-----------------------------------------------------|
|-----------------------------------------------------|
|---5---5---5--5--5-5-5-----5---5---5--5-5---5-----5--|
|---5---5---5--5--5-5-5-----5---5---5--5-5---5-----5--|
|---3---3---3--3--3-3-3-----3---3---3--3-3---3-----3--|
|-----------------------------------------------------|


                    ~~~
   E.      E.       H              E
|--------------------------------------|
|-----------------/18------------------|
|-15------14----------------------14---|
|--------------------------------------|
|--------------------------------------|
|--------------------------------------|
|
|                   ~~~
|  E.      E.       H              E
|--------------------------------------|
|-----------------/13------------------|
|-12------10----------------------10---|
|--------------------------------------|
|--------------------------------------|
|--------------------------------------|
|
|  S  S S  S  S S   E S S S S S S  S S
|--------------------------------------|
|--------------------------------------|
|--------------------------------------|
|--5--5-5--5--5-5---5-5-5-5-5-5-5--5-5-|
|--5--5-5--5--5-5---5-5-5-5-5-5-5--5-5-|
|--5--5-5--5--5-5---5-5-5-5-5-5-5--5-5-|


                  ~~~
   E.      E.     Q      E    E       E

|----------------------------17b18---17\----||
|---------------/20-----18-----------------o||
|-15------14--------------------------------||
|-------------------------------------------||
|------------------------------------------o||
|-------------------------------------------||
|
|                 ~~~
|  E.      E.     Q      E    E       E
|-------------------------------------------||
|---------------/17----------18b20---18\---o||
|-12------10------------17------------------||
|-------------------------------------------||
|------------------------------------------o||
|-------------------------------------------||
|
|  S  S S  S  E   E S S  S S  S    S  S  S
|-------------------------------------------||
|------------------------------------------o||
|--3--3-3--3--3---3-5-5--5-5--5----5--5--5--||
|--3--3-3--3--3---3-5-5--5-5--5----5--5--5--||
|--1--1-1--1--1---1-3-3--3-3--3----3--3--3-o||
|-------------------------------------------||


 Guitar Solo/Outro
  Gtr VI
                      ~~                            ~~~~~
                          |----------3-----------|
    S  S  S  S  S  S  E  +S    S     S  S  S     S  E        +S     S
|-/13-------13----------------------------------13-15b17----(15)\-/13-|
|-----15-------15-------------------------15--------------------------|
|--------14-------14-------------------14-----------------------------|
|--------------------15-(15)\-12----15--------------------------------|
|---------------------------------------------------------------------|
|---------------------------------------------------------------------|
|
| Gtrs I, II
|   S  S  S  S  S  S  E   S       S     S     S     S     S   E
|---------------------------------------------------------------------|
|---------------------------------------------------------------------|
|---------------------------------------------------------------------|
|---3--3--3--3--3--3--3---3-------3-----3-----3-----3-----3---3-------|
|---3--3--3--3--3--3--3---3-------3-----3-----3-----3-----3---3-------|
|---3--3--3--3--3--3--3---3-------3-----3-----3-----3-----3---3-------|
|
| Gtr V
|   E     S  E     S  E   S       E           S     S     S   E
|---------------------------------------------------------------------|
|---------------------------------------------------------------------|
|--10----14-14----17-17--15------15----------14----14----15--14-------|
|---x-----x--x-----x--x---x-------x-----------x-----x-----x---x-------|
|---8----12-12----15-15--13------13----------12----12----13--12-------|
|---------------------------------------------------------------------|


   ~~                ~~
   E    S  e      S  H                   S  S
|-12---12-12\---/13h15------------------15h17b18-|
|------------------------------------------------|
|------------------------------------------------|
|------------------------------------------------|
|------------------------------------------------|
|------------------------------------------------|
|
|  S S  S  S  S   S  E  S  S S  S  S  S  E
|------------------------------------------------|
|------------------------------------------------|
|--5-5--5--5--5---5--5--5--5-5--5--5--5--5-------|
|--5-5--5--5--5---5--5--5--5-5--5--5--5--5-------|
|--3-3--3--3--3---3--3--3--3-3--3--3--3--3-------|
|------------------------------------------------|
|
|  E    S  E      S  E  S  E    S  S  S  E


|------------------------------------------------|
|------------------------------------------------|
|--9---14-14-----17-17-15-15---14-14-15-14-------|
|--x----x--x------x--x--x--x----x--x--x--x-------|
|--7---12-12-----15-15-13-13---12-12-13-12-------|
|------------------------------------------------|


   S      +S   S    E    S  E  S  E    S  S      +S   +S    S
|-17pb18-(17)p15\-/10h==12-13p10------------------------------|
|--------------------------------11------11b13==(11)r(11)\----|
|-------------------------------------10-------------------10-|
|-------------------------------------------------------------|
|-------------------------------------------------------------|
|-------------------------------------------------------------|
|
|  S       S   S    S S  S  E  S  S S  S  S       S    S    S
|-------------------------------------------------------------|
|-------------------------------------------------------------|
|-------------------------------------------------------------|
|--5-------5---5----5-5--5--5--5--5-5--5--5-------5----5----5-|
|--5-------5---5----5-5--5--5--5--5-5--5--5-------5----5----5-|
|--5-------5---5----5-5--5--5--5--5-5--5--5-------5----5----5-|
|
|  E           S    E    S  E  S  E    S  S       S    E
|-------------------------------------------------------------|
|-------------------------------------------------------------|
|--7----------14---14---17-17-15-15---14-14------15---14------|
|--x-----------x----x----x--x--x--x----x--x-------x----x------|
|--5----------12---12---15-15-13-13---12-12------13---12------|
|-------------------------------------------------------------|


                                          ~~~
   S  S  S  S  S  S  S  S  S  S  S  S  S  E.
|----------10-------12-------12----------15-------|
|-13p11-------11-------13-------13----13----------|
|-------10-------10-------12-------14-------------|
|-------------------------------------------------|
|-------------------------------------------------|
|-------------------------------------------------|
|
|  S  S  S  S  E     E     S  S  S  S  S  S   S S
|-------------------------------------------------|
|-------------------------------------------------|
|--3--3--3--3--3-----3-----5--5--5--5--5--5---5-5-|
|--3--3--3--3--3-----3-----5--5--5--5--5--5---5-5-|
|--1--1--1--1--1-----1-----3--3--3--3--3--3---3-3-|
|-------------------------------------------------|
|
|  E     S  E     S  E     S  E     S  S  S   E
|-------------------------------------------------|
|-------------------------------------------------|
|--9----14-14----17-17----15-15----17-17-17--17---|
|--x-----x--x-----x--x-----x--x-----x--x--x---x---|
|--7----12-12----15-15----13-13----15-15-15--15---|
|-------------------------------------------------|


                              ~~
   S  S  S  S  S  S  S  S  S  E    S    S  S  S S
|-15-------17-------15----------------------------|
|----18-------18-------18p15----------------------|
|-------17-------17----------14---14\-/10---------|
|-----------------------------------------10p=8---|
|-----------------------------------------------8-|
|-------------------------------------------------|
|
|  S  S  S  S  S  S  E     S  S S  S    S  S  E



|-------------------------------------------------|
|-------------------------------------------------|
|-------------------------------------------------|
|--3--3--3--3--3--3--3-----3--3-3--3----3--3--3---|
|--3--3--3--3--3--3--3-----3--3-3--3----3--3--3---|
|--3--3--3--3--3--3--3-----3--3-3--3----3--3--3---|
|
|  E     S  E     S  E     S  E    S    S  S  E
|-------------------------------------------------|
|-------------------------------------------------|
|-10----14-14----17-17----15-15---14---14-15-14---|
|--x-----x--x-----x--x-----x--x----x----x--x--x---|
|--8----12-12----15-15----13-13---12---12-13-12---|
|-------------------------------------------------|


                              ~~~~~~~
                                               |---3----|
   S  S  S  S  S  S  S  S  S  S  +E      +S    S  S     S  S
|-13-------15-------13---------------------------------------|
|----15-------15-------15---------------------15-------------|
|-------14-------14-------14---------------------14----------|
|----------------------------15-(15)----(15)\----------15p12-|
|------------------------------------------------------------|
|------------------------------------------------------------|
|
|  S  S  S  S  S  S  E     S  S   S   S   S    S     E
|------------------------------------------------------------|
|------------------------------------------------------------|
|--5--5--5--5--5--5--5-----5--5---5---5---5----5-----5-------|
|--5--5--5--5--5--5--5-----5--5---5---5---5----5-----5-------|
|--3--3--3--3--3--3--3-----3--3---3---3---3----3-----3-------|
|------------------------------------------------------------|
|
|  E     S  E     S  E     S  E       S   S    S     E
|------------------------------------------------------------|
|------------------------------------------------------------|
|--9----14-14----17-17----15-15------14--14---15----14-------|
|--x-----x--x-----x--x-----x--x-------x---x----x-----x-------|
|--7----12-12----15-15----13-13------12--12---13----12-------|
|------------------------------------------------------------|


                                              ~~~
   |---3---|             |--3--|
   S  S    S  S  E       T  T  T  E     T  T  E.       T  T  T  T  T  T  T  T
|---------------15b18r===========18b20r====================================15-|
|------------15---------------15-------------18----------------------15h17----|
|---------14---------------15----------15h17----------------------14----------|
|-12h15-----------------17-------------------------------------15-------------|
|-----------------------------------------------------------17----------------|
|-----------------------------------------------------15-17-------------------|
|
|  S    S     S  S    S  S        E     S     S  S  S  S     S     S     S
|-----------------------------------------------------------------------------|
|-----------------------------------------------------------------------------|
|-----------------------------------------------------------------------------|
|--5----5-----5--5----5--5--------5-----5-----5--5--5--5-----5-----5-----5----|
|--5----5-----5--5----5--5--------5-----5-----5--5--5--5-----5-----5-----5----|
|--5----5-----5--5----5--5--------5-----5-----5--5--5--5-----5-----5-----5----|
|
|  E          S  E       S        E     S     E     S  S     S     E
|-----------------------------------------------------------------------------|
|-----------------------------------------------------------------------------|
|--7---------14-14------17-------17----15----15----14-14----15----14----------|
|--x----------x--x-------x--------x-----x-----x-----x--x-----x-----x----------|
|--5---------12-12------15-------15----13----13----12-12----13----12----------|
|-----------------------------------------------------------------------------|


   ~~                                      ~~
        |---3----|             |---3----|
   E    S  S     S  S  S  S S  S  S     S  Q           S  S

|-18---17s13---------------------13s===20-22----------18p17---|
|---------------13s10-------7s13------------------------------|
|---------------------10s=7-----------------------------------|
|-------------------------------------------------------------|
|-------------------------------------------------------------|
|-------------------------------------------------------------|
|
|  S S  S     S     E     E    S     S     S  S  S  S  S  S
|-------------------------------------------------------------|
|-------------------------------------------------------------|
|--3-3--3-----3-----3-----3----5-----5-----5--5--5--5--5--5---|
|--3-3--3-----3-----3-----3----5-----5-----5--5--5--5--5--5---|
|--1-1--1-----1-----1-----1----3-----3-----3--3--3--3--3--3---|
|-------------------------------------------------------------|
|
|  E    S     E        S  E    S     E        S  S  S  E
|-------------------------------------------------------------|
|-------------------------------------------------------------|
|--9---14----14-------17-17---15----15-------17-17-17-17------|
|--x----x-----x--------x--x----x-----x--------x--x--x--x------|
|--7---12----12-------15-15---13----13-------15-15-15-15------|
|-------------------------------------------------------------|


                                  ~~~~
   E    S  E    S  E  S  E    S   S   S  S  S
|-17s===7--7s==15-15s=5p=3s==15-[15]-15p13-13-|
|---------------------------------------------|
|---------------------------------------------|
|---------------------------------------------|
|---------------------------------------------|
|---------------------------------------------|
|
|  S S  S  S S  S  E  S  S S  S   S   S  E
|---------------------------------------------|
|---------------------------------------------|
|---------------------------------------------|
|--3-3--3--3-3--3--3--3--3-3--3---3---3--3----|
|--3-3--3--3-3--3--3--3--3-3--3---3---3--3----|
|--3-3--3--3-3--3--3--3--3-3--3---3---3--3----|
|
|  E    S  E    S  E  S  E    S   S   S  E
|---------------------------------------------|
|---------------------------------------------|
|-10---14-14---17-17-15-15---14--14--15-14----|
|--x----x--x----x--x--x--x----x---x---x--x----|
|--8---12-12---15-15-13-13---12--12--13-12----|
|---------------------------------------------|


            \2______/
                        ~~
   S  S  S  E      +S   H                   S  S
|-13-------17-----(17)-15------------------13-15--|
|----15-------------------------------------------|
|-------14----------------------------------------|
|-------------------------------------------------|
|-------------------------------------------------|
|-------------------------------------------------|
|
|  S  S  S  S   S   S   E  S  S S  S  S  S  E
|-------------------------------------------------|
|-------------------------------------------------|
|--5--5--5--5---5---5---5--5--5-5--5--5--5--5-----|
|--5--5--5--5---5---5---5--5--5-5--5--5--5--5-----|
|--3--3--3--3---3---3---3--3--3-3--3--3--3--3-----|
|-------------------------------------------------|
|
|  E     S  E       S   E  S  E    S  S  S  E
|-------------------------------------------------|
|-------------------------------------------------|
|--9----14-14------17--17-15-15---14-14-15-14-----|
|--x-----x--x-------x---x--x--x----x--x--x--x-----|
|--7----12-12------15--15-13-13---12-12-13-12-----|
|-------------------------------------------------|


                                           \0.5
              ~~~~     ~~
   E      S   E     S  Q         S    S   +S     S  S  S
|-15\-------[17]------18-------(18)-(18)-(18)------15h17-|
|-------/15--------15-----------------x---------15-------|
|--------------------------------x-----------------------|
|--------------------------------------------------------|
|--------------------------------------------------------|
|--------------------------------------------------------|
|
|  S  S   S   S  S  S  E  S  S   S    S    S     S  S  S
|--------------------------------------------------------|
|--------------------------------------------------------|
|--------------------------------------------------------|
|--5--5---5---5--5--5--5--5--5---5----5----5-----5--5--5-|
|--5--5---5---5--5--5--5--5--5---5----5----5-----5--5--5-|
|--5--5---5---5--5--5--5--5--5---5----5----5-----5--5--5-|
|
|  E      S   E     S  E  S  E        S    S     S  E
|--------------------------------------------------------|
|--------------------------------------------------------|
|--7-----14--14----17-17-15-15-------14---14----15-14----|
|--x------x---x-----x--x--x--x--------x----x-----x--x----|
|--5-----12--12----15-15-13-13-------12---12----13-12----|
|--------------------------------------------------------|


                                          \1_________________/
           ~~             ~~~~                         ~~
   E    S  E    S  S     +E      +S    S  E       +S   E     a    a  a
|-18s==13s20------20b22-(20)----(20)\-22-22------(22)-22---(22)-(22)---|
|--------------18-------------------------------------------------x----|
|--------------------------------------------------------------------x-|
|----------------------------------------------------------------------|
|----------------------------------------------------------------------|
|----------------------------------------------------------------------|
|
|  S S  S  S E     E          S   S    S  S    S   S   S S
|----------------------------------------------------------------------|
|----------------------------------------------------------------------|
|--3-3--3--3-3-----3----------5---5----5--5----5---5---5-5-------------|
|--3-3--3--3-3-----3----------5---5----5--5----5---5---5-5-------------|
|--1-1--1--1-1-----1----------3---3----3--3----3---3---3-3-------------|
|----------------------------------------------------------------------|
|
|  E    S  E    S  E          S   E       S    S   S   E
|----------------------------------------------------------------------|
|----------------------------------------------------------------------|
|--9---14-14---17-17---------15--15------17---17--17--17---------------|
|--x----x--x----x--x----------x---x-------x----x---x---x---------------|
|--7---12-12---15-15---------13--13------15---15--15--15---------------|
|----------------------------------------------------------------------|


                                                      ~~
   S  S  S     S  S  S     S  S  S     S  S  S  S  S  E
|----------------17s18b20----------------17s20s17s20s17-|
|----18s20b22----------------18s20b22-------------------|
|-17----------17----------17----------17----------------|
|-------------------------------------------------------|
|-------------------------------------------------------|
|-------------------------------------------------------|
|
|  S  S  S     S  S  S     E     S     S  S  S  S  S  E
|-------------------------------------------------------|
|-------------------------------------------------------|
|-------------------------------------------------------|
|--3--3--3-----3--3--3-----3-----3-----3--3--3--3--3--3-|
|--3--3--3-----3--3--3-----3-----3-----3--3--3--3--3--3-|
|--3--3--3-----3--3--3-----3-----3-----3--3--3--3--3--3-|
|
|  E     S     E     S     E     S     E     S  S  S  E

|-------------------------------------------------------|
|-------------------------------------------------------|
|-10----14----14----17----17----15----15----14-14-15-14-|
|--x-----x-----x-----x-----x-----x-----x-----x--x--x--x-|
|--8----12----12----15----15----13----13----12-12-13-12-|
|-------------------------------------------------------|


                                               ~~
   S  S  S  S  S  S   S  S  S   S  S  S  S  S  E
|-------------------------------------------------|
|-------------------------------------------------|
|----17s19--------------17s24\--------------------|
|-17----------17s22\-17-----------19s22s19s22s19--|
|----------19------------------19-----------------|
|-------------------------------------------------|
|
|  S  S  S  S  S  S   E     S   S  S  S  S  S  E
|-------------------------------------------------|
|-------------------------------------------------|
|--5--5--5--5--5--5---5-----5---5--5--5--5--5--5--|
|--5--5--5--5--5--5---5-----5---5--5--5--5--5--5--|
|--3--3--3--3--3--3---3-----3---3--3--3--3--3--3--|
|-------------------------------------------------|
|
|  E     S  E     S   E     S   E     S  S  S  E
|-------------------------------------------------|
|-------------------------------------------------|
|--9----14-14----17--17----15--15----14-14-15-14--|
|--x-----x--x-----x---x-----x---x-----x--x--x--x--|
|--7----12-12----15--15----13--13----12-12-13-12--|
|-------------------------------------------------|


   S  S  S   S  S  S  S  S  S  S  S  S  S  S  S  S
|--------------------------------------------------|
|--------------------------------------------------|
|----19s24\-------------19s24-------------19h21p19-|
|-20-----------20s24s20----------19h20h22----------|
|-----------22----------------22-------------------|
|--------------------------------------------------|
|
|  S  S  S   S  S  S  E     S  S  S  S  S  S  S  S
|--------------------------------------------------|
|--------------------------------------------------|
|--------------------------------------------------|
|--5--5--5---5--5--5--5-----5--5--5--5--5--5--5--5-|
|--5--5--5---5--5--5--5-----5--5--5--5--5--5--5--5-|
|--5--5--5---5--5--5--5-----5--5--5--5--5--5--5--5-|
|
|  E     S   E     S  E     S  E     S  S  S  E
|--------------------------------------------------|
|--------------------------------------------------|
|--7----14--14----17-17----15-15----14-14-15-14----|
|--x-----x---x-----x--x-----x--x-----x--x--x--x----|
|--5----12--12----15-15----13-13----12-12-13-12----|
|--------------------------------------------------|


   ~~~~~~~~~~~~~~~~~~~
   Q          E     S  +S    T T  T T T T  T  T  T  T  T  T  T  T  T  T
|-----------------------------------------------------------------------|
|-18---------20----18-(18)\------------------------------------------15-|
|--------------------------------------------------------------14h15----|
|--------------------------------------------------------15h18----------|
|-----------------------------------5h7h8s13-12-13s15-17----------------|
|----------------------------5h7h=8-------------------------------------|
|
|  S S  S  S  E     E        S    S   S    S     S     S     S     S



|-----------------------------------------------------------------------|
|-----------------------------------------------------------------------|
|--3-3--3--3--3-----3--------5----5---5----5-----5-----5-----5-----5----|
|--3-3--3--3--3-----3--------5----5---5----5-----5-----5-----5-----5----|
|--1-1--1--1--1-----1--------3----3---3----3-----3-----3-----3-----3----|
|-----------------------------------------------------------------------|
|
|  E    S  E     S  E        S    E              E.          E
|-----------------------------------------------------------------------|
|-----------------------------------------------------------------------|
|--9---14-14----17-17-------15---15-------------17----------17----------|
|--x----x--x-----x--x--------x----x--------------x-----------x----------|
|--7---12-12----15-15-------13---13-------------15----------15----------|
|-----------------------------------------------------------------------|


                  ~~        ~~                    ~~~~~~~~~~~~
                                |--3--|  |--3--|
   Q      Q       Q   Q     Q   S  S  S  S  S  S  H       +W
|-17b20--17pb20r=17--17s=|=13--------------10h12-13----|-(13)----*|
|------------------------|--------------13-------------|---------*|
|------------------------|-----10-12h13----------------|---------*|
|------------------------|-----------------------------|---------*|
|------------------------|-----------------------------|---------*|
|------------------------|-----------------------------|---------*|
|
|  H              H         H                     H       +W
|------------------------|-----------------------------|---------*|
|------------------------|-----------------------------|---------*|
|------------------------|-----------------------------|---------*|
|--3--------------3------|--3---------------------3----|--(3)----*|
|--3--------------3------|--3---------------------3----|--(3)----*|
|--3--------------3------|--3---------------------3----|--(3)----*|
|
|  W                        H                     H       +W
|------------------------|-----------------------------|---------*|
|------------------------|-----------------------------|---------*|
|-14---------------------|-14--------------------14----|-(14)----*|
|--x---------------------|--x---------------------x----|---------*|
|-12---------------------|-12--------------------12----|-(12)----*|
|------------------------|-----------------------------|---------*|


--------------------------------------------------------------------------------


Duration Legend
---------------
W - whole; H - half; Q - quarter; E - 8th; S - 16th; T - 32nd; X - 64th; a - acciaccatura
+ - note tied to previous; . - note dotted; .. - note double dotted
Uncapitalized letters represent notes that are staccato (1/2 duration)
Irregular groupings are notated above the duration line
Duration letters will always appear directly above the note/fret number it represents the
duration for.  Duration letters with no fret number below them represent rests.  Multi-
bar rests are notated in the form Wxn, where n is the number of bars to rest for.  Low
melody durations appear below the staff

Tablature Legend






----------------
 h   - hammer-on
 p   - pull-off
 b   - bend
 pb  - pre-bend
 r   - bend release (if no number after the r, then release immediately)
 /\  - slide into or out of (from/to "nowhere")
 s   - legato slide
 S   - shift slide
 - natural harmonic
[n]  - artificial harmonic
n(n) - tapped harmonic
 ~   - vibrato
 tr  - trill
 T   - tap
 TP  - trem. picking
 PM  - palm muting
\n/  - tremolo bar dip; n = amount to dip
 \n  - tremolo bar down
 n/  - tremolo bar up
/n\  - tremolo bar inverted dip
 =   - hold bend; also acts as connecting device for hammers/pulls
 <> - volume swell (louder/softer)
 x   - on rhythm slash represents muted slash
 o   - on rhythm slash represents single note slash

Misc Legend
-----------
 |  - bar
||  - double bar
||o - repeat start
o|| - repeat end
*|  - double bar (ending)
 :  - bar (freetime)
 $  - Segno
 &  - Coda
Tempo markers -  = BPM(8/16=s8/s16), where s8 = swing 8ths, s16 = swing 16ths

END

==================================================================
Artist: Avenged Sevenfold
Song: Lost


-------------------------------------------------------------------------------
			     "Lost" solo --- Avenged Sevenfold
-------------------------------------------------------------------------------


Tabbed by: [travis]


Tuning: Drop D: D A D G B E (low to high)


This is the solo at the end of "Lost."
The chords for the rhythm part are:


   F5  C5  G5  Bb5  C5 (in order):
G|-----5--------3---5--|
D|-3---5---5----3---5--|
A|-3---3---5----1---3--|
D|-3-------5-----------|


Play those chords under the solo.
The last 5 seconds are little riffs.

Tuning: Drop D: D A D G B E (low to high)


There's a lot of slides towards the end
of the solo.


Key of song: F Major.


Legend:

h = hammer on
b = bend
p = pull off
() = note barely heard, or bring bent note back to normal note.
/ = slide up
\ = slide down
__ = hold bend
~ = vibrato
1 = full step bend
.5 = half step bend
1.5 = 1 and a half step bend
1h2p1 = do the phrase with one pick
* = pinch harmonic

Guitar 1:
e|-13-----------------------------------------------15h17h18p17~~~~~15p13p12---13-12-13-(13)h/15~|
B|----13-----13----------------------------15h17h18----------------------------------------------|
G|-------10-----12----------------------15-------------------------------------------------------|
D|-----------------10----------------15----------------------------------------------------------|
A|--------------------12~~~~~~~(12)/-------------------------------------------------------------|
D|-----------------------------------------------------------------------------------------------|


Guitar 1:

                                                                        1____
e|-(15)~~~~~~~~~\--12h/15--17----18----15-----------------------------------------|
B|----------------------------------------15----17--18----15----------------------|
G|-----------------------------------------------------------15~~~~~~~17b----(17)-|
D|--------------------------------------------------------------------------------|
A|--------------------------------------------------------------------------------|
D|--------------------------------------------------------------------------------|


Guitar 1:
                                                    1______
e|----------------------------------------------------------------15-13----17-13----15-13-|
B|-----------------15--------17--------17---------17b~~~~~~(17)\--------13-------13-------|
G|-15---17--15--------15--------15--------15----------------------------------------------|
D|-------------15--------15--------15--------15-------------------------------------------|
A|----------------------------------------------------------------------------------------|
D|----------------------------------------------------------------------------------------|


Guitar 1:
e|----------------------------13-12----15--------13-12----------------|
B|-13-------------------------------13----13-----------13-------------|
G|----14~~~~~~~~-----------------------------12-----------12~~~~~~~~--|
D|---------------15---------------------------------------------------|
A|------------------15-13-12------------------------------------------|
D|--------------------------------------------------------------------|


Guitar 1:
                          .5__          1__          1_______
e|-----------------------17b--(17)----18b--(18)--------------------|
B|--------------------15-----------15--------------18b~~~~~~~(18)\-|
G|-----------------15---------------------------15-----------------|
D|-14----12-14h/17-------------------------------------------------|
A|----15-----------------------------------------------------------|
D|-----------------------------------------------------------------|

Guitar 1:
e|-------------------------15-17h18p17p15----------------------------------------------|
B|----------------15h17h18----------------18-17h18p17----------------------------------|
G|-------15-17h18-------------------------------------19p18p17---15h17h19p17--16h17h19-|
D|-17-17-------------------------------------------------------------------------------|
A|-------------------------------------------------------------------------------------|
D|-------------------------------------------------------------------------------------|

Guitar 1:
e|----------------------------18----17-18-20h/22-----20p18p17---(17)\8--(8)/13--13p\5-|
B|-17h18p17----20p18p17h18h20----18---------------------------------------------------|
G|----------19------------------------------------------------------------------------|
D|------------------------------------------------------------------------------------|
A|------------------------------------------------------------------------------------|
D|------------------------------------------------------------------------------------|

Guitar 1:
e|-5---(5)/15--15p\13--13-----12---------17-----17p\15~~~~~~~~~~~~(15)\-|
B|----------------------------------------------------------------------|
G|-------------------------------12h/17-----17--------------------------|
D|----------------------------------------------------------------------|
A|----------------------------------------------------------------------|
D|----------------------------------------------------------------------|

Guitar 1:
                                          .5______________
e|-12h/13--14--15---(15)\--15h/17----15--17b~~~~~~~~~~~~~~(17)----15-17--18-|
B|-------------------------------------------------------------15-----------|
G|--------------------------------------------------------------------------|
D|--------------------------------------------------------------------------|
A|--------------------------------------------------------------------------|
D|--------------------------------------------------------------------------|

Guitar 1:

e|-(18)\--18h/20----18--20h/22~~~~~~~~~~~~22--22p\20--20\-----13h/17-----17h/20-|
B|------------------------------------------------------------------------------|
G|---------------------------------------------------------14---------17--------|
D|------------------------------------------------------------------------------|
A|------------------------------------------------------------------------------|
D|------------------------------------------------------------------------------|

Guitar 1:
e|----13h/17-----17h/20\-17h/20p\17\-----12h/13---8h/12----12h/15---8h/12p\8h/12p\8-|
B|----------------------------------------------------------------------------------|
G|-14---------17----------------------12--------9-------12--------9-----------------|
D|----------------------------------------------------------------------------------|
A|----------------------------------------------------------------------------------|
D|----------------------------------------------------------------------------------|

Guitar 1:
                                                                     .5_______
e|----15h/18---------------15h/18--------------------10-----10--12--12b~~~~~~~(12)\-|
B|--------------11h/15----------------11h/15--11--13-----13-------------------------|
G|-15-------------------15----------------------------------------------------------|
D|-----------12--------------------12-----------------------------------------------|
A|----------------------------------------------------------------------------------|
D|----------------------------------------------------------------------------------|

Guitar 1:
                                                                           1______
e|-12h/15-----13~~~~~~---------------------------------------------15-17-18b------(18)-|
B|-----------------------------------------------15-17-18-15-17-18---------------------|
G|--------------------------------------14-15-17---------------------------------------|
D|-----------------------------14-15-17------------------------------------------------|
A|--------------------13-15-17---------------------------------------------------------|
D|-------------------------------------------------------------------------------------|

Guitar 1:
     1__________                     1_________
e|-18b----------(18)--17~~~~~~~~~~---------------------------------|
B|---------------------------------20b---------(20)---18~~~~~~~~~~~|
G|-----------------------------------------------------------------|
D|-----------------------------------------------------------------|
A|-----------------------------------------------------------------|
D|-----------------------------------------------------------------|

Guitar 1:
                       1________________________________
e|------------------------------------------------------------|
B|----------13-15-16-16b~~~~~~~~~~~~~~~~~~~~~~~~~~~~~~~~(16)\-|
G|----14-15---------------------------------------------------|
D|-15---------------------------------------------------------|
A|------------------------------------------------------------|
D|------------------------------------------------------------|


Please Rate and Comment This Tab.
[travis]

END

=============================================================================

Artist: Avenged Sevenfold
Song: A Little Piece Of Heaven


-------------------------------------------------------------------------------
			    "A Little Piece of Heaven" --- Avenged Sevenfold

                                              Tabbed By:
                                               [travis]

-------------------------------------------------------------------------------


Tabbed by: [travis]


Go easy on me on this tab. It took me a long time to figure it
out and tab it out. Some parts may be a bit off, or missing some
notes, but I tabbed it out the best I could.


Tuning:

Piano: E A D G B E (low to high)
Guitar 1: D A D G B E (low to high)
Guitar 2: Db A D G B E (low to high)
Guitar 3: D A D G B E (low to high)
Guitar 4: E A D G B E (low to high)

Guitar 2 has the low E string tuned down to a Db.
It's only the low E string that's tuned down. The
other strings are at standard tuning.


Key: F Major (F G A Bb C D E F)

Legend:
... = palm mute
p = pull off
h = hammer on
VV = wammy bar
/ = slide up
\ = slide down
() = note barely heard or bring bent note back to normal
* = pinch harmonic
! = harmonic

Intro:
Piano:
e|----0-1--0------------------------------------------------|
B|-3----------3---2---3--5--3----------------------------2--|
G|-3-------2-------------------2--3--0--2-----0--2-3--2-----|
D|----------------2---------0--------------3----------------|
A|----------------------------------------------------0-----|
E|--------------------------------3-----1-----0-------------|


Piano: Choir starts to sing here.


e|----0-1--0------------------------------------------|
B|-3----------3---2---3--5--3-------------------------|
G|-3-------2-------------------2--3--0--2-----0-------|
D|----------------2---------0--------------3-----3--2-|
A|----------------------------------------------------|
E|--------------------------------3-----1-----0-------|


=============================
Guitar 1:
              x1                           x1
e|--5-----6-5-----------------|----------------------------|
B|---------------6--5--1------|-13----14-13----------------|
G|----------------------------|--------------13--12--10----|
D|----------------------------|----------------------------| x2
A|----------------------------|----------------------------|
D|----------------------------|----------------------------|

Guitar 2: Play each bar twice then reapeat playing each bar twice.
             x2                                   x2
e |---------------------------------|---------------------------------|
B |---------------------------------|---------------------------------|
G |---------------------------------|---------------------------------|
D |---------------------------------|---------------------------------| x2
A |---------------------------------|---------------------------------|
Db|-1--1---1-1-1-1---1--1---1-1-1-1-|-4--4---4-4-4-4---4--4---4-4-4-4-|
   ...................................................................

==============================
Guitar 2: "Before the story...before the story ends."
e |-----------------------------------------------------------------------|
B |-----------------------------------------------------------------------|
G |-----------------------------------------------------------------------|
D |-----------------------------------------------------------------------| x2
A |-----------------------------------------------------------------------|
Db|-1-1---1-1---1-1---0-0---0-0---0-0---4-4---4-4---4-4---7-7---7-7---7-7-|

==============================
Guitar 2: "And I will take..."
e |---------------------------------------|
B |---------------------------------------|
G |---------------------------------------|
D |---------------------------------------|
A |---------------------------------------|
Db|-4-4---4-4---4-4---7-7---7-7---7-7-7-7-|

==============================
1ST TIME:"Our love had been so strong..."
2ND TIME:"New possbilities I'd never..."
Guitar 3: Let the notes ring while you slowly push the wammy bar down.
Listen for timing.
     vvvv      vvvv    vvvv               vvvv       vvvv       vvvv   vv
e|---5--------9-------7------5~~--------10---------12---------11-----10~~-|
B|--6-------10-------9-------6~~------10---------14---------12-------10~~-|
G|-7-------9--------8--------7~~----10---------14---------13---------10~~-|
D|---------------------------x--------------------------------------------|
A|---------------------------5~~------------------------------------------|
D|------------------------------------------------------------------------|

===============================
Guitar 3: "Almost laughed myself to tears...Come here you f***ing b**ch!"
Listen for timing.
e|---------------------------------------------------------|
B|---------------------------------------------------------|
G|-------------------5-4~~~~-------------------5---7~~~~~--|
D|-------5-7--3-5-6----------------5-7--3-5-6--------------|
A|-5-7-8---------------------5-7-8-------------------------|
D|---------------------------------------------------------|

==============================
Guitar 3: "Must have stabbed her...Eat it Eat it!"
Listen for timing.


e|--------------------------------------|
B|--------------------------------------|
G|--------------------------------------| x2
D|-14-----13----------------------------|
A|--x------x----------------------------|
D|-12-----11------3---6--3---6---3--/6--|

===============================
Guitar 3: "She was never this good...been quite so f***ing deep in."
e|----------------------------------------------------------------------|
B|----------------------------------------------------------------------|
G|----------------------------------------------------------------------|
D|---------0------0--3---7--8--7--5----------------------2--5-8-7-5-----|
A|------0------0---------------------8--7------0--4---0-------------8-7-|
D|-12--------------------------------------11---------------------------|

===============================
Guitar 2: "It goes on and on...to spray on your youth whenever."
Listen for timing.
e |------------------------------------------|
B |------------------------------------------|
G |------------------------------------------| x2
D |------------------------------------------|
A |------------------------------------------|
Db|-1--3---/9---8----6---8---4-----6--\3---0-|

================================
Guitar 1: "Cause I really knew...but bye bye. And a"
Listen for timing.
e|---------------1-----0----------------------------3------1------------------------|
B|---------------1-----3-----3---3------------------3--1---1--1---1---3------3----3-|
G|-8-----10------2-----2-----2---2---8----8----10----------2----------2------2----2-|
D|-8-----10------3-----3-------------8----8----10----------3----------0----0----0---|
A|-8-----10------x-------------------8----8----10----------x------------------------|
D|-8-----10------3-----0-------------8----8----10----------3----------0-------------|

================================
Guitar 1: "word to the wise...begun."
Listen for timing.
e|-----------------------------------------------------------------|
B|------------------------------------------------6---------5------|
G|-8---8---8---------------------10---10---10--------7---------5---|
D|-8---8---8----10---10---10------8----8----8-----0-----7--------5-|
A|-8---8---8----10---10---10-----10---10---10---------------3------|
D|-8---8---8----10---10---10---------------------------------------|

================================
Guitar 1: "...baby don't cry. You had my heart."
Listen for timing.
e|--------------------------------------|
B|--------------------------------------|
G|-8---8---8---8---10--10--10--10---10--|
D|-8---8---8---8---10--10--10--10---10--|
A|-8---8---8---8---10--10--10--10---10--|
D|-8---8---8---8---10--10--10--10---10--|

===============================
Guitar 1: "...at least for the most part."
Listen for timing.
e|--------------------------------------|
B|--------------------------------------|
G|-8---8---8---8---10--10--10--10---10--|
D|-8---8---8---8---10--10--10--10---10--|
A|-8---8---8---8---10--10--10--10---10--|
D|-8---8---8---8---10--10--10--10---10--|

===============================
Guitar 1: "Cause everybody's...We fell apart."
Listen for timing.
e|-1---1----0----0-----1----1--------------|
B|-1---1----1----1-----3----3-----1-----1--|
G|-2---2----0----0-----2----2-----0-----0--|
D|-3---3----2----------3----------2-----2--|
A|-3--------x----------x----------3-----3--|
D|-3--------2----------0-------------------|

===============================
Guitar 1: "Let's make a new start."
Listen for timing.
e|--------------------------------------|
B|--------------------------------------|
G|-8---8---8---8---10--10--10--10---10--|
D|-8---8---8---8---10--10--10--10---10--|
A|-8---8---8---8---10--10--10--10---10--|
D|-8---8---8---8---10--10--10--10---10--|

================================
Guitar 1: "Cause everybody's got to die..."
Listen for timing.
e|-1---1----0----0-----1----1--------------|
B|-1---1----1----1-----3----3-----1-----1--|
G|-2---2----0----0-----2----2-----0-----0--|
D|-3---3----2----------3----------2-----2--|
A|-3--------x----------x----------3-----3--|
D|-3--------2----------0-------------------|

=================================
Guitar 1: "But baby don't cry..."
Listen for timing.
e|--------------------------------------|
B|--------------------------------------|
G|-8---8---8---8---10--10--10--10---10--|
D|-8---8---8---8---10--10--10--10---10--|
A|-8---8---8---8---10--10--10--10---10--|
D|-8---8---8---8---10--10--10--10---10--|

***Now go back and repeat from the whammy bar part.
It should be when Shadows says: "New possibilities."
When you get back to this part for the second time,
go on to the INTERLUDE below VVVVVVV.

=================================
*******************************
*******************************
Interlude
Guitar 2:
e |--------------------------------------------------------------|
B |--------------------------------------------------------------|
G |---3--2----3-2----3-2----3-2---6-5------6-5------6-5------6-5-|
D |--------------------------------------3--------2--------2-----| x2
A |--------------------------------------------------------------|
Db|-1-------4------3------0-----4------7--------6--------3-------|

=================================
Guitar 1: "I will suffer...I pray to God that you do."
Listen for timing.
e|----------------------------------------------------------|
B|----------------------------------------------------------|
G|------14---13---10-------15---14---12-------15---14---12--|
D|-------x----x----x--------x----x----x--------x----x----x--|
A|-5----12---10----8-------13---12---10-------13---12---10--|
D|---------------------8------------------5-----------------|

=================================
Guitar 1: "I'll do what ever you want...unchained."
Listen for timing.
e|--------------------------------|
B|--------------------------------|
G|-10-----9-----------------------|
D|--------------12----11-----11---|
A|--------------------------------|
D|-10----10-----10----11-----11---|

=================================
Guitar 1: "And if it's not enough...if it's not enough, if it's"
Listen for timing. Play this riff while the strings are playing.
e|----------------------------------------------------------|
B|----------------------------------------------------------|
G|------14---13---10-------15---14---12-------15---14---12--|
D|-------x----x----x--------x----x----x--------x----x----x--|
A|-5----12---10----8-------13---12---10-------13---12---10--|
D|---------------------8------------------5-----------------|

Guitar 4: Violins
e|-------3-----------3-5---------3-----5---3-------|
B|-3-5-6---6-5-3-5-6-----6-3-5-6---6-5---6---5-6-3-|
G|-------------------------------------------------|
D|-------------------------------------------------|
A|-------------------------------------------------|
E|-------------------------------------------------|

=================================
"Not enough, If it's not enough, If it's not enough."
Guitar 4: Violins
e|-6-3-5---3---6-3-5-6-5-3-5---3---5---3-----3-5---------------|
B|-------6---5---------------6---5---6---5-6-----6-3-5-6-3-5---|
G|-----------------------------------------------------------5-|
D|-------------------------------------------------------------|
A|-------------------------------------------------------------|
E|-------------------------------------------------------------|

==================================
"Try again, try again."
Guitar 4: Violins
e|-6-----------------3-5---3-5-------|
B|-x-5-6-3-5-----5-6-----6-----5-6-5-|
G|-3---------5-2---------------------|
D|-----------------------------------|
A|-----------------------------------|
E|-----------------------------------|

==================================
Guitar 1: "and again, and again. Over and over again."
e|--------------------------------|
B|--------------------------------|
G|-10----9------------------------|
D|-----------12----11----11---11--|
A|--------------------------------|
D|-10---10---10----11----11---11--|

Guitar 4:
e|-----------3---3-5-6-5-3-6-5-3-------------3-5-6-|
B|-6-5-3-6-5---6-----------------6-5-3-2-3-5-------|
G|-------------------------------------------------|
D|-------------------------------------------------|
A|-------------------------------------------------|
E|-------------------------------------------------|

====================================
Guitar 3: "We're coming back, coming back..."
Listen for timing.
e|------------------------|
B|------------------------|
G|------------------------|
D|-0---------0------------|
A|--------0------------8--|
D|------------------10----|


Guitar 1: Listen for rhythm for the chords with the () only.
e|-----------------------------------8---7h/8--7h/8-|
B|--6---5h/6--5h/6---6--5h/6--5h/6---9---8h/9--8h/9-|
G|--7---6h/7--6h/7---7--6h/7--6h/7--(-)-------------|
D|-(-)--------------(-)-----------------------------|
A|--------------------------------------------------|
D|--------------------------------------------------|

=====================================
Guitar 3: "Let's start the killing, start the killing."
e|-----------------|
B|-----------------|
G|-----------------|
D|-----------------|
A|----8---------0--|
D|-10--------------|

Guitar 1: Rhythm for () chord only.

e|--8--7h/8--7h/8--|
B|--9--8h/9--8h/9--|
G|-(-)-------------|
D|-----------------|
A|-----------------|
D|-----------------|

======================================
Break:
Guitar 1: Listen for timing.
               x1                           x1
e|--5-----6-5-----------------|----------------------------|
B|---------------6--5--1------|-13----14-13----------------|
G|----------------------------|--------------13--12--10----|
D|----------------------------|----------------------------| x2
A|----------------------------|----------------------------|
D|----------------------------|----------------------------|

Guitar 3:
           x2                               x2
e|----------------------------|----------------------------|
B|----------------------------|----------------------------|
G|----------------------------|----------------------------|
D|----------------------------|----------------------------| x2
A|----------------------------|----------------------------|
D|-0-0--0-0-0-0-0--0--0-0-0-0-|-3-3--3-3-3-3-3--3--3-3-3-3-|
   .......................................................

=======================================


Guitar 3:
e|----------------------------------------------------------|
B|----------------------------------------------------------|
G|----------------------------------------------------------|
D|----------------------------------------------------------|
A|----------------------------------------------------------|
D|-6-6--6-6-6-6-6--6--6-6-6-6--6-6--6-6-6-6-6-6-6-6-6-6-6-6-|
   ........................................................

========================================
Piano:
e|----0-1--0------------------------------------------------|
B|-3----------3---2---3--5--3----------------------------2--|
G|-3-------2-------------------2--3--0--2-----0--2-3--2-----|
D|----------------2---------0--------------3----------------|
A|----------------------------------------------------0-----|
E|--------------------------------3-----1-----0-------------|


Piano:
e|----0-1--0------------------------------------------|
B|-3----------3---2---3--5--3-------------------------|
G|-3-------2-------------------2--3--0--2-----0-------|
D|----------------2---------0--------------3-----3--2-|
A|----------------------------------------------------|
E|--------------------------------3-----1-----0-------|


Guitar 1:
               x1                           x1
e|--5-----6-5-----------------|----------------------------|
B|---------------6--5--1------|-13----14-13----------------|
G|----------------------------|--------------13--12--10----|
D|----------------------------|----------------------------| x2
A|----------------------------|----------------------------|
D|----------------------------|----------------------------|

==========================================
Guitar 2: "Do you take this man...I now pronounce you."
Listen for timing.

e |------------------------------------------|
B |------------------------------------------|
G |------------------------------------------| x2
D |------------------------------------------|
A |------------------------------------------|
Db|-1--3---/9---8----6---8---4-----6--\3---0-|

==========================================
Guitar 1: "Cause I really knew...but bye bye. And a"
Listen for timing.
e|---------------1-----0----------------------------3------1------------------------|
B|---------------1-----3-----3---3------------------3--1---1--1---1---3------3----3-|
G|-8-----10------2-----2-----2---2---8----8----10----------2----------2------2----2-|
D|-8-----10------3-----3-------------8----8----10----------3----------0----0----0---|
A|-8-----10------x-------------------8----8----10----------x------------------------|
D|-8-----10------3-----0-------------8----8----10----------3----------0-------------|

===========================================
Guitar 1: "word to the wise...begun."
Listen for timing.
e|-----------------------------------------------------------------|
B|------------------------------------------------6---------5------|
G|-8---8---8---------------------10---10---10--------7---------5---|
D|-8---8---8----10---10---10------8----8----8-----0-----7--------5-|
A|-8---8---8----10---10---10-----10---10---10---------------3------|
D|-8---8---8----10---10---10---------------------------------------|

================================
Guitar 1: "...baby don't cry. You had my heart."
Listen for timing.
e|--------------------------------------|
B|--------------------------------------|
G|-8---8---8---8---10--10--10--10---10--|
D|-8---8---8---8---10--10--10--10---10--|
A|-8---8---8---8---10--10--10--10---10--|
D|-8---8---8---8---10--10--10--10---10--|

===============================
Guitar 1: "...at least for the most part."
Listen for timing.
e|--------------------------------------|
B|--------------------------------------|
G|-8---8---8---8---10--10--10--10---10--|
D|-8---8---8---8---10--10--10--10---10--|
A|-8---8---8---8---10--10--10--10---10--|
D|-8---8---8---8---10--10--10--10---10--|

===============================
Guitar 1: "Cause everybody's...We fell apart."
Listen for timing.
e|-1---1----0----0-----1----1--------------|
B|-1---1----1----1-----3----3-----1-----1--|
G|-2---2----0----0-----2----2-----0-----0--|
D|-3---3----2----------3----------2-----2--|
A|-3--------x----------x----------3-----3--|
D|-3--------2----------0-------------------|

================================
Guitar 1: "Let's make a new start."
Listen for timing.
e|--------------------------------------|
B|--------------------------------------|
G|-8---8---8---8---10--10--10--10---10--|
D|-8---8---8---8---10--10--10--10---10--|
A|-8---8---8---8---10--10--10--10---10--|
D|-8---8---8---8---10--10--10--10---10--|

================================
Guitar 1: "Cause everybody's got to die..."
Listen for timing.
e|-1---1----0----0-----1----1--------------|
B|-1---1----1----1-----3----3-----1-----1--|
G|-2---2----0----0-----2----2-----0-----0--|
D|-3---3----2----------3----------2-----2--|
A|-3--------x----------x----------3-----3--|
D|-3--------2----------0-------------------|

=================================
Guitar 1: "But baby don't cry..."
Listen for timing.
e|----------------------------------|
B|----------------3---3---3---3--3--|
G|-8--8---8---8---0---0---0---0--0--|
D|-8--8---8---8---x---x---x---x--x--|
A|-8--8---8---8---3---3---3---3--3--|
D|-8--8---8---8---------------------|

That's the end of the song.
Please Rate and Comment.
Thanks.
[travis]


END

=======================================================================
Artist: Avenged Sevenfold
Song: Dear God


-------------------------------------------------------------------------------
			      "Dear God" --- Avenged Sevenfold
-------------------------------------------------------------------------------


Tabbed by: [travis]

Tuning: Guitars 1,2,6,7,8,9: D G C F A D
        Guitars 3,4,5: C G C F A D


Key: G Major (G A B C D E F# G)


Chords:
  G5   D  E5  D5   C  B7   Cadd9   Gadd9
D|-3---2---0-------0---2---0-------3-----|
A|-3---3---0---3---1---4---3-------0-----|
F|-0---2---0---2---0---2---0-------2-----|
C|-0---0---2---0---2---4---2-------x-----|
G|-x-------2-------3---2---3-------0-----|
D|-3-------0-----------------------3-----|

Legend:

... = palm mute
h = hammer on
p = pull off
b = bend
1 = whole step bend
.5 = half step bend
pb = pre bend
h/ = one pick
p\ = one pick
~~ = vibrato
\ = slide down
/ = slide up


Guitar 1:
D|---3----------------0---------------------0---------0--0--------------------------------3------|
A|---3--0h1p0---------3---------------------0---------3----3---------------1h3-1-------0----0----|
F|---0--------2-0---2----2h4p2p0-------0----x---------4------4----------0--------0----2-------2--|
C|---0------------4--------------2h/4-------4h5p4-2---4----------0----2---2---------0-----------0|
G|------------------------------------------2---------2--------2----3----------------------------|
D|-3--------------------------------------0----------------------------------------3-------------|

Guitar 1 Continued:
D|-2--2------------------------------|
A|-3--3-------3-3----------3---3-----|
F|-2--2-0-----0-2h4p2p0-2--0---0-----|
C|-0------2-4----------------4---2-0-|
G|-----------------------------------|
D|-----------------------------------|

+++++++++++++++++++++++++++++
Guitar 1:
D|---3----------------0---------------------0---------0--0--------------------------------3------|
A|---3--0h1p0---------3---------------------0---------3----3---------------1h3-1-------0----0----|
F|---0--------2-0---2----2h4p2p0-------0----x---------4------4----------0--------0----2-------2--|
C|---0------------4--------------2h/4-------4h5p4-2---4----------0----2---2---------0-----------0|
G|------------------------------------------2---------2--------2----3----------------------------|
D|-3--------------------------------------0----------------------------------------3-------------|


Guitar 1 Continued:
D|-2--2--------------------|
A|-3--3--0--3--------------|
F|-2--------2--0-----2-----|
C|-0--------------2--2h4---|
G|-------------------------|
D|-------------------------|

++++++++++++++++++++++++++++++
Verse 1:
"On a lonely road..."
Guitar 1:
D|---------3---------------3-2-----------0----------0---0-------------------------|
A|-------3---3---------3-------3--------------------3-----3---------------1h3-1---|
F|-----0-------0-----2---2-------0-----0------------4-------4---------0---------0-|
C|---0-----------0-0-----------------2-----2h/4--2--4-----------0---2---2---------|
G|--------------------------------------------------2---------2---3---------------|
D|-3-------------------------------0----------------------------------------------|

Guitar 1 continued:
D|---------3--------2---2------------------------------------------3---------------3-2----|
A|-------0---0------3---3-------3-3----------3-----3-------------3---3---------3-------3--|
F|-----2-------2----2-----0-----0-2h4p2p0-2--0-----0-----------0-------0-----2---2-------0|
C|---0-----------0----------2-4-----------------4-----2--0---0-----------0-0--------------|
G|----------------------------------------------------------------------------------------|
D|-3-------------------------------------------------------3------------------------------|

Guitar 1 continued:
D|-------0----------0--0------------------------------------3-------2---2--------------------|
A|------------------3----3--0--------------1h3--1---------0---0-----3---3--0---------3-3-----|
F|-----0------------4-----------------0-----------0-----2-------2---2--------2-0-----0-2-2p0-|
C|---2-----2h/4--2--4-----------0---2----2------------0-----------0-0------------2-4---------|
G|------------------2---------2---3----------------------------------------------------------|
D|-0------------------------------------------------3----------------------------------------|

++++++++++++++++++++++++++++
Chorus:
"Dear God..."
Guitar 1:
Play these chords: G5 D Em D5

Guitar 2:
D|-3----------------------------0----0--------------|
A|-3---3---------3--3-----------0----0-----------3--|
F|-0---0---------2--2-----------0----0------2----2--|
C|-0---------0---0--0-----------2-------0---0----0--|
G|-x---------------------2--------------------------|
D|-2---------------------0--------------------------|

Guitar 3:
D|-------------------------------------------|
A|-------------------------------------------|
F|------0---------2--2---------0----------2--|
C|---0------------0---------2----------0-----|
G|-------------------------------------------|
C|-5-------5\--0----------2----------0-------|

++++++++++++++++++++++++++++
Chorus Continued
Guitar 1:
Play these chords: C G5 D

Guitar 2:
D|------------------------3-----------------------------------|
A|-1----1----1----3-------3----3---3-3-3---3---3-3--3-3-3--3--|
F|-0----0----0----0-------0----2---2-2-2---2---2-2--2-2-2--2--|
C|-2----2------------0---------0---0-0-0---0---0-0--0-0-0--0--|
G|-3----3------------x----------------------------------------|
D|--------------3----3----------------------------------------|

Guitar 3:


D|-------------------------------------------------|
A|---------------------------------3---------------|
F|-------0---------0---------2------------2---2p0--|
C|----2---------0---------0-----0-----0------------|
G|-3-----------------------------------------------|
C|-----------5----------0--------------------------|

Play the whole chorus twice in all, then play the part below VVV.
++++++++++++++++++++++++++++
"Cause I'm lonely..."
Guitar 1:
Play these chords: C D B7 Em D5 C  Cadd9~

Guitar 2:
D|-----------------------------------------------------3---------3-|
A|-1-------1------3---3--3-3---------------------------3---------3-|
F|-0-------0------2---2--2-2---------------4---2---0---0---0-----0-|
C|-2--2-2--2------0---0--0-0-----4----4----2---0---x---------------|
G|-3--3-3--3---------------------2----2------------3----------3----|
D|-----------------------------------------------------------------|

Guitar 3:
D|------------------------------------------------------3~-|
A|------------------------------------------------------3~-|
F|-------0---------2---------------0-----0--------0-----0~-|
C|----2------0--4--------1--4---2-----0--------2-----2-----|
G|-3------------------2---------------------3--------------|
C|---------------------------------------------------------|

++++++++++++++++++++++++++++
Verse 2:
"There's nothing here..."
Guitar 1:
D|---------3---------------3-2-----------0----------0---0-------------------------|
A|-------3---3---------3-------3--------------------3-----3---------------1h3-1---|
F|-----0-------0-----2---2-------0-----0------------4-------4---------0---------0-|
C|---0-----------0-0-----------------2-----2h/4--2--4-----------0---2---2---------|
G|--------------------------------------------------2---------2---3---------------|
D|-3-------------------------------0----------------------------------------------|

Guitar 1 continued:
D|---------3--------2---2------------------------------------------3---------------3-2-----|
A|-------0---0------3---3-------3-3----------3-----3-------------3---3---------3-------3---|
F|-----2-------2----2-----0-----0-2h4p2p0-2--0-----0-----------0-------0-----2---2-------0-|
C|---0-----------0----------2-4-----------------4-----2--0---0-----------0-0---------------|
G|-----------------------------------------------------------------------------------------|
D|-3-------------------------------------------------------3-------------------------------|

Guitar 1 continued:
D|-------0----------0--0------------------------------------3-------2---2--------------------|
A|------------------3----3--0--------------1h3--1---------0---0-----3---3--0---------3-3-----|
F|-----0------------4-----------------0-----------0-----2-------2---2--------2-0-----0-2-2p0-|
C|---2-----2h/4--2--4-----------0---2----2------------0-----------0-0------------2-4---------|
G|------------------2---------2---3----------------------------------------------------------|
D|-0------------------------------------------------3----------------------------------------|

++++++++++++++++++++++++++++
Chorus 2:
"Dear God..."
Guitar 1:
Play these chords: G5 D Em D5

Guitar 2:
D|-3----------------------------0----0--------------|
A|-3---3---------3--3-----------0----0-----------3--|
F|-0---0---------2--2-----------0----0------2----2--|
C|-0---------0---0--0-----------2-------0---0----0--|
G|-x---------------------2--------------------------|
D|-2---------------------0--------------------------|

Guitar 3:

D|-------------------------------------------|
A|-------------------------------------------|
F|------0---------2--2---------0----------2--|
C|---0------------0---------2----------0-----|
G|-------------------------------------------|
C|-5-------5\--0----------2----------0-------|

++++++++++++++++++++++++++++
Chorus Continued
Guitar 1:
Play these chords: C G5 D

Guitar 2:
D|------------------------3-----------------------------------|
A|-1----1----1----3-------3----3---3-3-3---3---3-3--3-3-3--3--|
F|-0----0----0----0-------0----2---2-2-2---2---2-2--2-2-2--2--|
C|-2----2------------0---------0---0-0-0---0---0-0--0-0-0--0--|
G|-3----3------------x----------------------------------------|
D|--------------3----3----------------------------------------|

Guitar 3:
D|-------------------------------------------------|
A|---------------------------------3---------------|
F|-------0---------0---------2------------2---2p0--|
C|----2---------0---------0-----0-----0------------|
G|-3-----------------------------------------------|
C|-----------5----------0--------------------------|

Play the whole chorus twice in all, then play the part below VVV.
++++++++++++++++++++++++++++
"Cause I'm lonely..."
Guitar 1:
Play these chords: C D B7 Em D5 C  Cadd9~ Gadd9~~

Guitar 2:
D|-----------------------------------------------------3---------3~--3~-|
A|-1-------1------3---3--3-3---------------------------3---------3~--0~-|
F|-0-------0------2---2--2-2---------------4---2---0---0---0-----0~--2~-|
C|-2--2-2--2------0---0--0-0-----4----4----2---0---x-----------------0~-|
G|-3--3-3--3---------------------2----2------------3----------3------x~-|
D|-------------------------------------------------------------------3~-|

Guitar 3:
D|------------------------------------------------------3~---3~-|
A|------------------------------------------------------3~---3~-|
F|-------0---------2---------------0-----0--------0-----0~---0~-|
C|----2------0--4--------1--4---2-----0--------2-----2-------0~-|
G|-3------------------2---------------------3----------------x--|
C|-----------------------------------------------------------5~-|

++++++++++++++++++++++++++++++
Bridge:
"Well some search..."
Guitar 4:
D|---------------------------------------------------------------------|
A|---------------------------------------------------------------------|
F|-------11---12---11-------11---12-------7---9---7p5------------------|
C|----9-----9----9----9---9----9----9---5---5---5---------9---7--------|
G|-7--------------------6-------------3-------------------------5------|
C|----------------------------------------------------5-5---5-----4~~~-|
   ....     .    .      ...    .      ...   .   .     ...   .


Guitar 5:
D|--------------------------------------------------|
A|--------------------------------------------------|
F|-9--9------8--8------5--5-------------------------|
C|-x--x------x--x------x--x----------------7--------|
G|-7--7------6--6------3--3------------------5------|
C|-------------------------------5--5--5-5-----4~~~-|
                                       ...


**Now Guitar 4 plays his part 4 times in all, and Guitar 5 plays his 3 times
  for this part: "Before long, they waste away..."

++++++++++++++++++++++++++++++
"I gave in..."
Guitar 5:
D|-------------------------------------------------|
A|-------------------------------------------------|
F|-9--9------8--8------5--5------------------------|
C|-x--x------x--x------x--x------------------------|
G|-7--7------6--6------3--3------------------------|
C|-------------------------------5--5----4--4--4-4-|
                                               ...

++++++++++++++++++++++++++++++
Guitar 4:
"And how I miss someone..."
D|---------3---------------3---------------0---2h3--3---2--0-----|
A|-----1-------1-------1-------1-------3-----------------------3-|
F|-----------------------------------2----------------2------2---|
C|---2---2---2---2---2---2---2---2-0-----0---0-------------------|
G|-0---------------0---------------------------------------------|
C|---------------------------------------------------------------|
   ...   .   .     ...   .   .     ...   .   .        .      .

Guitar 5:
D|---------------------------------------------------------|
A|---------------------------------------------------------|
F|-----9------9------9------9------7------7------7------7\-|
C|-----7------7------7------7------7------7------7------7\-|
G|-0-0----0-0----0-0----0-0----9-9----9-9----9-9----9-9----|
D|---------------------------------------------------------|
   ...    ...    ...    ...    ...    ...    ...    ...

+++++++++++++++++++++++++++++
Guitar 1:
D|-3----3~~~~3-----2--2h3----0---------------------------------------|
A|-3----3~~~~-3----3--3---3--3-------0-----0------------3--3h5p3---3-|
F|-0----0~~~~--0------2---------x----0--x--0------------4------------|
C|-2p0----------0---------------x----2--x--2h/4--2------4--------4---|
G|---------------------------------0----------------2-2--------------|
D|-------------------------------------------------------------------|

Guitar 1 Continued:
D|-----------------------------3~~~3---------2---2h3--------0h2--|
A|----------1h3--1-------------3~~~-3--------3---3----------3----|
F|-x----0---0----0--x----0-----0~~~--0-------2---2----------2----|
C|-x----2-----------x-------x---------0---0-----------0--0-------|
G|---0--3-------------------x-----------0----------------0-------|
D|---------------------3-----------------------------------------|

++++++++++++++++++++++++++++
Chorus 3:
"Dear God..."
Guitar 1:
Play these chords: G5 D Em D5

Guitar 2:
D|-3----------------------------0----0--------------|
A|-3---3---------3--3-----------0----0-----------3--|
F|-0---0---------2--2-----------0----0------2----2--|
C|-0---------0---0--0-----------2-------0---0----0--|
G|-x---------------------2--------------------------|
D|-2---------------------0--------------------------|

Guitar 3:
D|-------------------------------------------|
A|-------------------------------------------|
F|------0---------2--2---------0----------2--|
C|---0------------0---------2----------0-----|
G|-------------------------------------------|
C|-5-------5\--0----------2----------0-------|

++++++++++++++++++++++++++++
Chorus Continued
Guitar 1:
Play these chords: C G5 D


Guitar 2:
D|------------------------3-----------------------------------|
A|-1----1----1----3-------3----3---3-3-3---3---3-3--3-3-3--3--|
F|-0----0----0----0-------0----2---2-2-2---2---2-2--2-2-2--2--|
C|-2----2------------0---------0---0-0-0---0---0-0--0-0-0--0--|
G|-3----3------------x----------------------------------------|
D|--------------3----3----------------------------------------|

Guitar 3:
D|-------------------------------------------------|
A|---------------------------------3---------------|
F|-------0---------0---------2------------2---2p0--|
C|----2---------0---------0-----0-----0------------|
G|-3-----------------------------------------------|
C|-----------5----------0--------------------------|

Play the whole chorus twice in all, then play the part below VVV.
++++++++++++++++++++++++++++
"Cause I'm lonely..."
Guitar 1:
Play these chords: C D B7 Em D5 C  Cadd9~

Guitar 2:
D|-----------------------------------------------------3---------3-|
A|-1-------1------3---3--3-3---------------------------3---------3-|
F|-0-------0------2---2--2-2---------------4---2---0---0---0-----0-|
C|-2--2-2--2------0---0--0-0-----4----4----2---0---x---------------|
G|-3--3-3--3---------------------2----2------------3----------3----|
D|-----------------------------------------------------------------|

Guitar 3:
D|------------------------------------------------------3~-|
A|------------------------------------------------------3~-|
F|-------0---------2---------------0-----0--------0-----0~-|
C|----2------0--4--------1--4---2-----0--------2-----2-----|
G|-3------------------2---------------------3--------------|
C|---------------------------------------------------------|

++++++++++++++++++++++++++++
Interlude:
"Again..."
Guitar 1: Listen for the rhythm of each chord:
D|-0-----2----0-----3-------|
A|-0-----0----1-----3----3--|
F|-0-----2----0-----0----2--|
C|-2-----1----2-----0----0--|
G|-2----------3-----x----x--|
D|-0----------------3----2--|

**Play this 4 times in all.**

+++++++++++++++++++++++++++++
Guitar solo:
Guitar 1: Listen for the rhythm of each chord:
Play this for the rest of the song.
D|-0-----2----0-----3-------|
A|-0-----0----1-----3----3--|
F|-0-----2----0-----0----2--|
C|-2-----1----2-----0----0--|
G|-2----------3-----x----x--|
D|-0----------------3----2--|

Guitar 4: Play this for the rest of the song.
D|---------------------------------------------------------------------|
A|---------------------------------------------------------------------|
F|-------11---12---11-------11---12-------7---9---7p5------------------|
C|----9-----9----9----9---9----9----9---5---5---5---------9---7--------|
G|-7--------------------6-------------3-------------------------5------|
C|----------------------------------------------------5-5---5-----4~~~-|
   ....     .    .      ...    .      ...   .   .     ...   .


Guitar 5: Play this for the resst of the song.

D|--------------------------------------------------|
A|--------------------------------------------------|
F|-9--9------8--8------5--5-------------------------|
C|-x--x------x--x------x--x----------------7--------|
G|-7--7------6--6------3--3------------------5------|
C|-------------------------------5--5--5-5-----4~~~-|
                                       ...


Guitar 6: Syn
     1     1_______           1     1______                   1___
D|------------------------------------------------------------------------------------------|
A|-15b---15b-------(15)p12--14b---14b------(14)p12--13--13--13b---(13)-12-------------------|
F|-----------------------------------------------------------------------12-----------------|
C|-------------------------------------------------------------------------12p\10-9-10-9----|
G|---------------------------------------------------------------------------------------10-|
D|------------------------------------------------------------------------------------------|


Guitar 6: Syn
               1___           1____                                    1___
D|---------------------------------------------------------------------------------|
A|------------8b---(8)p7~~~~~8b----(8)--8~~~~13-13h15--13-12-----------------------|
F|----------9------------------------------------------------12-----12pb---(12)p11-|
C|--------9-----------------------------------------------------12-----------------|
G|-----10--------------------------------------------------------------------------|
D|-12~~----------------------------------------------------------------------------|


Guitar 6: Syn
     1    1__                     1    1__                     1______            .5_____
D|---------------------------------------------------------------------------------------|
A|-------------------------------------------------------------------------------12b~~~~~|
F|-14b--14b--(14)p12----12~~~14-14b--14b--(14)p12----12~~~~-/14b--14--(14)p12-14---------|
C|-------------------14---------------------------14-------------------------------------|
G|---------------------------------------------------------------------------------------|
D|---------------------------------------------------------------------------------------|


Guitar 6: Syn
     1_______________        1___        1___        1____        1___         1_________
D|-------------------------------12--12------12--12-------11--11------11--11-15b-15-15~~~|
A|-13b~~~~~~~~13~~~~~(13)--15b~~~--15--15b~~~--15--15b~~~~--15--15b~~~--15---------------|
F|---------------------------------------------------------------------------------------|
C|---------------------------------------------------------------------------------------|
G|---------------------------------------------------------------------------------------|
D|---------------------------------------------------------------------------------------|

Guitar 6: Syn
               1     1__            .5________
D|-----15----17b---17b--(17)----17------------|
A|-----15-15-----------------20----16b~~~~~~~~|
F|-/16----------------------------------------|
C|--------------------------------------------|
G|--------------------------------------------|
D|--------------------------------------------|

Guitar 7: This is the slide guitar that duels against Syn.
                                   1____                                       1__
D|-------------------------------15b----(15)--15~~~~~/20---19h/22---19p17---------|
A|-12--16h/17~~~~~17h/20--19~~~~~-----------------------------------------20-22b--|
F|--------------------------------------------------------------------------------|
C|--------------------------------------------------------------------------------|
G|--------------------------------------------------------------------------------|
D|--------------------------------------------------------------------------------|

Guitar 7: Slide Guitar
        1__
D|-22------22--------23--------23--17h/24~~~~-/17h/19p\17-----17h/19p\17------17-|
A|----22b------22h24-----22h24-----------------------------20-------------20-----|
F|-------------------------------------------------------------------------------|
C|-------------------------------------------------------------------------------|
G|-------------------------------------------------------------------------------|
D|-------------------------------------------------------------------------------|


Guitar 7: Slide Guitar
D|---------------------------------------------------------------|
A|-17~~~15----15/h17--15----16-\12----12-------------------------|
F|---------16------------16--------14----14---14-12----12--------|
C|--------------------------------------------------14-----14-12-|
G|---------------------------------------------------------------|
D|---------------------------------------------------------------|

Guitar 6: Syn
            .5      1__                 1__              1__
D|----------------------------------------------------------------------|
A|-15-------------------------------------------------------------------|
F|-14--14-14pb---14pb--14p12----------14b--(14)p12--12-14b~~(14)p12--12-|
C|---------------------------14-12~~~~------------14---------------14---|
G|----------------------------------------------------------------------|
D|----------------------------------------------------------------------|

Guitar 6: Syn
     1__              1__              1__                       1    1___
D|---------------------------------------------------------------------------|
A|-------------------------------------------------------------15b--15b~~~12-|
F|-14b~~(14)p12--12-14b--(14)p12--12-14b--(14)p12--12-14-15-17------------12-|
C|-------------14---------------14---------------14--------------------------|
G|---------------------------------------------------------------------------|
D|---------------------------------------------------------------------------|

Guitar 6: Syn
           1__            1    1    1     1    1     1      1    1     1_____
D|---------------12-----12---12---15----14---14----17-----15---15---/18b~~~~~|
A|------------12----12--15b--15b--18b---17b--17b---20b----18b--18b-----------|
F|-14-12-14b-----------------------------------------------------------------|
C|---------------------------------------------------------------------------|
G|---------------------------------------------------------------------------|
D|---------------------------------------------------------------------------|

Guitar 6: Syn
     1____              1____          1    1    1       1    1    1_____
D|-17b----(17)--15-17-------------12-12---12---15------14---14---17----------|
A|--------------------15b----(15)----15b--15b--18b~~~~~17b--17b--20b~~~~~(20)|
F|---------------------------------------------------------------------------|
C|---------------------------------------------------------------------------|
G|---------------------------------------------------------------------------|
D|---------------------------------------------------------------------------|

Guitar 6: Syn
     1    1    1____       1    1
D|-15---15---12----------10---12---/14--------------|
A|-18b--18b--15b~~~~(15)-13b--15b-------------------|
F|-------------------------------------17p\14~~~~12-|
C|--------------------------------------------------|
G|--------------------------------------------------|
D|--------------------------------------------------|

++++++++++++++++++++++++++++++
Ending
Guitar 8:
D|-------------------------------------------------12--/15---------------------|
A|-----------10--12\----------------10\--------13-----------12\8---17-15-13-15-|
F|-9h/12~~~~~---------8h/11~~~~~12------9h/12----------------------------------|
C|-----------------------------------------------------------------------------|
G|-----------------------------------------------------------------------------|
D|-----------------------------------------------------------------------------|

Guitar 9:
D|----------------------------------------------------------------------------|
A|-----------------------------------------------13--/17--15p\12--13-12----12-|
F|-7h/9~~~~~11--12\-------------9--11\--------12------------------------14----|
C|------------------10h/13~~~~~~-------12h/14---------------------------------|
G|----------------------------------------------------------------------------|
D|----------------------------------------------------------------------------|

++++++++++++++++++++++++++++++
Guitar 8 continued:

D|---------------------------------------------12-/15--------------------|
A|-----------10--12\--------------10\-------13--------12--12-13----------|
F|-9h/12~~~~~--------8h/11~~~~12------9h/12---------------------11~~~--9-|
C|-----------------------------------------------------------------------|
G|-----------------------------------------------------------------------|
D|-----------------------------------------------------------------------|

Guitar 9 continued:
D|-----------------------------------------------------------------------------------|
A|-------------------------------------------------13-15h/17--15--15-17--------------|
F|-7h/9~~~~~/9h/11--12\--5h/8~~~~~9--11\--------12----------------------17p\14~~~-12-|
C|---------------------------------------12h/14--------------------------------------|
G|-----------------------------------------------------------------------------------|
D|-----------------------------------------------------------------------------------|

Guitar 8 and 9 keep on playing their duel parts over and over until the song fades.

Please comment and rate my tab, it took me a long time to tab it out.
[travis]

*******************

END

=======================================
***************************************
comments
We did not receive enough feedback on this tab! Please rate:
print report bad tab
1 2 3 4 5
2 comments total.
0 reply
ashley-morton wrote on November 12 2008, 04:08 am

wow this is good

-2 reply
Almost Innocent wrote on July 23 2009, 10:20 am

Gunslinger doesn't sound right

I want to post or [tab]
guest
You may want to rate the tab now too:
select rating
Please do not post tabs as comments. Select "correction" instead!