Oops, an error
Loading. Please wait.

Bat Country Acoustic Tab

2,814 views 19 this week
no commentswrite comment
1 2 3 4 5
excellent!
x 3
Autoscroll
+/-
esc
set tempo
stop
Contributor
Difficulty
Tuning
intermediate
D A D G B E
Hey! There's an official Ultimate Guitar app which is ideal
for learning songs when you're away from computer. Get the app
WARNING: You are trying to view
                                    content from Ultimate-Guitar.com
                                    in an unauthorized application,
                                    which is prohibited.

                                    Please use an official Ultimate
                                    Guitar Tabs application for iPhone,
                                    iPad or Android to access legitimate
                                    chords, guitar, bass, and drum tabs
                                    from Ultimate-Guitar.com database.

                                    Type "ultimate guitar tabs" in Apple
                                    App Store's or Android Market's
                                    search to find the application.
100% using hearing method.
Instrumental originally by Eric Draven.
Vocal by M.Shadows
A7X-Bat Country Acoustic Version!
Tabbed by Cassius Mike


Intro:
e|--------------------------------------------------------------------------|
b|-------------6-----6-6-6/9-8-6-------------6-----6-6-6/9-6-5--------------|
g|-7-55-7-55-7---5/8-------------7-55-7-55-7---5/8--------------------------|
d|--------------------------------------------------------------------------|
a|--------------------------------------------------------------------------|
D|--------------------------------------------------------------------------|


Pre Verse:
e|--------------------------------------------------------------------------|
b|--------------------------------------------------------------------------|
g|-7~--5~-------------7~--5~------------5-----5-----------------------------|
d|--------7~--5~--5h7--------5~--3h5/7-----7--------------------------------|
a|--------------------------------------------------------------------------|
D|--------------------------------------------------------------------------|


Verse 1:                                                                  X2
e|--------------------------------------------------------------------------|
b|-------------6------------------------------------------------------------|
g|-7-55-7-55-7---7-5-----7-5------------------------------------------------|
d|-------------------7-6-----7-6--------------------------------------------|
a|-------------------------------8------------------------------------------|
D|--------------------------------------------------------------------------|


Pre Chorus:
e|--------------------------------------------------------------------------|
b|-----5-6-8-5-6-----5-6-8-6-8-10-10-10-10-11-11-11-11-13-13-13-13-11-10-8-6|
g|-5-7-----------5-7--------------------------------------------------------|
d|--------------------------------------------------------------------------|
a|--------------------------------------------------------------------------|
D|--------------------------------------------------------------------------|


Chorus:
e|--------------------------------------------------------------------------|
b|-----6-5h6p5-----6/8-8-8-6-6-6p5------------------------------------------|
g|-7-7---------5-7-----------------5-5-555-5-----5/6-6-6-5---5h6p5----------|
d|-------------------------------------------567-----------5-------5--------|
a|--------------------------------------------------------------------------|
D|--------------------------------------------------------------------------|

e|--------------------------------------------------------------------------|
b|-----6-5h6p5-----6/8-8-8-6-6-6p5------------------------------------------|
g|-7-7---------5-7-----------------5-5-555-5-----5/6-6-6-5---5--------------|
d|-------------------------------------------567-----------5---5------------|
a|--------------------------------------------------------------------------|
D|--------------------------------------------------------------------------|


Verse 2                            X3|
e|-----------------------------------|--------------------------------------|
b|-------------6---------------------|--------6-8-8/10-10-10-9-8-6----------|
g|-7-55-7-55-7---7-5-----7-5---------|-7-55-7----------------------7--------|
d|-------------------7-6-----76------|-----------------------------------57-|
a|------------------------------875--|-------------------------------567----|
D|-----------------------------------|--------------------------------------|


Pre Chorus:
e|--------------------------------------------------------------------------|
b|-----5-6-8-5-6-----5-6-8-6-8-10-10-10-10-11-11-11-11-13-13-13-13-11-10-8-6|
g|-5-7-----------5-7--------------------------------------------------------|
d|--------------------------------------------------------------------------|
a|--------------------------------------------------------------------------|
D|--------------------------------------------------------------------------|


Chorus:
e|--------------------------------------------------------------------------|
b|-----6-5h6p5-----6/8-8-8-6-6-6p5------------------------------------------|
g|-7-7---------5-7-----------------5-5-555-5-----5/6-6-6-5---5h6p5----------|
d|-------------------------------------------567-----------5-------5--------|
a|--------------------------------------------------------------------------|
D|--------------------------------------------------------------------------|

e|--------------------------------------------------------------------------|
b|-----6-5h6p5-----6/8-8-8-6-6-6p5------------------------------------------|
g|-7-7---------5-7-----------------5-5-555-5-----5/6-6-6-5---5--------------|
d|-------------------------------------------567-----------5---5------------|
a|--------------------------------------------------------------------------|
D|--------------------------------------------------------------------------|


Interlude:
e|-5-------5-------------------------------0---------------7----------------|
b|-6-------------6-------8-------------------------------5---5--------------|
g|---7-7-7-----7-----5-7---7-5---5-----0-----0---------7-------7------------|
d|-----------7-----5-----------5-----2---2-----2-----6-----------6----------|
a|---------------------------------3-------------3-7------------------------|
D|--------------------------------------------------------------------------|

e|---------5---------------3---------0-----0-----3-----3---3----------------|
b|-----5-----5---------3-----3---------1-----1-----1-----1---1--------------|
g|---5---5-----5-----4---4-----4---------------------2---------2------------|
d|-7-------------7-5-------------5-3-----3-----3----------------------------|
a|--------------------------------------------------------------------------|
D|--------------------------------------------------------------------------|

e|-5-------5-------------------------------0---------------7----------------|
b|-6-------------6-------8-------------------------------5---5--------------|
g|---7-7-7-----7-----5-7---7-5---5-----0-----0---------7-------7------------|
d|-----------7-----5-----------5-----2---2-----2-----6-----------6----------|
a|---------------------------------3-------------3-7------------------------|
D|--------------------------------------------------------------------------|

e|---------5---------------3---------------0-------00000000-----------------|
b|-----5-----5---------3-----3---------1-----1-----11111111-----------------|
g|---5---5-----5-----4---4-----4-----2---2-----2---22222222-----------------|
d|-7-------------7-5-------------5-3-------------3-33333333-----------------|
a|--------------------------------------------------------------------------|
D|--------------------------------------------------------------------------|


Pre Solo:
e|-----------------------8--------------------------------------------------|
b|-------6-6/8-6-8/10-10---10--8-6-5----------------------------------------|
g|-5/7-7-----------------------------7-5-7-7p5-----------5---5--------------|
d|---------------------------------------------5-3h5-5/7---7----------------|
a|--------------------------------------------------------------------------|
D|--------------------------------------------------------------------------|

e|-----------------------8--------------------------------------------------|
b|-------6-6/8-6-8/10-10---10--8-6-5-------6-8-6-8/10-8-6-5-5h6p5-----------|
g|-5/7-7-----------------------------5/7-7------------------------7-5-------|
d|--------------------------------------------------------------------------|
a|--------------------------------------------------------------------------|
D|--------------------------------------------------------------------------|

e|-----------------------10-8-------------------------8-10-10bv--10-8-------|
b|---6---6-8-6-8-10-8-0-------10-8---------6-8-6-8/10-----------------10-9--|
g|-7---7---------------------------10--7-7----------------------------------|
d|--------------------------------------------------------------------------|
a|--------------------------------------------------------------------------|
D|--------------------------------------------------------------------------|


Solo:
e|-----------------------------------------------8----8-10-12---------------|
b|-----------6---------6-6/9-8-6------6-8-6-8/10---10-----------------------|
g|-7-5-7-5-7---5-7-5-7-----------5/7~---------------------------------------|
d|--------------------------------------------------------------------------|
a|--------------------------------------------------------------------------|
D|--------------------------------------------------------------------------|

Moderate fast alternate picking!
e|-13-12-10-12-10-8---------------------------------------------------------|
b|------------------10------------------------------------------------------|
g|---------------------12-10----12-10-12-13--12-10-12-10--------------------|
d|---------------------------12--------------------------12-----------------|
a|--------------------------------------------------------------------------|
D|--------------------------------------------------------------------------|

e|--------------10-8-10-1010101010101010-8888-------------------------------|
b|-----6-868/10-------------------------------88888888----------------------|
g|-5/7-------------------------------------------------7-5----7-5---75------|
d|---------------------------------------------------------7-5---7-6--76----|
a|----------------------------------------------------------------------875-|
D|--------------------------------------------------------------------------|

e|--------------------------------------------------------------------------|
b|--------------8-10-12-131313-151515---------------------------------------|
g|-----868-8/10------------------------------8---6--------------------------|
d|-567-----------------------------------------9---7-7-77-9-9-99999-5---5---|
a|--------------------------------------------------------------------5-----|
D|--------------------------------------------------------------------------|

e|---------------5-6-666-66-5-6-5h6p5------------------5h6-5----------------|
b|-----------5-6----------------------6-8-888-88-5-6-5-------5-6-8----------|
g|-7-------7----------------------------------------------------------------|
d|---7---7------------------------------------------------------------------|
a|-----8--------------------------------------------------------------------|
D|--------------------------------------------------------------------------|

e|-------------5-6-666-66-5-6-5h6p5------------------5/6-5------------------|
b|-6-------5-6----------------------6-8-888-88-5-6-5-------5-6-8-6-----5-6--|
g|---7---7---------------------------------------------------------7-7------|
d|-----7--------------------------------------------------------------------|
a|--------------------------------------------------------------------------|
D|--------------------------------------------------------------------------|

e|----------------5h6p5-5h6p5-5h6p5-5h6p5-5h6p6-----------------------------|
b|-5-6------------------------------------------865---------5---------------|
g|-----8-8-888-8------------------------------------76---67---6-7-----------|
d|-----------------------------------------------------7--------------------|
a|--------------------------------------------------------------------------|
D|--------------------------------------------------------------------------|


Verse 3:          (Follow the song's stumming)                            X2
e|--------------------------------------------------------------------------|
b|--------------------------------------------------------------------------|
g|-7--------------------------------7---------------------------------------|
d|-7----------6----------0----------7----------6----------0-----------------|
a|-5----------6----------0----------5----------6----------0-----------------|
D|------------6----------0---------------------6----------0-----------------|

e|--------------------------------------------------------------------------|
b|--------------------------------------------------------------------------|
g|-------------------5---------------------7~-------------------------------|
d|-0-2-3--3----------5----------5----------7~----------0--2--3--3-----------|
a|-0-2-3--3----------3----------5----------5~----------0--2--3--3-----------|
D|-0-2-3--3---------------------5----------------------0--2--3--3-----------|

e|--------------------------------------------------------------------------|
b|--------------------------------------------------------------------------|
g|-5----------3----------0-------0------------------------------------------|
d|-5----------3----------2-------2------------------------------------------|
a|-3----------1----------0-------4------------------------------------------|
D|--------------------------------------------------------------------------|


Chorus:
e|--------------------------------------------------------------------------|
b|-----6-5h6p5-----6/8-8-8-6-6-6p5------------------------------------------|
g|-7-7---------5-7-----------------5-5-555-5-----5/6-6-6-5---5h6p5----------|
d|-------------------------------------------567-----------5-------5--------|
a|--------------------------------------------------------------------------|
D|--------------------------------------------------------------------------|

e|--------------------------------------------------------------------------|
b|-----6-5h6p5-----6/8-8-8-6-6-6p5------------------------------------------|
g|-7-7---------5-7-----------------5-5-555-5-----5/6-6-6-5---5--------------|
d|-------------------------------------------567-----------5---5------------|
a|--------------------------------------------------------------------------|
D|--------------------------------------------------------------------------|


Interlude:
e|-5-------5-------------------------------0---------------7----------------|
b|-6-------------6-------8-------------------------------5---5--------------|
g|---7-7-7-----7-----5-7---7-5---5-----0-----0---------7-------7------------|
d|-----------7-----5-----------5-----2---2-----2-----6-----------6----------|
a|---------------------------------3-------------3-7------------------------|
D|--------------------------------------------------------------------------|

e|---------5---------------3---------0-----0-----3-----3---3----------------|
b|-----5-----5---------3-----3---------1-----1-----1-----1---1--------------|
g|---5---5-----5-----4---4-----4---------------------2---------2------------|
d|-7-------------7-5-------------5-3-----3-----3----------------------------|
a|--------------------------------------------------------------------------|
D|--------------------------------------------------------------------------|

e|-5-------5-------------------------------0---------------7----------------|
b|-6-------------6-------8-------------------------------5---5--------------|
g|---7-7-7-----7-----5-7---7-5---5-----0-----0---------7-------7------------|
d|-----------7-----5-----------5-----2---2-----2-----6-----------6----------|
a|---------------------------------3-------------3-7------------------------|
D|--------------------------------------------------------------------------|

e|---------5---------------3---------------0-------00000000-----------------|
b|-----5-----5---------3-----3---------1-----1-----11111111-----------------|
g|---5---5-----5-----4---4-----4-----2---2-----2---22222222-----------------|
d|-7-------------7-5-------------5-3-------------3-33333333-----------------|
a|--------------------------------------------------------------------------|
D|--------------------------------------------------------------------------|

                    (Follow the song's strumming)                         X2
e|-1--------3--------X--------X--------0---------3--------0-----------------|
b|-3--------3--------1--------X--------1---------3--------1-----------------|
g|-2--------0--------0--------1--------2---------0--------2-----------------|
d|-0--------0--------2--------2--------2---------0--------3-----------------|
a|-X--------2--------3--------2--------X---------2--------3-----------------|
D|-X--------X--------X--------X--------X---------X--------X-----------------|
comments
We did not receive enough feedback on this tab! Please rate:
print report bad tab
1 2 3 4 5
I want to post or [tab]
guest
You may want to rate the tab now too:
select rating
Please do not post tabs as comments. Select "correction" instead!