Oops, an error
Loading. Please wait.

Bat Country Bass Tab

95,887 views 178 this week
15 commentsread comments
1 2 3 4 5
accurate
x 48
Autoscroll
+/-
esc
set tempo
stop
Difficulty
intermediate
Hey! There's an official Ultimate Guitar app which is ideal
for learning songs when you're away from computer. Get the app
WARNING: You are trying to view
                                    content from Ultimate-Guitar.com
                                    in an unauthorized application,
                                    which is prohibited.

                                    Please use an official Ultimate
                                    Guitar Tabs application for iPhone,
                                    iPad or Android to access legitimate
                                    chords, guitar, bass, and drum tabs
                                    from Ultimate-Guitar.com database.

                                    Type "ultimate guitar tabs" in Apple
                                    App Store's or Android Market's
                                    search to find the application.
* New contributor: Teh D Bot
** Old Version attached at bottom
*** http://profile.ultimate-guitar.com/Teh+D+Bot/

Bat Country

0:07
G|-----------------------------------------------------------------|
D|-----------------------------------------------------------------|
A|-5---5-5-5-5-5---------------------------------------------------|
D|-----------------6---6-6---6-0-----0-0---0-0-0---5-3-5-6-5-3-0---|
   1 e + a 2 e + a 3 e + a 4 e + a 1 e + a 2 e + a 3 e + a 4 e + a 

G|-----------------------------------------------------------------|
D|-----------------------------------------------------------------|
A|-5---5-5---5-5---------------------------------------------------|
D|-----------------6---6-6---6-0-----0-0---0-0-0---5-3-5-6-5-3-0---|
   1 e + a 2 e + a 3 e + a 4 e + a 1 e + a 2 e + a 3 e + a 4 e + a 

Verse 0:15
G|-------------------------------------------------------------------|
D|o-----------------------------------------------------------------o|
A|o-5---------------------------------------------------------------o|
D|--------------6---------------5---------------3--------------------|
    1 e + a 2 e + a 3 e + a 4 e + a 1 e + a 2 e + a 3 e + a 4 e + a 

G|-----------------------------------------------------------------|
D|-----------------------------------------------------------------|
A|-5-5-5-5-5-5-5-5-------------------------------------------------|
D|-----------------6-6-6-6-6-6-6-6-0-0-0-0-0-0-0-0-0-0-0-0-0-0-0-0-|
   1 e + a 2 e + a 3 e + a 4 e + a 1 e + a 2 e + a 3 e + a 4 e + a 

G|-----------------------------------------------------------------|
D|-----------------------------------------------------------------|
A|-5-5-5-5-5-5-5-5-----------------5-5-5-5-5-5-5-5-5-5-5-5-5-5-5-5-|
D|-----------------6-6-6-6-6-6-6-6---------------------------------|
   1 e + a 2 e + a 3 e + a 4 e + a 1 e + a 2 e + a 3 e + a 4 e + a 

Pre Chorus 0:29
G|-----------------------------------------------------------------|
D|-----------------------------------------------------------------|
A|-5-5-5-5-5-5-5-5---------------------------------4-4-4-4-4-4-4-4-|
D|-----------------6-6-6-6-6-6-6-6-5-5-5-5-5-5-5-5-----------------|
   1 e + a 2 e + a 3 e + a 4 e + a 1 e + a 2 e + a 3 e + a 4 e + a 

G|-----------------------------------------------------------------|
D|-----------------------------------------------------------------|
A|-5-5-5-5-5-5-5-5-7-7-7-7-7-7-7-7---------------------------------|
D|---------------------------------3---3---3---3---2---2---2---2---|
   1 e + a 2 e + a 3 e + a 4 e + a 1 e + a 2 e + a 3 e + a 4 e + a 

Chorus 0:38
G|-------------------------------------------------------------------|
D|o-------------------------------------------------------------2-3-o|
A|o-5---5---5-5---------------------3-3-3---3-3-3---------3---0-----o|
D|------------------5-5---3---0-3-0-----------------3-3--------------|
    1 + 2 + 3 + 4 + 1 + 2 + 3 + 4 + 1 + 2 + 3 + 4 + 1 + 2 + 3 + 4 +

Verse 0:53 
G|-----------------------------------------------------------------|
D|-----------------------------------------------------------------|
A|-5---5-5-5-5-5-5-------------------------------------------------|
D|-----------------6---6-6-6-6-6-6-0-0-0-0-0-0-0-0-0-0-0-0-0-0-0-0-|
   1 e + a 2 e + a 3 e + a 4 e + a 1 e + a 2 e + a 3 e + a 4 e + a 

G|-------------------------------------------------------------------|
D|o-----------------------------------------------------------------o|
A|o-5---5-5-5-5-5-5-----------------5-5-5-5-5-5-5-5-5-5-5-5-5-5-5-5-o|
D|------------------6---6-6-6-6-6-6----------------------------------|
   1 e + a 2 e + a 3 e + a 4 e + a 1 e + a 2 e + a 3 e + a 4 e + a 

G|-----------------------------------------------------------------|
D|-----------------------------------------------------------------|
A|-5---5-5-5-5-5-5-------------------------------------------------|
D|-----------------6---6-6-6-6-6-6-0-0-0-0-0-0-0-0-0-0-0-0-0-0-0-0-|
   1 e + a 2 e + a 3 e + a 4 e + a 1 e + a 2 e + a 3 e + a 4 e + a 

Pre Chorus 1:08
G|-----------------------------------------------------------------|
D|-----------------------------------------------------------------|
A|-5-5-5-5-5-5-5-5---------------------------------4-4-4-4-4-4-4-4-|
D|-----------------6-6-6-6-6-6-6-6-5-5-5-5-5-5-5-5-----------------|
   1 e + a 2 e + a 3 e + a 4 e + a 1 e + a 2 e + a 3 e + a 4 e + a 

G|-----------------------------------------------------------------|
D|-----------------------------------------------------------------|
A|-5-5-5-5-5-5-5-5-7-7-7-7-7-7-7-7---------------------------------|
D|---------------------------------3---3---3---3---2---2---2---2---|
   1 e + a 2 e + a 3 e + a 4 e + a 1 e + a 2 e + a 3 e + a 4 e + a 

Chorus 1:16
G|-------------------------------------------------------------------|
D|o-------------------------------------------------------------2-3-o|
A|o-5---5---5-5---------------------3-3-3---3-3-3---------3---0-----o|
D|------------------5-5---3---0-3-0-----------------3-3--------------|
    1 + 2 + 3 + 4 + 1 + 2 + 3 + 4 + 1 + 2 + 3 + 4 + 1 + 2 + 3 + 4 +

1:31
G|-----------------------------------------------------------------|
D|-------------2-3-5-5-5-5-5-3-5-3---------------------------------|
A|-5-5-5-5-5-----------------------3-3-3-3-3-3-2-3-7-7-7-7-7-7-5-7-|
D|-----------------------------------------------------------------|
   1 + 2 + 3 + 4 + 1 + 2 + 3 + 4 + 1 + 2 + 3 + 4 + 1 + 2 + 3 + 4 +

G|---------------4-------------------------------------------------|
D|-7---------5-7---5-----------5-7-----------------7-5---5---------|
A|---------------------------8-----8-------------------8---8-7-8-7-|
D|-----------------------------------------------------------------|
   1 + 2 + 3 + 4 + 1 + 2 + 3 + 4 + 1 + 2 + 3 + 4 + 1 + 2 + 3 + 4 +

G|-----------------------------------------------------------------|
D|-7-------------7-5-----------5-7---------------------------------|
A|---8-5-----5-8-------------8-----3-3-3-3---3-2-3-7-7-7-7---7-5-7-|
D|-----------------------------------------------------------------|
   1 + 2 + 3 + 4 + 1 + 2 + 3 + 4 + 1 + 2 + 3 + 4 + 1 + 2 + 3 + 4 +

G|---------------4-------------------------------------------------|
D|-7---------5-7---5-----------5-7-----------------7-5---5---------|
A|---------------------------8-----8-------------------8---8-7-8-7-|
D|-----------------------------------------------------------------|
   1 + 2 + 3 + 4 + 1 + 2 + 3 + 4 + 1 + 2 + 3 + 4 + 1 + 2 + 3 + 4 +

Verse 2:02 
G|-------------------------------------------------------------------|
D|o-----------------------------------------------------------------o|
A|o-5---------------------------------------------------------------o|x4
D|--------------6---------------5---------------3--------------------|
   1 e + a 2 e + a 3 e + a 4 e + a 1 e + a 2 e + a 3 e + a 4 e + a 

Interlude
G|-------------------------------------------------------------------|
D|o-----------------------------------------------------------------o|
A|o-5---5---5-------------------------------------------------------o|
D|--------------6-------6---6---5-------5---5---0-r------------------|
    1 e + a 2 e + a 3 e + a 4 e + a 1 e + a 2 e + a 3 e + a 4 e + a 

Solo 2:25
G|-------------------------------------------------------------------|
D|o-----------------------------------------------------------------o|
A|o-5-5-5-5-5-5-5-5-------------------------------------------------o|x4
D|------------------6-6-6-6-6-6-6-6-0-0-0-0-0-0-0-0-0-3-5-6---6-6----|
    1 e + a 2 e + a 3 e + a 4 e + a 1 e + a 2 e + a 3 e + a 4 e + a 

G|-----------------------------------------------------------------|
D|-----------------------------------------------------------------|
A|-5-5-5-5-5-5-5-5---------------------------------4-4-4-4-4-4-4-4-|
D|-----------------6-6-6-6-6-6-6-6-5-5-5-5-5-5-5-5-----------------|
   1 e + a 2 e + a 3 e + a 4 e + a 1 e + a 2 e + a 3 e + a 4 e + a 

G|-----------------------------------------------------------------|
D|-----------------------------------------------------------------|
A|-5-5-5-5-5-5-5-5-7-7-7-7-7-7-7-7---------------------------------|
D|---------------------------------3-3-3-3-3-3-3-3-2-2-2-2-2-2-2-2-|
   1 e + a 2 e + a 3 e + a 4 e + a 1 e + a 2 e + a 3 e + a 4 e + a 

G|-----------------------------------------------------------------|
D|-----------------------------------------------------------------|
A|-----------------------------------------------------------------|
D|-0---------------------------------------------------------------|
   1 e + a 2 e + a 3 e + a 4 e + a 1 e + a 2 e + a 3 e + a 4 e + a 

2:52
G|------------------------------------------------------------------|
D|o-----------------------------------------------------------------|
A|o-----------------------------------------------------------------|
D|--0-0-0-0-0-----------------------5-5-5-5-5-----------------------|
    1 e + a 2 e + a 3 e + a 4 e + a 1 e + a 2 e + a 3 e + a 4 e + a 

G|------------------------------------------------------------------|
D|-----------------------------------------------------------------o|
A|-3-3-3-3-3-----------------------0-0-0-0-0-------4-4-4-4-4-------o|
D|------------------------------------------------------------------|
   1 e + a 2 e + a 3 e + a 4 e + a 1 e + a 2 e + a 3 e + a 4 e + a 

G|-----------------------------------------------------------------|
D|-----------------------------------------------------------------|
A|-----------------0-------------------------------1---0-----------|
D|-0-------0-----------5---3-------5-------2---------------5-------|
   1 e + a 2 e + a 3 e + a 4 e + a 1 e + a 2 e + a 3 e + a 4 e + a 

G|-----------------------------------------------------------------|
D|-----------------------------------------------------------------|
A|-0---0---------------------------1---1---0---0---5---5---4---4---|
D|---------5---5---3---3---2---2-----------------------------------|
   1 e + a 2 e + a 3 e + a 4 e + a 1 e + a 2 e + a 3 e + a 4 e + a 

Verse 3:15
G|-------------------------------------------------------------------|
D|o-----------------------------------------------------------------o|
A|o-5---5-5-5-5-5-5-----------------5-5-5-5-5-5-5-5-5-5-5-5-5-5-5-5-o|x3
D|------------------6---6-6-6-6-6-6----------------------------------|
    1 e + a 2 e + a 3 e + a 4 e + a 1 e + a 2 e + a 3 e + a 4 e + a 

G|-----------------------------------------------------------------|
D|-----------------------------------------------------------------|
A|-5---5-5-5-5-5-5-----------------5-5-5-5-5-5-5-5-5-5-5-5---------|
D|-----------------6---6-6---6-6---------------------------0---2---|
   1 e + a 2 e + a 3 e + a 4 e + a 1 e + a 2 e + a 3 e + a 4 e + a 

Bridge 3:30
G|-----------------------------------------------------------------|
D|-----------------------------------------------------------------|
A|---------------------------------3---3-----3-3---3-3-3-3---3-3---|
D|-3---3-----3-3---3-3-3-3---3-3-----------------------------------|
   1 e + a 2 e + a 3 e + a 4 e + a 1 e + a 2 e + a 3 e + a 4 e + a 

G|-----------------------------------------------------------------|
D|-----------------------------------------------------------------|
A|-----------------------------------------------------------------|
D|-5---5-----5-5---5---5---5-5-0-------------------0-0-0-0-0-0-2---|
   1 e + a 2 e + a 3 e + a 4 e + a 1 e + a 2 e + a 3 e + a 4 e + a 

3:38
G|-----------------------------------------------------------------|
D|-----------------------------------------------------------------|
A|---------------------------------3-3-3-3---3-3---3-3-3-3---3-3---|
D|-3---3-----3-3---3-3-3-3---3-3-----------------------------------|
   1 e + a 2 e + a 3 e + a 4 e + a 1 e + a 2 e + a 3 e + a 4 e + a 

G|-----------------------------------------------------------------|
D|-----------------------------------------------------------------|
A|-1---1-----1-1---1-1-1-1---1-1---1-1-1-1---1-1---1-1-1-1---1-1---|
D|-----------------------------------------------------------------|
   1 e + a 2 e + a 3 e + a 4 e + a 1 e + a 2 e + a 3 e + a 4 e + a 

G|-----------------------------------------------------------------|
D|---------------------------------7-7-7-7-7-7-7-7-7-7-7-7-7-7-7-7-|
A|-0---0-----0-0---0-0-0-0---0-0-----------------------------------|
D|-----------------------------------------------------------------|
   1 e + a 2 e + a 3 e + a 4 e + a 1 e + a 2 e + a 3 e + a 4 e + a  

Chorus 3:50
G|-------------------------------------------------------------------|
D|o-------------------------------------------------------------2-3-o|
A|o-5---5---5-5---------------------3-3-3---3-3-3---------3---0-----o|
D|------------------5-5---3---0-3-0-----------------3-3--------------|
    1 + 2 + 3 + 4 + 1 + 2 + 3 + 4 + 1 + 2 + 3 + 4 + 1 + 2 + 3 + 4 +

4:05
G|-----------------------------------------------------------------|
D|-------------2-3-5-5-5-5-5-3-5-3---------------------------------|
A|-5-5-5-5-5-----------------------3-3-3-3-3-3-2-3-7-7-7-7-7-7-5-7-|
D|-----------------------------------------------------------------|
   1 + 2 + 3 + 4 + 1 + 2 + 3 + 4 + 1 + 2 + 3 + 4 + 1 + 2 + 3 + 4 +

G|---------------4-------------------------------------------------|
D|-7---------5-7---5-----------5-7-----------------7-5---5---------|
A|---------------------------8-----8-------------------8---8-7-8-7-|
D|-----------------------------------------------------------------|
   1 + 2 + 3 + 4 + 1 + 2 + 3 + 4 + 1 + 2 + 3 + 4 + 1 + 2 + 3 + 4 +

G|-----------------------------------------------------------------|
D|-7-------------7-5-----------5-7---------------------------------|
A|---8-5-----5-8-------------8-----3-3-3-3---3-2-3-7-7-7-7---7-5-7-|
D|-----------------------------------------------------------------|
   1 + 2 + 3 + 4 + 1 + 2 + 3 + 4 + 1 + 2 + 3 + 4 + 1 + 2 + 3 + 4 +

G|---------------4-------------------------------------------------|
D|-7---------5-7---5-----------5-7-----------------7-5---5---------|
A|---------------------------8-----8-------------------8---8-7-8-7-|
D|-----------------------------------------------------------------|
   1 + 2 + 3 + 4 + 1 + 2 + 3 + 4 + 1 + 2 + 3 + 4 + 1 + 2 + 3 + 4 +

Outro 4:35
G|-----------------------------------------------------------------|
D|---------------------------------------------------------7-----5-|
A|---------------------------------3-3-3-3-3-3-2-3-7-7-7-7---7-8---|
D|-0-0-0-0-0-0-0-0-5-5-5-5-5-5-5-5---------------------------------|
   1 + 2 + 3 + 4 + 1 + 2 + 3 + 4 + 1 + 2 + 3 + 4 + 1 + 2 + 3 + 4 +

G|-------------5---------------5-5---------------------------------|
D|-7-7-7-7-7-7---7-5-5-5-5-5-5-----3-3-3-3-3-3-3-3-3-2---0-----0-2-|
A|-----------------------------------------------------------3-----|
D|-----------------------------------------------------------------|
   1 + 2 + 3 + 4 + 1 + 2 + 3 + 4 + 1 + 2 + 3 + 4 + 1 + 2 + 3 + 4 +

G|-----------------------------------------------------------------|
D|---------------------------------------------------------7-----5-|
A|---------------------------------3-3-3-3-3-3-2-3-7-7-7-7---7-8---|
D|-0-0-0-0-0-0-0-0-5-5-5-5-5-5-5-5---------------------------------|
   1 + 2 + 3 + 4 + 1 + 2 + 3 + 4 + 1 + 2 + 3 + 4 + 1 + 2 + 3 + 4 +

G|-------------5---------------------------------------------------|
D|-7-7-7-7-7-7---7-5-5-5-5-5-5-5-5-3-------------------------------|
A|-----------------------------------------------------------------|
D|-----------------------------------------------------------------|
   1 + 2 + 3 + 4 + 1 + 2 + 3 + 4 + 1 + 2 + 3 + 4 + 1 + 2 + 3 + 4 +
Tabbed by Dave Vucko

=======================================================================

Intro
G|-----------------------|
D|-----------------------|
A|-5555------------------|
D|------666-0-00-5356530-| x2

Pre-Verse (00:15)
G|----------------|
D|----------------|
A|-5~-------------|
D|-----6~--5~--3~-| x2

Verse (00:23)
G|------------------------|
D|------------------------|
A|-55555------------------|
D|-------66666-0000000000-| x2

Pre-Chorus (00:30)
G|--------------------------|
D|--------------------------|
A|-55555--------------44444-|
D|--------66666-55555-------|

G|-------------------------|
D|-------------------------|
A|-55555-77777-------------|
D|-------------33333-22222-|

Chorus (00:38)
G|-------------------------------------|
D|-------------------------------------|
A|-5-5-5555-------------3-3333----3333-|
D|----------555-3-0-3-0--------33------| x2

**Play Verse** x4 (00:53)
**Play Pre-Chorus** (01:09)
**Play Chorus** x2 (01:16)

Clean Part(01:32)
G|--------------------------------------|
D|---3/5~----02~-0-----------5/75353232-|
A|-5~----53~------0~-0------------------|
D|--------------------5~-53~------------| x2

**Play Pre-Verse** x4 (02:02)

Guitar Solo (02:18)
G|--------------|
D|--------------|
A|-5~-----------|
D|----6~--5~--0-| x2

(02:26)
G|-----------------------------|
D|-----------------------------|
A|-55555-----------------------|
D|-------66666-00000000-333/6~-| x4

(02:41)
G|--------------------------|
D|--------------------------|
A|-55555--------------44444-|
D|--------66666-55555-------|

G|---------------------------|
D|---------------------------|
A|-55555-77777---------------|
D|-------------33333-22222-0-|

(02:53)
G|----------------------------------------|
D|----------------------------------------|
A|----------------3-3333~-0-0000~-4-4444~-|
D|-0-0000~-5-5555~------------------------| x2

(03:08)
G|---------|---------|-----------------|
D|---------|---------|-----------------|
A|-----0---|----1-0--|-0-------5-3-8-7-|
D|-3-0--53-|-22----5-|---5-3-2---------|

**Play Verse** x4 (03:16)

(03:30)
G|-----------------------------------|
D|-----------------------------------|
A|--------------33333333-------------|
D|-0-2-33333333----------55555555-0~-|

(03:37)
G|-----------------------------------------------------------|
D|-----------------------------------------------------------|
A|--------------------33333333-11111111111111-000000-4444444-|
D|-0000000-2-33333333----------------------------------------|

**Play Chorus** x2 (03:50)

Clean Part (04:06)
G|--------------------------------------|
D|---3/5~----02~-0-----------5/75353232-|
A|-5~----53~------0~-0------------------|
D|--------------------5~-53~------------| x2

outro
G|---------------------------------------------------|
D|-----------------------222222----------------------|
A|-555555---------333333--------000000---------------|
D|---------555555----------------------555555-333333-|

G|-----------------------------------------------|
D|-----------------------222222------------------|
A|-555555---------333333--------000000-----------|
D|---------555555----------------------555555-3~-|

HAVE FUN!
comments
print report bad tab
15 comments total. Showing first comments.
0 reply
WOLFMAN JOE wrote on November 15 2005, 02:51 pm

some minor screw ups, not bad though. kudos

0 reply
einar wrote on April 21 2006, 05:32 pm

perfect apart from the clean part and solo

0 reply
KidsnearwaterX wrote on July 30 2006, 05:48 pm

Good, But some little mistakes.

I want to post or [tab]
guest
You may want to rate the tab now too:
select rating
Please do not post tabs as comments. Select "correction" instead!