Oops, an error
Loading. Please wait.

Bat Country Tab

ver4
ver4
More versions @911Tabs.com
708,783 views 1,298 this week
171 commentsread comments
1 2 3 4 5
excellent!
x 418
Autoscroll
+/-
esc
set tempo
stop
Contributor
Tuning
Tabbers playing skills
D A D G B E
advanced +
WARNING: You are trying to view
                                    content from Ultimate-Guitar.com
                                    in an unauthorized application,
                                    which is prohibited.

                                    Please use an official Ultimate
                                    Guitar Tabs application for iPhone,
                                    iPad or Android to access legitimate
                                    chords, guitar, bass, and drum tabs
                                    from Ultimate-Guitar.com database.

                                    Type "ultimate guitar tabs" in Apple
                                    App Store's or Android Market's
                                    search to find the application.
----------------------------------------------------------------------------
                             Bat Country - Avenged Sevenfold
----------------------------------------------------------------------------
Tabbed by:llama_slap
Email:sk84life@adelphia.net

Tuning:Drop D (D A D G B E)
                            Nobody could seem to get this right, so I took a
shot at it. And this tab took a LONG time, so please rate and comment!

UPDATE! I fixed part of the solo...credit goes to A7X4L for adjusting it.



Guitar 1, Guitar 2 Comes in 3rd and 4th times
e|----------------------------------------------------------------------|
B|----------------------------------------------------------------------|
G|-7-7-777--------------------------------------------------------------|
D|-7-7-777-6-6--0--0-0-0-(don't play this 2nd time)---------------------|x4
A|-5-5-555-6-6--0--0-0-0-5-3-5-6-5-3-0----------------------------------|
D|-0-0-000-6-6--0--0-0-0-5-3-5-6-5-3-0----------------------------------|



Both Guitars
e|------------------------------------------------------------------------|
B|------------------------------------------------------------------------|
G|-7----------------7-----------------------------------------------------|
D|-7---6---5---3----7---6---5---3-----------------------------------------|
A|-5---6---5---3----5---6---5---3-----------------------------------------|
D|-0---6---5---3----0---6---5---3-----------------------------------------|

 

Both Guitars
e|----------------------------------------------------|
B|----------------------------------------------------|
G|----------------------------------------------------|1st verse x2
D|----------------------------------------------------|2nd verse x4
A|-55555555-------------------------------------------|
D|---------66666666-0000000000000000------------------|
                    ................

Both Guitars
e|-------------------------------------------------------------------------|
B|-------------------------------------------------------------------------|
G|-------------------------------------------------------------------------|
D|-------------------------------------------------------------------------|
A|-55555555----------------44444444-5555555577777777-----------------------|
D|---------6666666655555555-------------------------33333333222222222------|



Both Guitars
e|-----------------------------------------------------------------------|
B|-----------------------------------------------------------------------|
G|-7-7-77-------------------55555555-------5-----------------------------|
D|-7-7-77----55---3-3-3-----55555555--33---5---2-3-----------------------|x2
A|-5-5-55-00-55-0-3-3-3-0h3-33333333--33-0-3-0---------------------------|
D|-0-0-00-00-55-0-3-3-3-0h3-----------33-0-------------------------------|
          ..    .                        .  

-refer to verse
-play twice (as you normally would)

 x2 (Clean)
  
Guitar 1
e|-1-11111-0-3-33333-0-0-00000-0-0-00000-0-0-00000-0-3-33333-0-------------|
B|-3-33333-0-3-33333-0-1-11111-0-0-00000-0-1-11111-0-3-33333-0-------------|
G|-2-22222-0-0-00000-0-0-00000-0-1-11111-0-2-22222-0-0-00000-0-------------|
D|-0-00000-0-0-00000-0-2-22222-0-0-00000-0-2-22222-0-0-00000-0-------------|
A|-----------2-22222---3-33333---2-22222---0-00000---2-22222---------------|
D|-------------------------------------------------------------------------|

e|-1-1111111-11111-0-------------------------------------------------------|
B|-1-1111111-11111-0-------------------------------------------------------|
G|-0-0000000-00000-0-------------------------------------------------------|
D|-3-3333333-33333-0-------------------------------------------------------|
A|-3-3333333-33333---------------------------------------------------------|
D|-------------------------------------------------------------------------|

Guitar 2
e|1------1-(1)-----------3-(3)---------------0------------------0----------|
B|--3---------3--------0-------0-----------3---3----------3-(3)---3--------|
G|----2---------2--0h2-------------------0-------0------1------------------|
D|-------------------------------------2--------------0--------------------|
A|-------------------------------0-2-3--------------2----------------------|
D|-------------------------------------------------------------------------|

e|-----------------------------------------------------1-------------------|
B|-------0-(0)------------0-(0)------------1-(1)-------1-------------------|
G|-----5-------5--------5-------5--------0-------0-----0-let ring----------|
D|---2-----------2----2-----------2----3-----------3---3-------------------|
A|-0---------------------------------3---------------3---------------------|
D|------------------5------------------------------------------------------|

 x 4 (Both Guitars)

 

Guitar 1
e|-------------------------------------------------------------------------|
B|------------------------------------15----9----8-------------------------|
G|-7----------------------------------17b--11b--10b-------------16/5-------|
D|-7----6----5----0--------------------------------------------------------|
A|-5----6----5----0--------------------------------------------------------|
D|-0----6----5----0--------------------------------------------------------|

e|------------------------------------------------|
B|------------------------------------------------|
G|------------------------------------------------|
D|------------------------------------------------|This bar x3
A|-55555555---------------------------------------|
D|---------66666666-00000000-0-3-5-6--6-6-6-------|
                    ........

e|-------------------------------------------------------------------------|
B|-------------------------------------------------------------------------|
G|-------------------------------------------------------------------------|
D|-------------------------------------------------------------------------|
A|-55555555----------------444444445555555577777777------------------------|
D|---------6666666655555555------------------------33333333222222222-------|


Guitar 2
e|-------------------------------------------------------------------------|
B|-15---9----8-------------------10-13-15--15b---15~-----------------------|
G|-17b--11b--10b--------10-12-13-------------------------------------------|
D|---------------/12-12----------------------------------------------------|
A|-------------------------------------------------------------------------|
D|------------------------------------------------------0-(0)--------------|
                                                        dive with whammy bar
   
    (you still strike the 7, 13 and 17 after you slide to them)
e|-------------------------------------------------------------------------|
B|---------------------------------13b-10----------------------------------|
G|-5brbr/7~--5brbr/13~--5brbr/17~---------13p10h13p10-19b-19~-13p10-13-22~-|
D|-------------------------------------------------------------------------|
A|-------------------------------------------------------------------------|
D|-------------------------------------------------------------------------|

e|-17b-17-16-15----15------/18-17-13---------------------------------------|
B|--------------18----18~-------------------------------------15b-15~------|
G|------------------------------------13-13-13-13-17-17-17-17--------------|
D|-------------------------------------------------------------------------|
A|-------------------------------------------------------------------------|
D|-------------------------------------------------------------------------|

e|---------------10----------13----------12-------15-----------------------|
B|----15/18-18~-----------------10-10-10----9-9-9----14-14-14--------------|
G|-13---------------10-10-10-----------------------------------------------|
D|-------------------------------------------------------------------------|
A|-------------------------------------------------------------------------|
D|-------------------------------------------------------------------------|

e|-17-18-17-16-17-18-17-16-17t-12~--10-11-12-13-12-11-10-11-12-13-12-11----|
B|-------------------------------------------------------------------------|
G|-------------------------------------------------------------------------|
D|-------------------------------------------------------------------------|
A|-------------------------------------------------------------------------|
D|-------------------------------------------------------------------------|

e|-12-13-14-15-14-13-12-13-14-15-14-13--13-15-16-17-16-15-13-15-16-17-16-15|
B|-------------------------------------------------------------------------|
G|-------------------------------------------------------------------------|
D|-------------------------------------------------------------------------|
A|-------------------------------------------------------------------------|
D|-------------------------------------------------------------------------|

e|-17-18-21-18-17-------------17-18-20~------------------------------------|
B|----------------18-17-18-20----------------------------------------------|
G|-------------------------------------------------------------------------|
D|-------------------------------------------------------------------------|
A|-----------------------------------------0(Guitar 3 does this)-----------|
D|-----------------------------------------0-------------------------------|

Sweep Picking- Guitar 1
e|-13--------------------------------12------------------------------------|
B|----15----------------15-----------------12-------------12---------------|
G|-------14----------14-----------------13----13-13----13------------------|
D|----------15-12-15--------2 times-----------------14----------2 times----|
A|-------------------------------------------------------------------------|
D|-------------------------------------------------------------------------|

Sweep Picking- Guitar 2
e|-17-13----------------13-----------16-12---------------------------------|
B|-------15----------15--------------------15-12-------12-15---------------|
G|----------14----14--------------------------------13---------------------|
D|-------------15-----------2 times--------------14-------------2 times----|
A|-------------------------------------------------------------------------|
D|-------------------------------------------------------------------------|

Guitar 1   x2                                                      1st time
e|-13--------------/17-15~--12-13-12/10-12~----------/15-13/-9-10-12(17/13)|
B|-----------------------------------------/13-15-13-----------------------|
G|----/10-10-12-14---------------------------------------------------------|
D|-------------------------------------------------------------------------|
A|-------------------------------------------------------------------------|
D|-------------------------------------------------------------------------|

Guitar 2 x2                                                        1st time
e|---------12-13-/20-18~--17-18-17/13-15~-/12-13-12-/18-17/-12-13-15(13/10)|
B|15-----15----------------------------------------------------------------|
G|---/14-------------------------------------------------------------------|
D|-------------------------------------------------------------------------|
A|-------------------------------------------------------------------------|
D|-------------------------------------------------------------------------|

Guitar 3
e|----------------------------------------------|
B|----------------------------------------------|
G|------------------------5--------2-------2----|
D|------0--------5--------5--------2-------2----|x2
A|------0--------5---3333-3---0000-0--4444-4----|
D|-0000-0---5555-5------------------------------|
   ....     ....     ....     ....    ....

Guitar 1
e|-17/13-13~-13/18-18/15~--13-15-13-12-13-15-13-12-13-15-13-12-13-15-13-12-|
B|-------------------------------------------------------------------------|
G|-------------------------------------------------------------------------|
D|-------------------------------------------------------------------------|
A|-------------------------------------------------------------------------|
D|-------------------------------------------------------------------------|

Guitar 2
e|-13/10-10~-10/15-15/12~--17-18-17-16-17-18-17-16-17-18-17-16-17-18-17-16-|
B|-------------------------------------------------------------------------|
G|-------------------------------------------------------------------------|
D|-------------------------------------------------------------------------|
A|-------------------------------------------------------------------------|
D|-------------------------------------------------------------------------|

Guitar 3
e|-------------------------------------------------------------------------|
B|-------------------------------------------------------------------------|
G|-------------------------------------------------------------------------|
D|-------------------------------------------------------------------------|
A|-0-----------------------------------------------------------------------|
D|-0--3-2-0--2~~---/5-3-2~~--/7--5--/3--2--/8--7--/12--11------------------|
      . .           . .

Guitar 4
e|-------------------------------------------------------------------------|
B|-------------------------------------------------------------------------|
G|-------------------------------------------------------------------------|
D|-------------------------------------------------------------------------|
A|-0----------------------------------------8--7--/12--10~~----------------|
D|-0-/10-8-7~-5~~-/12--10--8~--10--8--7--5---------------------------------|
      .  .         .    .

Guitar 5
e|-------------------------------------------------------------------------|
B|-------------------------------------------------------------------------|
G|-------------------------------------------------------------------------|
D|-------------------------------------------------------------------------|
A|-------------------------------------------------------------------------|
D|-3~-7-5-3--5~~----8-7-5--/10--8--7--5--/12--11--/15--14------------------|

Guitar 1
e|-13-15-13-12----12-------18-15-------------------------------------------|
B|-------------15----15-14-------17-14----14-17-14-------------------------|
G|-------------------------------------15----------------------------------|
D|-------------------------------------------------------------------------|
A|-------------------------------------------------------------------------|
D|-------------------------------------------------------------------------|

Guitar 2
e|-17-18-17-16----16-------21-17-------------------------------------------|
B|-------------18----18-17-------20-17----17-20-17-------------------------|
G|-------------------------------------18----------------------------------|
D|-------------------------------------------------------------------------|
A|-------------------------------------------------------------------------|
D|-------------------------------------------------------------------------|

<3RD VERSE> 

Guitar 3
e|-----------------------------------------------------------------|
B|-----------------------------------------------------------------|
G|-----------------------------------------------------------------|
D|-----------------------------------------------------------------|x4
A|-55555555--------------------------------------------------------|
D|---------66666666-0000000000000000-------------------------------|
                    ................

Guitar 1
e|-----------------------------------------------------10-12b--------------|
B|-15~--10---11---12---15---9----3------------10-11-13---------------------|
G|------12b--13b--14b--17b--11b--5b---9-10-13------------------------------|
D|-------------------------------------------------------------------------|
A|-------------------------------------------------------------------------|
D|-------------------------------------------------------------------------|

Guitar 2
e|--------------------------------------------------------16b--------------|
B|-18~----------------------------------------14-15-17-18------------------|
G|-----------------------------------13-14-16------------------------------|
D|-------------------------------------------------------------------------|
A|-------------------------------------------------------------------------|
D|-------------------------------------------------------------------------|

Guitar 1
e|-------------------------------------------------------------------------|
B|-14b---9b---6h8h9-6b----3b---9b--3b--15b---------------------------------|
G|------------------------5b--11b--5b--17b---------------------------------|
D|-------------------------------------------------------------------------|
A|-------------------------------------------------------------------------|
D|-------------------------------------------------------------------------|

Guitar 2                 
e|-------------------------------------------------------------------------|
B|-17b---14b--13h15-13b----------------------------------------------------|
G|-------------------------------------------------------------------------|
D|-------------------------------------------------------------------------|
A|-----------------------55555555----------------------------0-2-----------|
D|-------------------------------66666666-000000000000000000-0-2-----------|
                          (Guitar 3)      .................. 
      
Guitar 1
e|-------------------------------------------------------------------------|
B|-------------------------------------------------------------------------|
G|--------5-----------------------------------5-------3--------2------2----|
D|3-------5-(x8)--5-------0-----------3-------5-(x8)--3-(x16)--2-(x8)-2(x8)|
A-3-(x8)--3-------5-(x7)--0---------2-3-(x8)--3-------1--------0------4----|
D|3---------------5-------0--000000-2-3------------------------------------|
                             ......

-play twice as you normally would

-play twice as you normally would



Guitar 1
e|-------------------------------------------------------------------------|
B|-------------------------------------------------------------------------|
G|---------7-------------4-7-4-----------4-5-4-----------------------------|
D|-----7-----7---7-5---5-------5-3-2---5-------5-----------6-----6---------|
A|-5-8---8-----8-----5---------------3-----------7-7-5-8-7---7-9-----------|
D|-------------------------------------------------------------------------|

Guitar 2
e|-------------------------------------------------------------------------|
B|---------6---------------6---------------5-------------------------------|
G|-------7---7---7-4---4-7---7-4---------7---7-4---------------------------|
D|-7---7-------7-----5-----------7-5---5---------5-5-3-7-6-9-6-7-9---------|
A|---8-------------------------------7-------------------------------------|
D|-------------------------------------------------------------------------|

                                        End with this 1st time, then repeat 
Guitar 1                                     outro. End with this 2nd time
e|------------------------------------|--------------------|---------------|
B|------------------------------------|--------------------|---------------|
G|------------------------------------|--------------------|---------------|
D|-7--------7----------------5---5-7--|--------------------|-3~~~~---------|
A|---7--------7--------2-5-2---2------|/8-8-8/7-7/5-5/3-3/7|---------------|
D|-----10-7-----10-7-5----------------|--------------------|---------------|

Guitar 2                                   SEE GUITAR 3's notes above!
e|----------------------------------------|--------------------|-----------|
B|----------------------------------------|--------------------|-----------|
G|-----------------------------4---4-5----|--------------------|-----------|
D|-10-7------10-7----------5-----5-----/7-|/7-7-7/5-5/3-3/2-2/5|-7~~~~-----|
A|------7---------7----2-5---5------------|--------------------|-----------|
D|--------10--------10--------------------|--------------------|-----------|


| /  slide up
| \  slide down
| h  hammer-on
| p  pull-off
| ~  vibrato
| +  harmonic
| x  Mute note
=====================================================
171 comments total. Showing first comments. show 1 bad comment
0 reply
Cone 21 wrote on November 8 2005, 01:06 pm

sweet you tabbed it from guitar world, seriously, good job, lost my magazine with this in it.

0 reply
llama_slap wrote on November 8 2005, 02:36 pm

i only used guitar world for the sweep picking, bridge, and thats where i got the :
7
7
5
0 from. for the rest, i used guitar pro to get the harmonizing and stuff right. to tell u the truth i haven't even looked at the rest of the g world tab, just those parts. also, how the **** is this a 4 star?

I want to post or [tab]
guest
You may want to rate the tab now too:
select rating
Please do not post tabs as comments. Select "correction" instead!