Oops, an error
Loading. Please wait.

Bat Country Tab

ver7
ver7
More versions @911Tabs.com
1,802 views 3 this week
no commentswrite comment
1 2 3 4 5
worth learning
x 3
Autoscroll
+/-
esc
set tempo
stop
Difficulty
Tuning
advanced
D A D G B E
WARNING: You are trying to view
                                    content from Ultimate-Guitar.com
                                    in an unauthorized application,
                                    which is prohibited.

                                    Please use an official Ultimate
                                    Guitar Tabs application for iPhone,
                                    iPad or Android to access legitimate
                                    chords, guitar, bass, and drum tabs
                                    from Ultimate-Guitar.com database.

                                    Type "ultimate guitar tabs" in Apple
                                    App Store's or Android Market's
                                    search to find the application.
                 Avenged Sevenfold - Bat Country
                 _______________________________
                        Lead Guitar Part:
                        _________________

recommended: acoustic pedal

Email:anony.mous@gmx.de


Legend:
++++++++++++++++++++++++++++++++++++++++++
+  *  Upstroke                           +
+  __ Let Ring                           +
+  ~~ Vibrato                            +
+  b  Bend                               +
+ (5) Death Note                         +
+  #  Hold this note and bend 13         +
+  /  Slide Up                           +
+  \  Slide Down                         +
++++++++++++++++++++++++++++++++++++++++++



                            


       *      *      *          Intro     *      *      *
E|--------------------------------------------------------------------------|
B|--------------------------------------------------------------------------|
G|-7-7-77-----------------------------7-7-77--------------------------------|
D|-7-7-55-6-6-66-0-0-00---------------7-7-77-6-6-66-0-0-00------------------|
A|-5-5-55-6-6-66-0-0-00---------------5-5-55-6-6-66-0-0-00------------------|
D|--------6-6-66-0-0-00-5-3-5-6-5-3-0--------6-6-66-0-0-00-5-3-5-6-5-3-0----|
                               
                          _____                        _____
|---------------------------------------------------------------------------|
|---------------------------------------------------------------------------|
|---7----------------------------7------------------------------------------|
|---7------6------5------3-------7------6------5------3---------------------|
|---5------6------5------3-------5------6------5------3---------------------|
|----------6------5------3--------------6------5------3---------------------|
                            Pre-Chorus
|---------------------------------------------------------------------------|
|---------------------------------------------------------------------------|
|---------------------------------------------------------------------------|
|---------------------------------------------------------------------------|
|---55555555---------------------55555555-----------------------------------|
|------------66666666-00000000------------66666666-00000000-----------------|

|---------------------------------------------------------------------------|
|---------------------------------------------------------------------------|
|---------------------------------------------------------------------------|
|---------------------------------------------------------------------------|
|55555555-------------------44444444-55555555-77777777----------------------|
|---------66666666-55555555----------------------------33333333-22222222----|
                             Chorus
                                     *
|---------------------------------------------------------------------------|
|---------------------------------------------------------------------------|
|---7----7---7-7---------------7-7-7-77-7-7-7---------7--0-2-3\-------------|
|---7----7---7-7-0-0-5-5-0-3---7-7-7-77-7-7-7---3-3-0-7---------------------|
|---5----5---5-5-0-0-5-5-0-3---7-7-7-77-7-7-7---3-3-0-5---------------------|
|----------------0-0-5-5-0-3--------------------3-3-0-----------------------|
                                     *
|---------------------------------------------------------------------------|
|---------------------------------------------------------------------------|
|---7----7---7-7---------------7-7-7-77-7-7-7---------7--0-2-3\-------------|
|---7----7---7-7-0-0-5-5-0-3---7-7-7-77-7-7-7---3-3-0-7---------------------|
|---5----5---5-5-0-0-5-5-0-3---7-7-7-77-7-7-7---3-3-0-5---------------------|
|----------------0-0-5-5-0-3--------------------3-3-0-----------------------|
                           Pre-Chorus
|---------------------------------------------------------------------------|
|---------------------------------------------------------------------------|
|---------------------------------------------------------------------------|
|---------------------------------------------------------------------------|
|---55555555---------------------55555555-----------------------------------|
|------------66666666-00000000------------66666666-00000000-----------------|

|---------------------------------------------------------------------------|
|---------------------------------------------------------------------------|
|---------------------------------------------------------------------------|
|---------------------------------------------------------------------------|
|---55555555---------------------55555555-----------------------------------|
|------------66666666-00000000------------66666666-00000000-----------------|

|---------------------------------------------------------------------------|
|---------------------------------------------------------------------------|
|---------------------------------------------------------------------------|
|---------------------------------------------------------------------------|
|55555555-------------------44444444-55555555-77777777----------------------|
|---------66666666-55555555----------------------------33333333-22222222----|
                              Chorus
                                     *
|---------------------------------------------------------------------------|
|---------------------------------------------------------------------------|
|---7----7---7-7---------------7-7-7-77-7-7-7---------7--0-2-3\-------------|
|---7----7---7-7-0-0-5-5-0-3---7-7-7-77-7-7-7---3-3-0-7---------------------|
|---5----5---5-5-0-0-5-5-0-3---7-7-7-77-7-7-7---3-3-0-5---------------------|
|----------------0-0-5-5-0-3--------------------3-3-0-----------------------|
                                     *
|---------------------------------------------------------------------------|
|---------------------------------------------------------------------------|
|---7----7---7-7---------------7-7-7-77-7-7-7---------7--0-2-3\-------------|
|---7----7---7-7-0-0-5-5-0-3---7-7-7-77-7-7-7---3-3-0-7---------------------|
|---5----5---5-5-0-0-5-5-0-3---7-7-7-77-7-7-7---3-3-0-5---------------------|
|----------------0-0-5-5-0-3--------------------3-3-0-----------------------|
                           clean Section
          Dm                G              Cmaj               E
|---------------------------------------------------------------------------|
|----------6---------------------------------5------------------------------|
|------7-----7---7----------7------------5-----5---5----------4-------------|
|----7---7-----7--------5-----5---5----5---5-----5--------2-----2---2-------|
|--5------------------5---5-----5----3------------------2---2-----2---------|
|-------------------5---------------------------------2---------------------|
           A               G               F                 F         
|---------------------------------------------------------------------------|
|---------------------------------------------------------------------------|
|----------9----------------7----------------5----------------5-------------|
|------7-----7---7------5-----5---5------3-----3---3------3-----3---3-------|
|----7---7-----7------5---5-----5------3---3-----3------3---3-----3---------|
|--7----------------5----------------3----------------3---------------------|
          Dm                G              Cmaj               E
|---------------------------------------------------------------------------|
|----------6---------------------------------5------------------------------|
|------7-----7---7----------7------------5-----5---5----------4-------------|
|----7---7-----7--------5-----5---5----5---5-----5--------2-----2---2-------|
|--5------------------5---5-----5----3------------------2---2-----2---------|
|-------------------5---------------------------------2---------------------|
           A               G               F                 F         
|---------------------------------------------------------------------------|
|---------------------------------------------------------------------------|
|----------9----------------7----------------5----------------5-------------|
|------7-----7---7------5-----5---5------3-----3---3------3-----3---3-------|
|----7---7-----7------5---5-----5------3---3-----3------3---3-----3---------|
|--7----------------5----------------3----------------3---------------------|
                           Breakdown
                          _____                        _____
|---------------------------------------------------------------------------|
|---------------------------------------------------------------------------|
|---7----------------------------7------------------------------------------|
|---7------6------5------3-------7------6------5------3---------------------|
|---5------6------5------3-------5------6------5------3---------------------|
|----------6------5------3--------------6------5------3---------------------|
                          _____                        _____
|---------------------------------------------------------------------------|
|---------------------------------------------------------------------------|
|---7----------------------------7------------------------------------------|
|---7------6------5------3-------7------6------5------3---------------------|
|---5------6------5------3-------5------6------5------3---------------------|
|----------6------5------3--------------6------5------3---------------------|
                             Solo                          ~~
|---------------------------------------------------------------------------|
|---15b---9b---8b-----------------13-15b-(15)-(15)-(15)---12----------------|
|---17b--11b--10b--------12-13-14-------------------------------------------|
|-------------------12-15---------------------------------------------------|
|---------------------------------------------------------------------------|
|------------------------------------------------------------divebomb-------|
                        ~~                     ~~                   ~~ 
|---------------------------------------------------------------------------|
|---------------------------------------------------------------------------|
|---5b-(5b)-(5b)-(5b)-7b--5b-(5b)-(5b)-(5b)-10b--5b-(5b)-(5b)-(5b)-15b------|
|---------------------------------------------------------------------------|
|---------------------------------------------------------------------------|
|---------------------------------------------------------------------------|
                     # ~~~~              # ~~~~
|-------------------------------------------------17-17b-16-15----15--------|
|---13b-------------------------------------------------------18----18------|
|-------10-13-10-13-19b-----10-13-10-13-22b---------------------------------|
|---------------------------------------------------------------------------|
|---------------------------------------------------------------------------|
|---------------------------------------------------------------------------|

|--/18-17-13----------------------------------------------------------------|
|---------------------13-13-13-18b------15-17b------------------------------|
|------------13-13-13---------------/13-------------------------------------|
|---------------------------------------------------------------------------|
|---------------------------------------------------------------------------|
|---------------------------------------------------------------------------|

|---10----------13----------12-------15-------------------------------------|
|------------------10-10-10----9-9-9----14-14-14----------------------------|
|------10-10-10-------------------------------------------------------------|
|---------------------------------------------------------------------------|
|---------------------------------------------------------------------------|
|---------------------------------------------------------------------------|

|--17-18-17-16-17-18-17-16-17-18-17-16-17-17-17-17-\12----------------------|
|---------------------------------------------------------------------------|
|---------------------------------------------------------------------------|
|---------------------------------------------------------------------------|
|---------------------------------------------------------------------------|
|---------------------------------------------------------------------------|

|-10-11-12-13-12-11-10-11-12-13-12-11-10------------------------------------|
|---------------------------------------------------------------------------|
|---------------------------------------------------------------------------|
|---------------------------------------------------------------------------|
|---------------------------------------------------------------------------|
|---------------------------------------------------------------------------|

|-12-13-14-15-14-13-12-13-14-15-14-13-12------------------------------------|
|---------------------------------------------------------------------------|
|---------------------------------------------------------------------------|
|---------------------------------------------------------------------------|
|---------------------------------------------------------------------------|
|---------------------------------------------------------------------------|

|-14-15-16-17-16-15-14-15-16-17-16-15-14-------------17-18-20b--------------|
|----------------------------------------18-17-18-20------------------------|
|---------------------------------------------------------------------------|
|---------------------------------------------------------------------------|
|---------------------------------------------------------------------------|
|---------------------------------------------------------------------------|
                                Duet-solo
|--17-13----------13-17-13----------13-16--------------16-------------------|
|-------15------15--------15------15-----17----------17--17----------17-----|
|---------14--14------------14--14---------16------16------16------16-------|
|-----------15----------------15-------------17--17----------17--17---------|
|----------------------------------------------19--------------19-----------|
|---------------------------------------------------------------------------|
    ~~
|-13-------------/17-15--13-15-13--10-12--8-10-8-10/17\13-------------------|
|-------------10------------------------------------------------------------|
|----10-10-12---------------------------------------------------------------|
|---------------------------------------------------------------------------|
|---------------------------------------------------------------------------|
|---------------------------------------------------------------------------|

|--------------/17-15--13-15-13--10-12--8-10-8-10--/17\13--/15\14-----------|
|------------10-------------------------------------------------------------|
|---10-10-12----------------------------------------------------------------|
|---------------------------------------------------------------------------|
|---------------------------------------------------------------------------|
|---------------------------------------------------------------------------|

|13-15-13-12-13-15-13-12-13-15-13-12-13-15-13-12--12--18-15-----------------|
|-----------------------------------------------15--15-----17-14--14-17-14--|
|---------------------------------------------------------------15----------|
|---------------------------------------------------------------------------|
|---------------------------------------------------------------------------|
|---------------------------------------------------------------------------|


|----------------------------------------------------17b--------------------|
|--10b-11b-12b-15b----9b----3b--------------14-15-17------------------------|
|--12b-13b-14b-17b---11b----5b-----13-14-16---------------------------------|
|---------------------------------------------------------------------------|
|---------------------------------------------------------------------------|
|---------------------------------------------------------------------------|

|---------------------------------------------------------------------------|
|----17b----13b----15b----10b----13b----10b---------------------------------|
|---------------------------------------------------------------------------|
|---------------------------------------------12b---------------------------|
|---------------------------------------------------------------------------|
|---------------------------------------------------------------------------|
                             2nd Breakdown              _______
|---------------------------------------------------------------------------|
|---------------------------------------------------------------------------|
|----------------------5-5-5-5-5-5-5-5--------------------------------------|
|-0--2-3-3-3-3-3-3-3-3-5-5-5-5-5-5-5-5-5-5-5-5-5-5-5-5-0--------------------|
|-0--2-3-3-3-3-3-3-3-3-3-3-3-3-3-3-3-3-5-5-5-5-5-5-5-5-0--------------------|
|-0--2-3-3-3-3-3-3-3-3-----------------5-5-5-5-5-5-5-5-0--------------------|

|---------------------------------------------------------------------------|
|---------------------------------------------------------------------------|
|----------------------5-5-5-5-5-5-5-5-3-3-3-3-3-3-3-3----------------------|
|-0--2-3-3-3-3-3-3-3-3-5-5-5-5-5-5-5-5-3-3-3-3-3-3-3-3----------------------|
|-0--2-3-3-3-3-3-3-3-3-3-3-3-3-3-3-3-3-1-1-1-1-1-1-1-1----------------------|
|-0--2-3-3-3-3-3-3-3-3------------------------------------------------------|


----------------------------------------------------------------------------|
----------------------------------------------------------------------------|
-7-7-7-7-7-7-7-7-6-6-6-6-6-6-6-6--------------------------------------------|
-7-7-7-7-7-7-7-7-6-6-6-6-6-6-6-6--------------------------------------------|
-5-5-5-5-5-5-5-5-4-4-4-4-4-4-4-4--------------------------------------------|
----------------------------------------------------------------------------|

                                 Chorus
                                     *
|---------------------------------------------------------------------------|
|---------------------------------------------------------------------------|
|---7----7---7-7---------------7-7-7-77-7-7-7---------7--0-2-3\-------------|
|---7----7---7-7-0-0-5-5-0-3---7-7-7-77-7-7-7---3-3-0-7---------------------|
|---5----5---5-5-0-0-5-5-0-3---7-7-7-77-7-7-7---3-3-0-5---------------------|
|----------------0-0-5-5-0-3--------------------3-3-0-----------------------|
                                     *
|---------------------------------------------------------------------------|
|---------------------------------------------------------------------------|
|---7----7---7-7---------------7-7-7-77-7-7-7---------7--0-2-3\-------------|
|---7----7---7-7-0-0-5-5-0-3---7-7-7-77-7-7-7---3-3-0-7---------------------|
|---5----5---5-5-0-0-5-5-0-3---7-7-7-77-7-7-7---3-3-0-5---------------------|
|----------------0-0-5-5-0-3--------------------3-3-0-----------------------|
                             clean Section
          Dm                G              Cmaj               E
|---------------------------------------------------------------------------|
|----------6---------------------------------5------------------------------|
|------7-----7---7----------7------------5-----5---5----------4-------------|
|----7---7-----7--------5-----5---5----5---5-----5--------2-----2---2-------|
|--5------------------5---5-----5----3------------------2---2-----2---------|
|-------------------5---------------------------------2---------------------|
           A               G               F                 F         
|---------------------------------------------------------------------------|
|---------------------------------------------------------------------------|
|----------9----------------7----------------5----------------5-------------|
|------7-----7---7------5-----5---5------3-----3---3------3-----3---3-------|
|----7---7-----7------5---5-----5------3---3-----3------3---3-----3---------|
|--7----------------5----------------3----------------3---------------------|
          Dm                G              Cmaj               E
|---------------------------------------------------------------------------|
|----------6---------------------------------5------------------------------|
|------7-----7---7----------7------------5-----5---5----------4-------------|
|----7---7-----7--------5-----5---5----5---5-----5--------2-----2---2-------|
|--5------------------5---5-----5----3------------------2---2-----2---------|
|-------------------5---------------------------------2---------------------|
           A               G               F                 F         
|---------------------------------------------------------------------------|
|---------------------------------------------------------------------------|
|----------9----------------7----------------5----------------5-------------|
|------7-----7---7------5-----5---5------3-----3---3------3-----3---3-------|
|----7---7-----7------5---5-----5------3---3-----3------3---3-----3---------|
|--7----------------5----------------3----------------3---------------------|
                               Outro
|---------------------------------------------------------------------------|
|---------------------------------------------------------------------------|
|--------7-------------4-7-4---------------4--------------------------------|
|-----7----7---7\5---5-------5\3-2---2-3-5---5-3-2--------------------------|
|-5-8---8----8-----5---------------3---------------3/7-5/8-7/10-8/12-10-----|
|---------------------------------------------------------------------------|

|---------------------------------------------------------------------------|
|---------------------------------------------------------------------------|
|---------5-----------------------------------------------------------------|
|-----2-----2---2------0---9-----------0---5-------/7-5-3-2-----------------|
|---0---0-----0------0---0---0---0---0---0---0---0--------------------------|
|-0----------------5-----------0---3-----------3----------------------------|

|---------------------------------------------------------------------------|
|---------------------------------------------------------------------------|
|--------7-------------4-7-4---------------4--------------------------------|
|-----7----7---7\5---5-------5\3-2---2-3-5---5-3-2--------------------------|
|-5-8---8----8-----5---------------3---------------3/7-5/8-7/10-8/12-10-----|
|---------------------------------------------------------------------------|
                                              ~~~~~~~~~~~~~~~~~~
|---------------------------------------------------------------------------|
|---------------------------------------------------------------------------|
|---------5-----------------------------------------------------------------|
|-----2-----2---2------0---9-----------0---5/7------------------------------|
|---0---0-----0------0---0---0---0---0---0----------------------------------|
|-0----------------5-----------0---3----------------------------------------|




enjoy and keep in practice!(:
comments
We did not receive enough feedback on this tab! Please rate:
print report bad tab
1 2 3 4 5
I want to post or [tab]
guest
You may want to rate the tab now too:
select rating
Please do not post tabs as comments. Select "correction" instead!