Oops, an error
Loading. Please wait.

Beast And The Harlot Tab

ver5
6,533 views 1 this week
3 commentsread comments
1 2 3 4 5
worth learning
x 8
Autoscroll
+/-
esc
set tempo
stop
Contributor
Difficulty
intermediate
WARNING: You are trying to view
                                    content from Ultimate-Guitar.com
                                    in an unauthorized application,
                                    which is prohibited.

                                    Please use an official Ultimate
                                    Guitar Tabs application for iPhone,
                                    iPad or Android to access legitimate
                                    chords, guitar, bass, and drum tabs
                                    from Ultimate-Guitar.com database.

                                    Type "ultimate guitar tabs" in Apple
                                    App Store's or Android Market's
                                    search to find the application.
Avenged Sevenfold
-----------------

--------------------
BEAST AND THE HARLOT
--------------------

-----------------------------------------------------------------------------
INTRO (Part One)  -  Time Signature  -  9/8
-----------------------------------------------------------------------------

Lead Guitar
E|------------------|------------------|------------------|
B|7---7-6-7-9-10--5-|-6---6-5-6-8---6--|-6---6-5-6-8---6--|
G|------------------|------------------|------------------|
D|------------------|------------------|------------------|
A|------------------|------------------|------------------|
D|------------------|------------------|------------------|

Rhythm Guitar
E|------------------|------------------|------------------|
B|------------------|------------------|------------------|
G|------------------|-7---7-7-7-7---7--|-6---6-6-6-6---6--|
D|4---4-4-4-4-4---4-|-7---7-7-7-7---7--|-6---6-6-6-6---6--|
A|4---4-4-4-4-4---4-|-5---5-5-5-5---5--|-4---4-4-4-4---4--|
D|4---4-4-4-4-4---4-|------------------|------------------|

-----------------------------------------------------------------------------
INTRO (Part Two) - Time Signature - 6/8
-----------------------------------------------------------------------------

Lead Guitar
E|------------|------------|------------|------------|------------|
B|6---6-5-6-8-|9-----9-----|11--9-11-13-|14----14----|--16b-17-r16| Let Ring*
G|------------|------------|------------|------------|------------|
D|------------|------------|------------|------------|------------|
A|------------|------------|------------|------------|------------|
D|------------|------------|------------|------------|------------|

Rhythm Guitar
E|------------|------------|------------|------------|------------|
B|------------|------------|------------|------------|------------| Let Ring*
G|5-----5-5-5-|------------|6666666-6-6-|3-33333-3333|--2---------|
D|5-----5-5-5-|3-33333-3333|6666666-6-6-|3-33333-3333|--2---------|
A|3-----3-3-3-|3-33333-3333|4444444-4-4-|1-11111-1111|--0---------|
D|------------|3-33333-3333|------------|------------|------------|

-----------------------------------------------------------------------------
INTRO (Part Three) - Time Signature - 4/4 (Until End)
-----------------------------------------------------------------------------

Rhythm Guitar
E|--------|--------|--------|--------|
B|--------|--------|--------|--------|
G|--------|--------|--------|--------|
D|0~------|--------|--------|--------|
A|0~------|--------|--------|--------|
D|0~------|--------|--------|--------|

Rhythm Guitar
E|--------|--------|--------|--------|--------|--------|--------|--------|
B|--------|--------|--------|--------|--------|--------|--------|--------|
G|--------|--------|--------|--------|--------|--------|--------|--------|
D|0~------|--------|--------|--------|0~------|--------|--------|--------|
A|0~------|--------|--------|--------|0~------|--------|--------|--------|
D|0~------|--------|--------|--------|0~------|--------|--------|--------|

Lead Guitar 
E|----------------------------------------------------------------------------------|
B|----------------------------------------------------------------------------------|
G|-------------10-------------12-------------13------------12-------------10-~------|
D|-12-12-12-12-----12-12-12-12----12-12-12-12--12-12-12-12----12-12-12-12-----------|
A|----------------------------------------------------------------------------------|
D|----------------------------------------------------------------------------------|

X3
--------------------------------------------------------------------------

E|------------------------------------------------8-9-10-h-13-p-10----------------|
B|------------------------------------------------------------------13-b-(15)-~---|
G|-------------10-------------12-13-----------------------------------------------|
D|-12-12-12-12-----12-12-12-12----------------------------------------------------|
A|--------------------------------------------------------------------------------|
D|--------------------------------------------------------------------------------|

-----------------------------------------------------------------------------
PRE VERSE RIFF
-----------------------------------------------------------------------------

This is the main riff of Beast And The Harlot.

E/----------------/----------------/----------------/----------------/
B/----------------/----------------/----------------/----------------/
G/----------------/----------------/----------------/----------------/
D/----3-----5-----/6-----5-----3-5-/----3-----5---6-/----3-----5---6-/
A/----3-----5-----/6-----5-----3-5-/----3-----5---6-/----3-----5---6-/
D/00003-00005-0000/6-00005-00003-5-/00003-00005-006-/00003-00005-006-/

E/----------------/----------------/----------------/----------------/
B/----------------/----------------/----------------/----------------/
G/----------------/----------------/----------------/----------------/
D/----3-----5-----/6-----5-----3-5-/----3-----5---6-/----3-----3---3-/
A/----3-----5-----/6-----5-----3-5-/----3-----5---6-/----3-----3---3-/
D/00003-00005-0000/6-00005-00003-5-/00003-00005-006-/00003-00003-003-/

-----------------------------------------------------------------------------
VERSE
-----------------------------------------------------------------------------

E/----------------/----------------/----------------/----------------/
B/----------------/----------------/----------------/----------------/
G/----------------/----------------/----------------/----------------/
D/----3-----5-----/6-----5-----3-5-/----3-----5---6-/----3-----5---6-/
A/----3-----5-----/6-----5-----3-5-/----3-----5---6-/----3-----5---6-/
D/00003-00005-0000/6-00005-00003-5-/00003-00005-006-/00003-00005-006-/

E/----------------/----------------/----------------/----------------/
B/----------------/----------------/----------------/----------------/
G/----------------/----------------/----------------/----------------/
D/----3-----5-----/6-----5-----3-5-/----3-----5---6-/----3-----3---3-/
A/----3-----5-----/6-----5-----3-5-/----3-----5---6-/----3-----3---3-/
D/00003-00005-0000/6-00005-00003-5-/00003-00005-006-/00003-00003-003-/

E|----------------|----------------|
B|----------------|----------------|
G|----------------|----------------|
D|8------------8--|5---6---7---8---|
A|8------------8--|5---6---7---8---|
D|8------------8--|5---6---7---8---|
 
E/----------------/----------------/----------------/----------------/
B/----------------/----------------/----------------/----------------/
G/----------------/----------------/----------------/----------------/
D/----3-----5-----/6-----5-----3-5-/----3-----5---6-/----3-----5---6-/
A/----3-----5-----/6-----5-----3-5-/----3-----5---6-/----3-----5---6-/
D/00003-00005-0000/6-00005-00003-5-/00003-00005-006-/00003-00005-006-/

E/----------------/----------------/----------------/----------------/
B/----------------/----------------/----------------/----------------/
G/----------------/----------------/----------------/----------------/
D/----3-----5-----/6-----5-----3-5-/----3-----5---6-/----3-----3---3-/
A/----3-----5-----/6-----5-----3-5-/----3-----5---6-/----3-----3---3-/
D/00003-00005-0000/6-00005-00003-5-/00003-00005-006-/00003-00003-003-/

E|----------------|----------------|----------------|
B|----------------|----------------|----------------|
G|----------------|----------------|----------------|
D|8------------8--|5---6---7---8---|7---8---9---10--|
A|8------------8--|5---6---7---8---|7---8---9---10--|
D|8------------8--|5---6---7---8---|7---8---9---10--|
 
-----------------------------------------------------------------------------
CHORUS
-----------------------------------------------------------------------------

Lead Guitar
E|------13------13|------12------12|------10------10|------1010--12--|
B|----13------13--|----13------13--|----11------11--|----11----11--13|
G|--14------14----|--12------12----|--10------10----|--10------------|
D|15------15------|14-----14-------|12------12------|12--------------|
A|----------------|----------------|----------------|----------------|
D|----------------|----------------|----------------|----------------|
          
Rhythm Guitar
E|----------------|----------------|----------------|----------------|
B|----------------|----------------|----------------|----------------|
G|----------------|----------------|----------------|----------------|
D|3-3-3-3-3-3-3-3-|1010101010101010|8-8-8-8-8-8-8-8-|8-8-8-8-8-8-8-8-|
A|3-3-3-3-3-3-3-3-|1010101010101010|8-8-8-8-8-8-8-8-|8-8-8-8-8-8-8-8-|
D|3-3-3-3-3-3-3-3-|1010101010101010|8-8-8-8-8-8-8-8-|8-8-8-8-8-8-8-8-|
         
Lead Guitar
E|------13------13|------12------12|------10------10|------1010--12--|
B|----13------13--|----13------13--|----11------11--|----11----11--13|
G|--14------14----|--12------12----|--10------10----|--10------------|
D|15------15------|14-----14-------|12------12------|12--------------|
A|----------------|----------------|----------------|----------------|
D|----------------|----------------|----------------|----------------|
  

Rhythm Guitar
E|----------------|----------------|----------------|----------------|
B|----------------|----------------|----------------|----------------|
G|----------------|----------------|----------------|----------------|
D|3-3-3-3-3-3-3-3-|1010101010101010|8-8-8-8-8-8-8-8-|8-8-8-8-8-8-8-8-|
A|3-3-3-3-3-3-3-3-|1010101010101010|8-8-8-8-8-8-8-8-|8-8-8-8-8-8-8-8-|
D|3-3-3-3-3-3-3-3-|1010101010101010|8-8-8-8-8-8-8-8-|8-8-8-8-8-8-8-8-|

Lead Guitar
E|------15------15|------13------13|------12------12|------10------10|
B|----15------15--|----13------13--|----13------13--|----11------11--|
G|--15------15----|--14------14----|--12------12----|--10------10----|
D|17------17------|15-----15-------|14------14------|12------12------|
A|----------------|----------------|----------------|----------------|
D|----------------|----------------|----------------|----------------|

Rhythm Guitar
E|----------------|----------------|----------------|----------------|
B|----------------|----------------|----------------|----------------|
G|----------------|----------------|----------------|----------------|
D|5-5-5-5-5-5-5-5-|3-3-3-3-3-3-3-3-|1010101010101010|8-8-8-8-8-8-8-8-|
A|5-5-5-5-5-5-5-5-|3-3-3-3-3-3-3-3-|1010101010101010|8-8-8-8-8-8-8-8-|
D|5-5-5-5-5-5-5-5-|3-3-3-3-3-3-3-3-|1010101010101010|8-8-8-8-8-8-8-8-|

Lead Guitar
E|13------12------|10--------------|12------10------|9---------------|
B|--11--11--11--11|--11--1113111011|--10--10--10--10|--10--101110----|
G|----10------10--|----10----------|----9-------9---|----9-------9---|
D|----------------|----------------|----------------|--------------11|
A|----------------|----------------|----------------|----------------|
D|----------------|----------------|----------------|----------------|

Rhythm Guitar
E|----------------|----------------|----------------|----------------|
B|----------------|----------------|----------------|----------------|
G|----------------|----------------|----------------|----------------|
D|8-8-8-8-8-8-8-8-|8-8-8-8-108-7-8-|7-7-7-7-11111111|1111111111111111|
A|8-8-8-8-8-8-8-8-|8-8-8-8-108-7-8-|7-7-7-7-12121212|1212121212121212|
D|8-8-8-8-8-8-8-8-|8-8-8-8-108-7-8-|7-7-7-7-11111111|1111111111111111|
  Fallen           now        is         Babylon   the    Great

-----------------------------------------------------------------------------
SOLO
-----------------------------------------------------------------------------

Lead Guitar
E|-10-------------|-13-------------|-16-------------|----------------|
B|-13-b-(15)------|-16-b-(18)------|-19-b-(21)------|---19-b-(21~~~)-|
G|----------------|----------------|----------------|----------------|
D|----------------|----------------|----------------|----------------|
A|----------------|----------------|----------------|----------------|
D|----------------|----------------|----------------|----------------|

Rhythm Guitar
E|----------------|----------------|----------------|----------------|
B|----------------|----------------|----------------|----------------|
G|----------------|----------------|----------------|----------------|
D|----3-----5-----|6-----5-----3-5-|----3-----5---6-|----3-----3---3-|
A|----3-----5-----|6-----5-----3-5-|----3-----5---6-|----3-----3---3-|
D|00003-00005-0000|6-00005-00003-5-|00003-00005-006-|00003-00003-003-|

-----------------------------------------------------------------------------

Lead Guitar
E|8/10-13-10---10-------|-----------------|-----------------------------121315-|
B|-----------13--13b-~~~|-8b--9b--10b-11b-|13121110-14131211-15141314-15-------|
G|----------------------|-10b-11b-12b-13b-|------------------------------------|
D|----------------------|-----------------|------------------------------------|
A|----------------------|-----------------|------------------------------------|
D|----------------------|-----------------|------------------------------------|

Rhythm Guitar
E|----------------|----------------|------------------------------------|
B|----------------|----------------|------------------------------------|
G|----------------|----------------|------------------------------------|
D|8------------8--|5---6---7---8---|7--------8--------9--------10-------|
A|8------------8--|5---6---7---8---|7--------8--------9--------10-------|
D|8------------8--|5---6---7---8---|7--------8--------9--------10-------|

-----------------------------------------------------------------------------

Lead Guitar
E|17----------17----17------------|2017----------------------------|
B|--------------1817--171817--17--|----2017------------------------|
G|--------------------------17--17|--------------------------------|
D|--------------------------------|-------------------------5-6-7-8|
A|--------------------------------|--------17151215-5-6-7-8--------|
D|--------------------------------|--------------------------------|

Rhythm Guitar
E|--------------------------------|--------------------------------|
B|--------------------------------|--------------------------------|
G|--------------------------------|--------------------------------|
D|3---3---3---3---3---3---3---3---|10--10--10--10--10--10--10--10--|
A|3---3---3---3---3---3---3---3---|10--10--10--10--10--10--10--10--|
D|3---3---3---3---3---3---3---3---|10--10--10--10--10--10--10--10--|

------------------------------------------------------------------------------

Lead Guitar
E|--------------------------------|------------------------------12|
B|--------------------------------|------------------101310--1013--|
G|-7-----5---7---9---------7---9--|-10---------9-1013------13------|
D|--------------------------------|--------------------------------|
A|--------------------------------|--------------------------------|
D|--------------------------------|--------------------------------|

Rhythm Guitar
E|--------------------------------|--------------------------------|
B|--------------------------------|--------------------------------|
G|--------------------------------|--------------------------------|
D|8---8---8---8---8---8---8---8---|8---8---8---8---8---8---8---8---|
A|8---8---8---8---8---8---8---8---|8---8---8---8---8---8---8---8---|
D|8---8---8---8---8---8---8---8---|8---8---8---8---8---8---8---8---|

------------------------------------------------------------------------------

Lead Guitar
E|13--------------13------15------|12------------------------------|
B|--------------------------------|---------------13---------------|
G|--------------------------------|--------------------------------|
D|--------------------------------|--------------------------------|
A|--------------------------------|--------------------------------|
D|--------------------------------|--------------------------------|

Rhythm Guitar
E|--------------------------------|--------------------------------|
B|--------------------------------|--------------------------------|
G|--------------------------------|--------------------------------|
D|3---3---3---3---3---3---3---3---|10--10--10--10--10--10--10--10--|
A|3---3---3---3---3---3---3---3---|10--10--10--10--10--10--10--10--|
D|3---3---3---3---3---3---3---3---|10--10--10--10--10--10--10--10--|

------------------------------------------------------------------------------

Lead Guitar
E|--------------------------------|--------------------------------|
B|13b14r13--------13b14r13--------|---(ph)-13-b-(15)-~-~-~-~-------|
G|--------------------------------|--------------------------------|
D|--------------------------------|--------------------------------|
A|--------------------------------|--------------------------------|
D|--------------------------------|--------------------------------|

Rhythm Guitar
E|--------------------------------|--------------------------------|
B|--------------------------------|--------------------------------|
G|--------------------------------|--------------------------------|
D|8---8---8---8---8---8---8---8---|8---8---8---8---8---8---8---8---|
A|8---8---8---8---8---8---8---8---|8---8---8---8---8---8---8---8---|
D|8---8---8---8---8---8---8---8---|8---8---8---8---8---8---8---8---|

------------------------------------------------------------------------------

Lead Guitar
E|--------------------------------|--------------------------------|
B|--------------------------------|--------------------------------|
G|----------------87658765--------|--------------1098710987--------|
D|--------5-6-7-8---------87658765|-------7-8-910--------1098710987|
A|5-6-7-8-------------------------|7-8-9-10------------------------|
D|--------------------------------|--------------------------------|

Rhythm Guitar
E|--------------------------------|--------------------------------|
B|--------------------------------|--------------------------------|
G|--------------------------------|--------------------------------|
D|5---5---5---5---5---5---5---5---|3---3---3---3---3---3---3---3---|
A|5---5---5---5---5---5---5---5---|3---3---3---3---3---3---3---3---|
D|5---5---5---5---5---5---5---5---|3---3---3---3---3---3---3---3---|

------------------------------------------------------------------------------

Lead Guitar
E|----------------------------------------------------------------|
B|-----------------------------------------------10-11-13-10-11-13|
G|------------------------------12---9---10---12------------------|
D|---------------10--11--12--13-----------------------------------|
A|10--11--12--13--------------------------------------------------|
D|----------------------------------------------------------------|

Rhythm Guitar
E|----------------------------------------------------------------|
B|----------------------------------------------------------------|
G|----------------------------------------------------------------|
D|10------10------10------10------10------10------10------10------|
A|10------10------10------10------10------10------10------10------|
D|10------10------10------10------10------10------10------10------|

------------------------------------------------------------------------------

Lead Guitar
E|10--12--13--12--10----------------------------------------------|
B|--------------------13--10--11--13--11--10----------------------|
G|--------------------------------------------12--10~~~~~~~~~~~~~~|
D|----------------------------------------------------------------|
A|----------------------------------------------------------------|
D|----------------------------------------------------------------|

Rhythm Guitar
E|----------------------------------------------------------------|
B|----------------------------------------------------------------|
G|----------------------------------------------------------------|
D|5-------5-------5-------5-------5-------5-------5-------5-------|
A|5-------5-------5-------5-------5-------5-------5-------5-------|
D|5-------5-------5-------5-------5-------5-------5-------5-------|

------------------------------------------------------------------------------

Lead Guitar
E|13--12--11--10--------------------------------------------------|
B|----------------14--13--12--11--10------------------------------|
G|------------------------------------13--12--11--10--------------|
D|----------------------------------------------------14--13--12--|
A|----------------------------------------------------------------|
D|----------------------------------------------------------------|

Rhythm Guitar
E|----------------------------------------------------------------|
B|----------------------------------------------------------------|
G|----------------------------------------------------------------|
D|8-------8-------8-------8-------8-------8-------8-------8-------|
A|8-------8-------8-------8-------8-------8-------8-------8-------|
D|8-------8-------8-------8-------8-------8-------8-------8-------|

------------------------------------------------------------------------------

Lead Guitar
E|12--11--10------------------------------------------------------|
B|------------14--13--12--11--10----------------------------------|
G|--------------------------------13--12--11--10------------------|
D|------------------------------------------------14--13--12--11--|
A|----------------------------------------------------------------|
D|----------------------------------------------------------------|

Rhythm Guitar
E|----------------------------------------------------------------|
B|----------------------------------------------------------------|
G|----------------------------------------------------------------|
D|8-------8-------8-------8-------8-------8-------8-------8-------|
A|8-------8-------8-------8-------8-------8-------8-------8-------|
D|8-------8-------8-------8-------8-------8-------8-------8-------|

------------------------------------------------------------------------------

Lead Guitar
E|11--10----------------------------------------------------------|
B|--------14--13--12--11--10--------------------------------------|
G|----------------------------13--12--11--10----------------------|
D|--------------------------------------------14--13--12--11--10--|
A|----------------------------------------------------------------|
D|----------------------------------------------------------------|

Rhythm Guitar
E|----------------------------------------------------------------|
B|----------------------------------------------------------------|
G|----------------------------------------------------------------|
D|7-------7-------7-------7-------7-------7-------7-------7-------|
A|7-------7-------7-------7-------7-------7-------7-------7-------|
D|7-------7-------7-------7-------7-------7-------7-------7-------|

------------------------------------------------------------------------------

Lead Guitar
E|10--------------------------------------------------------------|
B|----14--13--12--11--10------------------------------------------|
G|------------------------13--12--11--10--------------------------|
D|----------------------------------------14--13--12--11--10--9~~~|
A|----------------------------------------------------------------|
D|----------------------------------------------------------------|

Rhythm Guitar
E|----------------------------------------------------------------|
B|----------------------------------------------------------------|
G|----------------------------------------------------------------|
D|11------11------11------11------11------11------11------11------|
A|11------11------11------11------11------11------11------11------|
D|11------11------11------11------11------11------11------11------|
 
-----------------------------------------------------------------------------
VERSE THEN CHORUS
-----------------------------------------------------------------------------
-----------------------------------------------------------------------------
PRE-INTERLUDE
-----------------------------------------------------------------------------

Lead Guitar
E|--------|--------|---------|--------|--------|--------|--------|-------|
B|--------|--------|---------|--------|--------|--------|--------|-------|
G|--7-----|---\----|-5-b-(7)-|--------|--------|--------|--------|-------|
D|--------|--------|---------|--------|--------|--------|--------|-------|
A|--------|--------|---------|--------|--------|--------|--------|-------|
D|--------|--------|---------|--------|--------|--------|--------|-------|

Rhythm Guitar
E|--------|--------|---------|--------|--------|--------|--------|-------|
B|--------|--------|---------|--------|--------|--------|--------|-------|
G|--------|--------|---------|--------|--------|--------|--------|-------|
D|0-------|--------|0--------|--------|0-------|--------|0-------|-------|
A|0-------|--------|0--------|--------|0-------|--------|0-------|-------|
D|0-------|--------|0--------|--------|0-------|--------|0-------|-------|

-----------------------------------------------------------------------------

Rhythm Guitar
E/----------------/----------------
B/----------------/----------------
G/----------------/----------------
D/----3-----5-----/6-----5-----3-5-
D/00003-00005-0000/6-00005-00003-5-

X4

-----------------------------------------------------------------------------
INTERLUDE
-----------------------------------------------------------------------------
Lead and Rhythm Guitar
E|----------------|----------------|
B|----------------|----------------|
G|7-5-------------|----------------|
D|7-5-3-5-6-5-3-0-|0-3-5-6-5-3-0---|
A|5-3-3-5-6-5-3-0-|0-3-5-6-5-3-0---|
D|----3-5-6-5-3-0-|0-3-5-6-5-3-0---|

X4

2nd part

Lead Guitar

E|--------------------------------|----------------------------|
B|-15--13-------------------------|----------------------------|
G|---------12 13 14 12------------|--------12--13--12----------|
D|----------------------15-13-----|-- 13-------------15---13---|
A|--------------------------------|----------------------------|
D|--------------------------------|----------------------------|

Rhythm Guitar

E|--------------------------------|
B|--------------------------------|
G|--------------------------------|
D|-0---0---0---0---0---0---0---0--|
A|-0---0---0---0---0---0---0---0--|
D|-0---0---0---0---0---0---0---0--|
 
X8

Lead Guitar
E|----------------|----------------|----------------|
B|11--------------|8---9---10--11--|10--11--12--13--|
G|----------------|----------------|----------------|
D|----------------|----------------|----------------|
A|----------------|----------------|----------------|
D|----------------|----------------|----------------|

Rhythm Guitar
E|----------------|----------------|----------------|
B|----------------|----------------|----------------|
G|----------------|----------------|----------------|
D|8------------8--|5---6---7---8---|7---8---9---10--|
A|8------------8--|5---6---7---8---|7---8---9---10--|
D|8------------8--|5---6---7---8---|7---8---9---10--|

-----------------------------------------------------------------------------
CHORUS
-----------------------------------------------------------------------------
-----------------------------------------------------------------------------
FINAL CHORUS- KEY CHANGE
-----------------------------------------------------------------------------

Lead Guitar
E|------17------17|------16------16|------14------14|------1414--16--|
B|----17------17--|----17------17--|----15------15--|----15----15--17|
G|--18------18----|--16------16----|--14------14----|--14------------|
D|19------19------|18-----18-------|16------16------|16--------------|
A|----------------|----------------|----------------|----------------|
D|----------------|----------------|----------------|----------------|
    
Rhythm Guitar
E|----------------|----------------|----------------|----------------|
B|----------------|----------------|----------------|----------------|
G|----------------|----------------|----------------|----------------|
D|7-7-7-7-7-7-7-7-|1414141414141414|1212121212121212|1212121212121212|
A|7-7-7-7-7-7-7-7-|1414141414141414|1212121212121212|1212121212121212|
D|7-7-7-7-7-7-7-7-|1414141414141414|1212121212121212|1212121212121212|

Lead Guitar
E|------17------17|------16------16|------14------14|------1414--16--|
B|----17------17--|----17------17--|----15------15--|----15----15--17|
G|--18------18----|--16------16----|--14------14----|--14------------|
D|19------19------|18-----18-------|16------16------|16--------------|
A|----------------|----------------|----------------|----------------|
D|----------------|----------------|----------------|----------------|

Rhythm Guitar
E|----------------|----------------|----------------|----------------|
B|----------------|----------------|----------------|----------------|
G|----------------|----------------|----------------|----------------|
D|7-7-7-7-7-7-7-7-|1414141414141414|1212121212121212|1212121212121212|
A|7-7-7-7-7-7-7-7-|1414141414141414|1212121212121212|1212121212121212|
D|7-7-7-7-7-7-7-7-|1414141414141414|1212121212121212|1212121212121212|

-----------------------------------------------------------------------------

Lead Guitar
E|------19------19|------17------17|------16------16|------14------14|
B|----19------19--|----17------17--|----17------17--|----15------15--|
G|--21------21----|--18------18----|--16------16----|--14------14----|
D|21------21------|19-----19-------|18------18------|16------16------|
A|----------------|----------------|----------------|----------------|
D|----------------|----------------|----------------|----------------|

Rhythm Guitar
E|----------------|----------------|----------------|----------------|
B|----------------|----------------|----------------|----------------|
G|----------------|----------------|----------------|----------------|
D|9-9-9-9-9-9-9-9-|7-7-7-7-7-7-7-7-|1414141414141414|1212121212121212|
A|9-9-9-9-9-9-9-9-|7-7-7-7-7-7-7-7-|1414141414141414|1212121212121212|
D|9-9-9-9-9-9-9-9-|7-7-7-7-7-7-7-7-|1414141414141414|1212121212121212|
-----------------------------------------------------------------------------

Lead Guitar
E|17------16------|14--------------|16------14------|13--------------|
B|--15--15--15--15|--15--1517151415|--14--14--14--14|--14--141514----|
G|----14------14--|----14----------|----13------13--|----13------13--|
D|----------------|----------------|----------------|--------------15|
A|----------------|----------------|----------------|----------------|
D|----------------|----------------|----------------|----------------|

Rhythm Guitar
E|----------------|----------------|----------------|----------------|
B|----------------|----------------|----------------|----------------|
G|----------------|----------------|----------------|----------------|
D|1414141414141414|1414141416141314|1313131317171717|1717171717171717|
A|1414141414141414|1414141416141314|1313131318181818|1818181818181818|
D|1414141414141414|1414141416141314|1313131317171717|1717171717171717|

-----------------------------------------------------------------------------
OUTRO (Part One) - Return to 9/8 Time Signature
-----------------------------------------------------------------------------

The Outro is simply a repeat of the intro.

Lead Guitar
E|------------------|------------------|------------------|
B|7---7-6-7-9-10--5-|-6---6-5-6-8---6--|-6---6-5-6-8---6--|
G|------------------|------------------|------------------|
D|------------------|------------------|------------------|
A|------------------|------------------|------------------|
D|------------------|------------------|------------------|

Rhythm Guitar
E|------------------|------------------|------------------|
B|------------------|------------------|------------------|
G|------------------|-7---7-7-7-7---7--|-6---6-6-6-6---6--|
D|4---4-4-4-4-4---4-|-7---7-7-7-7---7--|-6---6-6-6-6---6--|
A|4---4-4-4-4-4---4-|-5---5-5-5-5---5--|-4---4-4-4-4---4--|
D|4---4-4-4-4-4---4-|------------------|------------------|

-----------------------------------------------------------------------------
OUTRO (Part Two) - 6/8 Time Signature
-----------------------------------------------------------------------------

Lead Guitar
E|------------|------------|------------|------------|------------|
B|6---6-5-6-8-|9-----9-----|11--9-11-13-|14----14----|--16b-17-r16| Let Ring*
G|------------|------------|------------|------------|------------|
D|------------|------------|------------|------------|------------|
A|------------|------------|------------|------------|------------|
D|------------|------------|------------|------------|------------|

Rhythm Guitar
E|------------|------------|------------|------------|------------|
B|------------|------------|------------|------------|------------| Let Ring*
G|5-----5-5-5-|------------|6666666-6-6-|3-33333-3333|--2---------|
D|5-----5-5-5-|3-33333-3333|6666666-6-6-|3-33333-3333|--2---------|
A|3-----3-3-3-|3-33333-3333|4444444-4-4-|1-11111-1111|--0---------|
D|------------|3-33333-3333|------------|------------|------------|

comments
print report bad tab
3 comments total.
+2 reply
sicfreak91 wrote on January 8 2007, 04:07 pm

dude, wtf is this. You like copied the other tab, changed a few things, with some parts wrong anyway, and posted it.

+2 reply
HerVoiCeResIdEs wrote on January 8 2007, 06:17 pm

copied..nice try

+2 reply
Rocksta11392 wrote on July 7 2007, 08:16 pm

Yeah agree w/sic

I want to post or [tab]
guest
You may want to rate the tab now too:
select rating
Please do not post tabs as comments. Select "correction" instead!