Oops, an error
Loading. Please wait.

Beast And The Harlot Tab

ver6
ver6
More versions @911Tabs.com
64,721 views 66 this week
15 commentsread comments
1 2 3 4 5
excellent!
x 40
Autoscroll
+/-
esc
set tempo
stop
Contributor
Tuning
Tabbers playing skills
D A D G B E
intermediate +
WARNING: You are trying to view
                                    content from Ultimate-Guitar.com
                                    in an unauthorized application,
                                    which is prohibited.

                                    Please use an official Ultimate
                                    Guitar Tabs application for iPhone,
                                    iPad or Android to access legitimate
                                    chords, guitar, bass, and drum tabs
                                    from Ultimate-Guitar.com database.

                                    Type "ultimate guitar tabs" in Apple
                                    App Store's or Android Market's
                                    search to find the application.
(Update) I just realised i repeated something in the intro, so i've just
shortened it to how it should be. =]

Written by: Ghost:o
Tuning: Drop D
Intro
e|-------------------------------------------------------------------------|
B|----7---/7--6--7--9—(10)~---5—6\~~--/6--5--6—8~~--/6---6~~---/6--5--6—8~~|
G|-------------------------------------------------------------------------|
D|-------------------------------------------------------------------------|
A|-------------------------------------------------------------------------|
D|-------------------------------------------------------------------------|

e|-------------------------------------------BU----|
B|---/9~--/9~--/11~-/9--11--13--/14~--/14~--16(17)-|
G|-------------------------------------------------|
D|-------------------------------------------------|
A|-------------------------------------------------|
D|-------------------------------------------------|

e|-------------------------------------------------------------------------|
B|-------------------------------------------------------------------------|
G|-------------------------------------------------------------------------|
D|-0-----------------------------------------------------------------------|
A|-0-----------------------------------------------------------------------|
D|-0-----------------------------------------------------------------------|

Main riff
e|------------------------------------------------------------------|
B|------------------------------------------------------------------|
G|--------------10-------------12-------------13-------------12-----|
D|--12-12-12-12----12-12-12-12----12-12-12-12----12-12-12-12--------|
A|------------------------------------------------------------------|
D|------------------------------------------------------------------|
PM-------------    -----------    -----------    -------------------|

Ending one
e|---------------------------------------------------------------------------|
B|---------------------------------------------------------------------------|
G|---------------------------------------------------------------------------|
D|--------------10~~---------------------------------------------------------|
A|--12-12-12-12--------------------------------------------------------------|
D|---------------------------------------------------------------------------|
PM---------------------------------------------------------------------------|

Ending two
e|---------------------------------------------------------------------------|
B|---------------------------------------------------------------------------|
G|---------------------------------------------------------------------------|
D|-------10-13/18p15---------------------------------------------------------|
A|-10-13-------------17------------------------------------------------------|
D|---------------------------------------------------------------------------|

Verse
e|---------------------------------------------------------------------------|
B|---------------------------------------------------------------------------|
G|---------------------------------------------------------------------------|
D|---------------------------------------------------------------------------|
A|--------------3---------------5---------------6---------------5------------|
D|--0--0--0--0--3---0--0--0--0--5---0--0--0--0--6---0--0--0--0--5------------|
PM------------     -----------      ----------      -------------------------|

e|---------------------------------------------------------------------------|
B|---------------------------------------------------------------------------|
G|---------------------------------------------------------------------------|
D|---------------------------------------------------------------------------|
A|--------------3---5---------------3---------------5--------------6---------|
D|--0--0--0--0--3---5---0--0--0--0--3---0--0--0--0--5--0--0--0--0--6---------|
PM------------         -----------     -----------     ----------------------|

e|---------------------------------------------------------------------------|
B|---------------------------------------------------------------------------|
G|---------------------------------------------------------------------------|
D|---------------------------------------------------------------------------|
A|--------------3---------------5--------6-----------------------------------|
D|--0--0--0--0--3---0--0--0--0--5--0--0--6-----------------------------------|
PM------------     -----------     ------------------------------------------|

e|-------------------------------------------------------------------------|
B|-------------------------------------------------------------------------|
G|-------------------------------------------------------------------------|
D|--8------5----6----7----8------------------------------------------------|
A|--8------5----6----7----8------------------------------------------------|
D|--8------5----6----7----8------------------------------------------------|

e|---------------------------------------------------------------------------|
B|---------------------------------------------------------------------------|
G|---------------------------------------------------------------------------|
D|---------------------------------------------------------------------------|
A|--------------3---------------5---------------6---------------5------------|
D|--0--0--0--0--3---0--0--0--0--5---0--0--0--0--6---0--0--0--0--5------------|
PM------------     -----------      ----------      -------------------------|

e|---------------------------------------------------------------------------|
B|---------------------------------------------------------------------------|
G|---------------------------------------------------------------------------|
D|---------------------------------------------------------------------------|
A|--------------3---5---------------3---------------5--------------6---------|
D|--0--0--0--0--3---5---0--0--0--0--3---0--0--0--0--5--0--0--0--0--6---------|
PM------------         -----------     -----------     ----------------------|

e|---------------------------------------------------------------------------|
B|---------------------------------------------------------------------------|
G|---------------------------------------------------------------------------|
D|---------------------------------------------------------------------------|
A|--------------3---------------3---------3----------------------------------|
D|--0--0--0--0--3---0--0--0--0--3---0--0--3----------------------------------|
PM------------     -----------      -----------------------------------------|

e|-------------------------------------------------------------------------|
B|-------------------------------------------------------------------------|
G|-------------------------------------------------------------------------|
D|--8------5----6----7----8-----7----8----9----10--------------------------|
A|--8------5----6----7----8-----7----8----9----10--------------------------|
D|--8------5----6----7----8-----7----8----9----10--------------------------|

Chorus
e|-----------13----------13---------12----------12----------10----------10-|
B|--------13----------13---------13----------13----------11----------11----|
G|-----14----------14---------12----------12----------10----------10-------|
D|--15----------15---------14----------14----------12----------12----------|
A|-------------------------------------------------------------------------|
D|-------------------------------------------------------------------------|

e|------------10-10----12--------------------------------------------------|
B|---------11-------11----13-----------------------------------------------|
G|-----10------------------------------------------------------------------|
D|--12---------------------------------------------------------------------|
A|-------------------------------------------------------------------------|
D|-------------------------------------------------------------------------|

e|----------15----------15----------13----------12----------12-------------|
B|-------15----------15----------13----------13----------13----------------|
G|----15----------15----------14----------12----------12-------------------|
D|-17----------17----------15----------14----------14----------------------|
A|-------------------------------------------------------------------------|
D|-------------------------------------------------------------------------|
e|----------10----------10--13----------12----------10---------------------|
B|-------11----------11--------11----11----11----11----11----11-13-11------|
G|----10----------10--------------10----------10----------10---------------|
D|-12----------12----------------------------------------------------------|
A|-------------------------------------------------------------------------|
D|-------------------------------------------------------------------------|

e|--------12---------10---------9--------------------------------------|
B|-----11----10---10----10---10---10---10--11--10---10-----------------|
G|--10----------9----------9---------9------------9--------------------|
D|---------------------------------------------------------------------|
A|---------------------------------------------------------------------|
D|---------------------------------------------------------------------|

Solo
e|-----10--------------13--------------16~~~~~~~---16--------16~~~~~-\--6/-|
B|-13-(15)--------16--(18)--------19--(21)--------(21)--19--(21)-----\-----|
G|---BU-------------BU---------------BU-------------------BU---------------|
D|-------------------------------------------------------------------------|
A|-------------------------------------------------------------------------|
D|-------------------------------------------------------------------------|

e|-13p10---10----------------------------------------------------|
B|-------13---13(15)-------8--------9-------10-------11—---------|
G|--------------BU----10-(12)--11-(13)--12-(14)--13-(15)---------|
D|----------------------BU-------BU-------BU-------BU------------|
A|---------------------------------------------------------------|
D|---------------------------------------------------------------|

e|-----------------------------------------13-15-16---------------|
B|--13-12-11-10-14-13-12-11-15-14-13-15-16------------------------|
G|----------------------------------------------------------------|
D|----------------------------------------------------------------|
A|----------------------------------------------------------------|
D|----------------------------------------------------------------|

e|--17~~~--17p13----13----13-------------20p17-------------------|
B|---------------17----17----17p13-17p13-------20--17\--11\------|
G|---------------------------------------------------------------|
D|---------------------------------------------------------------|
A|---------------------------------------------------------------|
D|---------------------------------------------------------------|

E|----------------------------------------------------------------------12-|
B|---------------------------------------------------9-10-13-11-10-11-13---|
G|---------------5--6--7~~~--\9~~~~-7--9-10~~~~-9-10-----------------------|
D|-------5--6--7-----------------------------------------------------------|
A|--/7p5-------------------------------------------------------------------|
D|-------------------------------------------------------------------------|

e|--13---\13\--15\----12~~~~---8~~~~~~-------------------------------------|
B|--------------------------------------13(15)--(14)--(15)----(13)---------|
G|----------------------------------------BU--BD----BU-----BD------10*-----|
D|-------------------------------------------------------------------------|
A|-------------------------------------------------------------------------|
D|-------------------------------------------------------------------------|

e|-------------------------------------------------------------------------|
B|-------------------------5-----------------------------------------------|
G|-------------------7--5-----7-5----------------------------------7--9--10|
D|----------5--7--8---------------8--7--5-----------------7--8--10---------|
A|--5--7--8--------------------------------8--7--7--8--10------------------|
D|-------------------------------------------------------------------------|
Pm-------------------------------------------------------------------------|


e|---------------------------------------------------------------------------|
B|---------------------------------------------------------------------------|
G|--9-7-10-9-7------------------------------------9--10--12--9--10--12-------|
D|-------------10-8-7-10-8-7------------8--10--12----------------------------|
A|----------------------------8--10--12--------------------------------------|
D|---------------------------------------------------------------------------|
PM---------------------------------------------------------------------------|

e|--------------------10-12-12-12-10---------------------------------------|
B|--10-11-13-10-11-13----------------13-11-10-8-11-10-8--------------------|
G|------------------------------------------------------10~~~--------------|
D|-------------------------------------------------------------------------|
A|-------------------------------------------------------------------------|
D|-------------------------------------------------------------------------|

e|-21-20-19-18-------------------------------------------------------------|
B|-------------21-20-19-18------------------------21-20-19-18--------------|
G|-------------------------21-10-19-18------------------------21-20-19-18--|
D|-------------------------------------21-20-19-18-------------------------|
A|-------------------------------------------------------------------------|
D|-------------------------------------------------------------------------|

e|--------------------------18-17-16-15------------------------------------|
B|--------------------------------------18-17-16-15------------------------|
G|--------------------------------------------------18-17-16-15------------|
D|--21-20-19-18-------------------------------------------------18-17-16-15|
A|--------------21-20-19-18------------------------------------------------|
D|-------------------------------------------------------------------------|

e|-------------------------------------------------------------------------|
B|--18-17-16-15---------------------------------------17----(18)~~~~(18)\--|
G|--------------18-17-16-15------------------------------BU----------------|
D|---------------------------18-17-16-15-----------------------------------|
A|---------------------------------------18-17-16-15-----------------------|
D|-------------------------------------------------------------------------|


e|-------------------------------------------------------------------------|
B|------------------------BU------BD----BU----BD-BD----BU-----BD-----BU----|
G|---7~~~~---(7)\--------5(7)--(7)---(6)--(7)-------(6)---(7)-----(6)--(7)-|
D|-------------------------------------------------------------------------|
A|-------------------------------------------------------------------------|
D|-------------------------------------------------------------------------|

e|---------------------------------|
B|---------------------------------|
G|---------------------------------|
D|--2.6----------------------------|
A|--2.6---Wammy Bar----------------|
D|---------------------------------|

Bridge
e|-------------------------------------------------------------------------|
B|-------------------------------------------------------------------------|
G|--7--5-------------------------------------------------------------------|
D|--7--5--3---5---6---5---3---0---3---5---6---5---3---0--------------------|
A|--5--3--3---5---6---5---3---0---3---5---6---5---3---0--------------------|
D|--------3---5---6---5---3---0---3---5---6---5---3---0--------------------|

e|----BU-BD---------------------------------------------------------------|
B|--13(15)(13)------------------------------------------------------------|
G|------------10--12--13--12--10------10-12-13-12-10----------------------|
D|-------------------------------12~~----------------12~~-----------------|
A|------------------------------------------------------------------------|
D|------------------------------------------------------------------------|


e|----------------------------------------------------------|
B|----BD----------------------------------------------------|
G|-12--(15)----12--13--14--15--14--15--16--17---------------|
D|----------------------------------------------------------|
A|----------------------------------------------------------|
D|----------------------------------------------------------|

e|-12---------10---------9-------------------------9-----------------------|
B|----10---10----10---10---10---10--12---10--12------12--------------------|
G|-------9----------9---------9--------9--------9--------------------------|
D|-------------------------------------------------------------------------|
A|-------------------------------------------------------------------------|
D|-------------------------------------------------------------------------|

Key change chorus
e|----------17---------17----------16----------14----------14----------14--|
B|-------17---------17----------17----------15----------15----------15-----|
G|----18---------18----------16----------14----------14----------14--------|
D|-19---------19----------18----------16----------16----------16-----------|
A|-------------------------------------------------------------------------|
D|-------------------------------------------------------------------------|

e|--14----16-----------------19----------19---------17----------16---------|
B|-----15----17-----------19----------19---------17----------17------------|
G|---------------------19----------19---------18----------16---------------|
D|------------------21----------21---------19----------18------------------|
A|-------------------------------------------------------------------------|
D|-------------------------------------------------------------------------|

e|----------16---------14----------14--17----------16----------14----------|
B|-------17---------15----------15--------15----15----15----15----15-------|
G|----16---------14----------14--------------14----------14----------14----|
D|-18---------16----------16-----------------------------------------------|
A|-------------------------------------------------------------------------|
D|-------------------------------------------------------------------------|

e|----------------16----------14----------13-------------------------------|
B|-15-17-15----15----14----14----14----14----14----14-15-14----14----------|
G|----------14----------13----------13----------13----------13-------------|
D|-------------------------------------------------------------------------|
A|-------------------------------------------------------------------------|
D|-------------------------------------------------------------------------|

| s  slide
| p  pull-off
| ~  vibrato
| *  pinch harmonic
| pm Palm mute
| bu bend up
| bd bend down
| () Bend up/down to note
comments
print report bad tab
15 comments total. Showing first comments. show 1 bad comment
+3 reply
Ghost:o wrote on January 18 2007, 10:01 am

Its not missing anything.. its just wittten in the order it is played, and then when it comes to the playing just figure out when it all comes in, its not that difficult.

+1 reply
Ghost:o wrote on January 18 2007, 10:02 am

just because i didnt copy and paste it so that it says exactly where everything comes in and all that just scroll up the page and it will be there everything is there, just not in order. saves time,

I want to post or [tab]
guest
You may want to rate the tab now too:
select rating
Please do not post tabs as comments. Select "correction" instead!