Oops, an error
Loading. Please wait.

Betrayed Tab

ver4
ver4

Intro

Whole song

More versions @911Tabs.com
40,898 views 21 this week
4 commentsread comments
1 2 3 4 5
excellent!
x 12
Autoscroll
+/-
esc
set tempo
stop
Contributor
WARNING: You are trying to view
                                    content from Ultimate-Guitar.com
                                    in an unauthorized application,
                                    which is prohibited.

                                    Please use an official Ultimate
                                    Guitar Tabs application for iPhone,
                                    iPad or Android to access legitimate
                                    chords, guitar, bass, and drum tabs
                                    from Ultimate-Guitar.com database.

                                    Type "ultimate guitar tabs" in Apple
                                    App Store's or Android Market's
                                    search to find the application.
#----------------------------------PLEASE NOTE---------------------------------#
#This file is the author's own work and represents their interpretation of the #
#song. You may only use this file for private study, scholarship, or research. #
#------------------------------------------------------------------------------#

BETRAYED
As recorded by Avenged Sevenfold
(From the 2005 Album CITY OF EVIL)

Transcribed by Carl Stelcel
	

Words and Music by Matthew Sanders, James Sullivan. Brian Haner Jr., and Zachary Baker

Bb5
8 8 8 x x x
	
Gm
5 5 8 x x x
	
F
3 3 7 x x x
	
C/E
2 3 5 x x x
D5
0 0 0 x x x
	
C/E(type 2)
2 3 2 x x x
	
F5
3 3 3 x x x
	
A
7 7 11 x x x
G5
5 5 5 x x x
	
C5
x 3 5 5 x x
	
E5
2 2 2 x x x
	
D
x x 0 2 3 2
Cadd9
x 3 2 0 3 0
	
Bbsus2
x 1 3 3 1 1
	
Dsus2
x x 0 2 3 0
	
Bb5I
x 1 3 3 x x
Aopen
x 0 2 2 2 x
	
Bb
x 1 3 3 3 x
	
C
x 3 5 5 5 x
	
D5V
x 5 7 7 x x
Ab5
6 6 6 x x x
	
Eb5
1 1 1 x x x

Gtr I (D A D G B E) - 'Electric Guitar With Distortion'
Gtr II (D A D G B E) - 'Electric Guitar With Distortion'
Gtr III (D A D G B E) - 'Clean Electric Guitar'
Gtr IV (D A D G B E) - 'Clean Electric Guitar'
Gtr V (D A D G B E) - 'Electric Guitar With Distortion'
Gtr VI (D A D G B E) - 'Electric Guitar With Distortion'

 Intro
  Moderately Fast  Q=131
  Gmb5    Gm          Dm/F              A/C#                 D5      D/F#
 4/4
  Gtrs I, II
    PM  PM  PM        PM|   PM          PM|   PM        ~    PM|
  E E E E E E Q       E E E E E E E E   E E E E S S S S Q    E E E E E E E E
|-------------------|-----------------|--------------------|-----------------|
|-------------------|-----------------|--------------------|-----------------|
|-------------------|-----------------|--------------------|-----------------|
|-------------------|-----3---3s7s3---|-----2---5p3p2p0----|-------3-2-------|
|-----6---5---5tr6--|---5---5-------5-|---4---4---------4--|-----3-------5-3-|
|-5-8---8---8-------|-3---------------|-2------------------|-0-2-------4-----|


  Gmb5    Gm          Dm/F
    PM  PM  PM        PM|   PM
  E E E E E E Q       E E E E E E E E
|-------------------|-----------------|
|-------------------|-----------------|
|-------------------|-----------------|
|-------------------|-----3---3s7s3---|
|-----6---5---5tr6--|---5---5-------5-|
|-8-5---8---8-------|-3---------------|


  A/C#                 D5      D/F#
  PM|   PM        ~    PM|
  E E E E S S S S Q    E E E E E E E E
|--------------------|-------------------||
|--------------------|-------------------||
|--------------------|-------------------||
|-----2---5p3p2p0----|-------3-2---------||
|---4---4---------4--|-----3-------5-3---||
|-2------------------|-0-2-------4-------||


 Chorus
  D5   C/E F5  Bb5                              Gm   F     C/E
  Gtr I
     PM                                            PM
  Q  E E S E S Q    +W                          Q  E E E E Q
|-----------------|---------------------------|---------------|
|-----------------|---------------------------|---------------|
|-----------------|---------------------------|---------------|
|-0----2---3---8--|-(8)-----------------------|-8--8-7---7-5--|
|-0--0-3---3---8--|-(8)-----------------------|-5--5-3---3-3--|
|-0--0-2---3---8--|-(8)-----------------------|-5--5-3---3-2--|
|
| Gtr II
|    PM                 PM|   PM------|   PM|      PM
| Q  E E S E S Q    +E  S S E S S E S S E S S   Q  E E E E Q
|-----------------|---------------------------|---------------|
|-----------------|---------------------------|---------------|
|-----------------|---------------------------|---------------|
|-0----2---3---8--|-(8)-----8-----------8-----|-8----7---7-5--|
|-0--0-3---3---8--|-(8)-----8-----8-----8-----|-5--5-3---3-3--|
|-0--0-2---3---8--|-(8)-8-8-8-8-8-8-8-8-8-8-8-|-5--5-3---3-2--|


                              D5   C/E F5
                                 PM
  +W                          Q  E E E E Q    +W
|---------------------------|---------------|----------------------------|
|---------------------------|---------------|----------------------------|
|---------------------------|---------------|----------------------------|
|-(5)-----------------------|-0----2---3-3--|-(3)------------------------|
|-(3)-----------------------|-0--0-3---3-3--|-(3)------------------------|
|-(2)-----------------------|-0--0-2---3-3--|-(3)------------------------|
|
|     PM|   PM------|   PM|      PM               PM|   PM------|
| +E  S S E S S E S S E S S   Q  E E E E Q    +E  S S E S S E S S E +E
|---------------------------|---------------|----------------------------|
|---------------------------|---------------|----------------------------|
|---------------------------|---------------|----------------------------|
|-(5)-----5-----------5-----|-0----2---3-3--|-(3)-----3-----------3-(3)S=|
|-(3)-----3-----3-----3-----|-0--0-3---3-3--|-(3)-----3-----3-----3-(3)S=|
|-(2)-2-2-2-2-2-2-2-2-2-2-2-|-0--0-2---3-3--|-(3)-3-3-3-3-3-3-3-3-3-(3)S=|


  Gm   F     C/E
     PM
  Q  E E E E Q    +W
|---------------|---------------------------||
|---------------|---------------------------||
|---------------|---------------------------||
|-8--8-7---7-5--|-(5)-----------------------||
|-5--5-3---3-3--|-(3)-----------------------||
|-5--5-3---3-2--|-(2)-----------------------||
|
|    PM               PM|   PM------|   PM|
| Q  E E E E Q    +E  S S E S S E S S E S S
|---------------|---------------------------||
|---------------|---------------------------||
|---------------|---------------------------||
|-8----7---7-5--|-(5)-----5-----------5-----||
|-5--5-3---3-3--|-(3)-----3-----3-----3-----||
|-5--5-3---3-2--|-(2)-2-2-2-2-2-2-2-2-2-2-2-||


  Dm    C         Bbadd4      D5F5
  Gtrs I, II
      PM
  E E E E +E  E E E   +E  E E E Q  Q
|-------------------|------------------|
|-------------------|------------------|
|-------------------|------------------|
|-3-3-0-2-(2)-2---2-|-(2)-3-2---3--3/--|
|-5-5-0-3-(3)-3-0-1-|-(1)-1-1-0-3--3/--|
|-------------------|---------0-3--3/--|


  Gm    D5F         C             Dm
        PM                             PM|
   E  E E E +E  E E E   +E  E E E Q  E S S
|---------------------|--------------------|
|---------------------|--------------------|
|---------------------|-----5--------------|
|--8--8---7-(7)-7---5-|-(5)---5---3--3-----|
|-10-10-0-8-(8)-8-8S7-|-(7)-----7S5--5-5-5-|
|-------0-------------|--------------------|


        C         Bbadd4      D5F5
      PM
  E E E E +E  E E E   +E  E E E Q  Q
|-------------------|------------------|
|-------------------|------------------|
|-------------------|------------------|
|-3-3-0-2-(2)-2---2-|-(2)-3-2---3--3/--|
|-5-5-0-3-(3)-3-0-1-|-(1)-1-1-0-3--3/--|
|-------------------|---------0-3--3/--|


  Gm    D5F         C             Dm
        PM
   E  E E E +E  E E E   +E  E E E Q  Q
|---------------------|-----------------||
|---------------------|-----------------||
|---------------------|-----5-----------||
|--8--8---7-(7)-7---5-|-(5)---5---3--3--||
|-10-10-0-8-(8)-8-8S7-|-(7)-----7S5--5--||
|-------0-------------|-----------------||


 First Verse
  Gm                Dm/F              A7b9              Dm  Em  F   D/F#
  Gtr III
  E E E E E E E E   E E E E E E E E   E E E E E E E E   E E E E E E E E
|-----------------|-----------------|-----------------|-----------------|
|-------3---------|-------3---------|-----------------|-------------3---|
|-----3-----3-----|-----2-----2-----|-------3---------|---------2-----2-|
|---0---------0---|---0---------0---|-----5-----5-----|-3---5-----0-----|
|-----------------|-----------------|---4---------4---|---0---0---------|
|-5-------5-----5-|-3-------3-----3-|-2-------2-----2-|-0---2---3---4---|


  Gm                Dm/F              A7b9              Dm  Em  F   D/F#
  E E E E E E E E   E E E E E E E E   E E E E E E E E   E E E E E E E E
|-----------------|-----------------|-----------------|-----------------|
|-------3---------|-------3---------|-----------------|-------------3---|
|-----3-----3-----|-----2-----2-----|-------3---------|---------2-----2-|
|---0---------0---|---0---------0---|-----5-----5-----|-3---5-----0-----|
|-----------------|-----------------|---4---------4---|---0---0---------|
|-5-------5-----5-|-3-------3-----3-|-2-------2-----2-|-0---2---3---4---|


  Gm                Dm/F              A7b9              Dm  Em  F   D/F#
  E E E E E E E E   E E E E E E E E   E E E E E E E E   E E E E E E E E
|-----------------|-----------------|-----------------|-----------------|
|-------3---------|-------3---------|-----------------|-------------3---|
|-----3-----3-----|-----2-----2-----|-------3---------|---------2-----2-|
|---0---------0---|---0---------0---|-----5-----5-----|-3---5-----0-----|
|-----------------|-----------------|---4---------4---|---0---0---------|
|-5-------5-----5-|-3-------3-----3-|-2-------2-----2-|-0---2---3---4---|


  Gm                Dm/F              A7b9              Dm  Em  F  A
  E E E E E E E E   E E E E E E E E   E E E E E E E E   E E E E Q  E E
|-----------------|-----------------|-----------------|----------------|
|-------3---------|-------3---------|-----------------|----------------|
|-----3-----3-----|-----2-----2-----|-------3---------|---------2S=6---|
|---0---------0---|---0---------0---|-----5-----5-----|-3---5----------|
|-----------------|-----------------|---4---------4---|---0---0------7-|
|-5-------5-----5-|-3-------3-----3-|-2-------2-----2-|-0---2---3S=7---|


                                     Bridge
  Asus4                        D5
  Gtrs I, II
                               PM                                        PM
  W                 H     Q    E E    +W                  +H.            E E
|-----------------|----------------||-------------------|--------------------|
|-----------------|----------------||-------------------|--------------------|
|-----------------|----------------||-------------------|--------------------|
|-----------------|------------0-0-||-(0)---------------|-(0)------------0-0-|
|-----------------|------------0-0-||-(0)---------------|-(0)------------0-0-|
|-----------------|------------0-0-||-(0)---------------|-(0)------------0-0-|
|
| Gtr III
| E E E E E E E E   H    +Q    Q       E  E E E E E E E    E  E E E +H
|-----------------|----------------||-------------------|--------------------|
|-----------------|----------------||-------------------|--------------------|
|-7-----7-----7---|-6----(6)\------||-------------------|--------------------|
|-----------------|----------------||-------3---3-------|--2------3-(3)------|
|---7-----7---7---|-7----(7)\------||-----0---0---0---0-|-----0--------------|
|-7---7-----7---7-|-7----(7)\------||--0------------0---|-------0------------|


                                     PM
  +W                  +H.            E E
|-------------------|--------------------|
|-------------------|--------------------|
|-------------------|--------------------|
|-(0)---------------|-(0)------------0-0-|
|-(0)---------------|-(0)------------0-0-|
|-(0)---------------|-(0)------------0-0-|
|
|  E  E E E E E E E    E  E E E +H
|-------------------|--------------------|
|-------------------|--------------------|
|-------------------|--------------------|
|-------3---3-------|--2------3-(3)------|
|-----0---0---0---0-|-----0--------------|
|--0------------0---|-------0------------|


                                     PM
  +W                  +H.            E E
|-------------------|--------------------|
|-------------------|--------------------|
|-------------------|--------------------|
|-(0)---------------|-(0)------------0-0-|
|-(0)---------------|-(0)------------0-0-|
|-(0)---------------|-(0)------------0-0-|
|
|  E  E E E E E E E    E  E E E +Q   E E
|-------------------|--------------------|
|-------------------|--------------------|
|-------------------|--------------------|
|-------3---3-------|--2------3-(3)----3-|
|-----0---0---0---0-|-----0--------------|
|--0------------0---|-------0--------0---|


          C/E         F             Asus4             A
                         2/4            4/4
  +Q.     E +Q    +E  E   +Q    +E   E    +H.       E  E    H.       +Q
|-----------------------|--------------|-----------------|-----------------||
|-----------------------|--------------|-----------------|-----------------||
|-----------------------|--------------|-----------------|-----------------||
|-(0)-----5-(5)---(5)S7-|-(7)---(7)S12-|-(12)------12s11-|-11-------(11)\--||
|-(0)-----3-(3)---(3)-3-|-(3)---(3)S=7-|--(7)-------7--7-|--7--------(7)\--||
|-(0)-----2-(2)---(2)S3-|-(3)---(3)S=7-|--(7)-------7--7-|--7--------(7)\--||
|
| +E  E E E +E  E  E  E   +E  E  E   E    +H.       E  E    H.       +Q
|-----------------------|--------------|-----------------|-----------------||
|-----------------------|--------------|-----------------|-----------------||
|-----------------------|--------------|-----------------|-----------------||
|-(3)-----5-(5)-------7-|-(7)-------12-|-(12)------12s11-|-11-------(11)\--||
|-----0---------3-------|-----3------7-|--(7)-------7----|--7--------(7)\--||
|-------0----------2/---|--------3/--7-|--(7)-------7----|--7--------(7)\--||


 Interlude
  Dm                      Cadd9
  Gtr I
  Q    E  E  E   E  E E   E E E  E  E  S     +S  +Q
|-----------------------|------------------------------|
|-6S==13-13-13s=10-10s8-|-8-8-8-----8--8b10==(8)r(8)S==|
|-----------------------|--------9---------------------|
|-----------------------|------------------------------|
|-----------------------|------------------------------|
|-----------------------|------------------------------|
|
| Gtr II
| Q    E  E  E   E  E E   E E E  E  E  S     +S  +Q
|-----------------------|------------------------------|
|-----------------------|------------------------------|
|-7S==14-14-14s=10-10s9-|-9-9-9-----9--9b10==(9)r(9)S==|
|-----------------------|-------10---------------------|
|-----------------------|------------------------------|
|-----------------------|------------------------------|
|
| Gtr III
| E E  E  E +Q      E E   E E E  E +Q             E  E
|-1-------1-(1)-----1---|-0------0-(0)------------0----|
|---3---------------3---|---3---------------------3----|
|------2------------2---|-----0-------------------0----|
|-0-------0-(0)-----0---|------------------------------|
|-----------------------|-3------3-(3)------------3----|
|-----------------------|------------------------------|


  Dm                      Cadd9
  Q    E  E  E   E  E E   Q    E  E  E  S      +S   +Q
|-----------------------|----------------------------------|
|-6S==13-13-13s=10-10s8-|-8S==17-17-17-17b18==(17)r(17)----|
|-----------------------|----------------------------------|
|-----------------------|----------------------------------|
|-----------------------|----------------------------------|
|-----------------------|----------------------------------|
|
| Q    E  E  E   E  E E   Q    E  E  E  S      +S   +Q
|-----------------------|----------------------------------|
|-----------------------|----------------------------------|
|-7S==14-14-14s=10-10s9-|-9S==17-17-17-17b19==(17)r(17)----|
|-----------------------|----------------------------------|
|-----------------------|----------------------------------|
|-----------------------|----------------------------------|
|
| E E  E  E +Q      E E   E E  E  E  E  E            Q
|-1-------1-(1)-----1---|-0-------0------------------0-----|
|---3---------------3---|---3--------3---------------------|
|------2------------2---|------0--------0------------------|
|-0-------0-(0)-----0---|----------------------------------|
|-----------------------|-3-------3------------------3-----|
|-----------------------|----------------------------------|


  Dm                      Cadd9
  Q    E  E  E   E  E E   E E E  E  E  S     +S  +Q
|-----------------------|------------------------------|
|-6S==13-13-13s=10-10s8-|-8-8-8-----8--8b10==(8)r(8)S==|
|-----------------------|--------9---------------------|
|-----------------------|------------------------------|
|-----------------------|------------------------------|
|-----------------------|------------------------------|
|
| Q    E  E  E   E  E E   E E E  E  E  S     +S  +Q
|-----------------------|------------------------------|
|-----------------------|------------------------------|
|-7S==14-14-14s=10-10s9-|-9-9-9-----9--9b10==(9)r(9)S==|
|-----------------------|-------10---------------------|
|-----------------------|------------------------------|
|-----------------------|------------------------------|
|
| E E  E  E +Q      E E   E E E  E +Q             E  E
|-1-------1-(1)-----1---|-0------0-(0)------------0----|
|---3---------------3---|---3---------------------3----|
|------2------------2---|-----0-------------------0----|
|-0-------0-(0)-----0---|------------------------------|
|-----------------------|-3------3-(3)------------3----|
|-----------------------|------------------------------|


  Dm                      Cadd9
  Q    E  E  E   E  E E   E E Q   Q    E S  S
|-----------------------|-----------------------||
|-6S==13-13-13s=10-10s8-|-8-8-8S=10---10-8-10---||
|-----------------------|-----------------------||
|-----------------------|-----------------------||
|-----------------------|-----------------------||
|-----------------------|-----------------------||
|
| Q    E  E  E   E  Q     E E Q   Q    E S  S
|-----------------------|-----------------------||
|-----------------------|-----------------------||
|-7S==14-14-14s=10-10---|-9-9-9--11---11-9-11---||
|-----------------------|-----------------------||
|-----------------------|-----------------------||
|-----------------------|-----------------------||
|
| E E  E  E +Q      E E   E E Q   E E  Q
|-1-------1-(1)-----1---|-0-------2-------------||
|---3---------------3---|---3-------3-----------||
|------2------------2---|-----0--------2--------||
|-0-------0-(0)-----0---|---------0-------------||
|-----------------------|-3---------------------||
|-----------------------|-----------------------||


 Second Verse
  Gm                        Dm/F
  Gtr I
                              ~~~~
   H            +H           +H.            +Q
|-------------------------|------------------------|
|-10b11========(10)r======|=(10)-----------(10)\---|
|-------------------------|------------------------|
|-------------------------|------------------------|
|-------------------------|------------------------|
|-------------------------|------------------------|
|
| Gtr II
|                             ~~~~
|  H            +H           +H.            +Q
|-------------------------|------------------------|
|-------------------------|------------------------|
|-11b12========(11)r======|=(11)-----------(11)\---|
|-------------------------|------------------------|
|-------------------------|------------------------|
|-------------------------|------------------------|
|
| Gtr III
|  E     E E E   E  E E E     E  E E E E E   E   E
|-------------------------|------------------------|
|------------3------------|----------3-------------|
|----------3--------3-----|--------2-----2---------|
|--------0------------0---|------0-----------0-----|
|-------------------------|------------------------|
|--5-------------5------5-|---3--------3---------3-|


  A7b9              Dm  Em  F   D/F#
  W                 W
|-----------------|-----------------|
|-----------------|-----------------|
|-----------------|-----------------|
|-----------------|-----------------|
|-----------------|-----------------|
|-----------------|-----------------|
|
| W                 W
|-----------------|-----------------|
|-----------------|-----------------|
|-----------------|-----------------|
|-----------------|-----------------|
|-----------------|-----------------|
|-----------------|-----------------|
|
| E E E E E E E E   E E E E E E E E
|-----------------|-----------------|
|-----------------|-------------3---|
|-------3---------|---------2-----2-|
|-----5-----5-----|-3---5-----0-----|
|---4---------4---|---0---0---------|
|-2-------2-----2-|-0---2---3---4---|


  Gm                Dm/F              A7b9              Dm  Em  F   D/F#
  Gtr III
  E E E E E E E E   E E E E E E E E   E E E E E E E E   E E E E E E E E
|-----------------|-----------------|-----------------|-----------------||
|-------3---------|-------3---------|-----------------|-------------3---||
|-----3-----3-----|-----2-----2-----|-------3---------|---------2-----2-||
|---0---------0---|---0---------0---|-----5-----5-----|-3---5-----0-----||
|-----------------|-----------------|---4---------4---|---0---0---------||
|-5-------5-----5-|-3-------3-----3-|-2-------2-----2-|-0---2---3---4---||


  Gmb5        Gm          Dm/F
  Gtr III
   E  E  H.                E  E  H.
|-------10--------------|-------10------------|
|----11-----------------|----10---------------|
|-12--------------------|-10------------------|
|-----------------------|---------------------|
|-----------------------|---------------------|
|-----------------------|---------------------|
|
| Gtrs I, II
|     PM    PM  PM         PM|      PM
|  E  E  E  E E E Q        E  E  E  E E E E E
|-----------------------|---------------------|
|-----------------------|---------------------|
|-----------------------|---------------------|
|-----------------------|--------3----3s7s3---|
|--------6----5---5tr6--|-----5-----5-------5-|
|--5--8-----8---8-------|--3------------------|


  A/C#                   D5         D/F#
  E  E H.                 E  Q.     E  E  E  E
|------9---------------|-10---------8------------|
|---10-----------------|-----------------11------|
|-9--------------------|----10--------10----11---|
|----------------------|-------------------------|
|----------------------|-------------------------|
|----------------------|-------------------------|
|
| PM|     PM        ~     PM|
| E  E E  E S S S S Q     E  E  E E E  E  E  E
|----------------------|-------------------------|
|----------------------|-------------------------|
|----------------------|-------------------------|
|------2----5p3p2p0----|----------3-2------------|
|----4----4---------4--|--------3---------5--3---|
|-2--------------------|--0--2---------4---------|


  Gmb5        Gm          Dm/F                  A/C#
   E  E  H.                E  E  H.             E  E H.
|-------10--------------|-------10------------|------9----------------|
|----11-----------------|----10---------------|---10------------------|
|-12--------------------|-10------------------|-9---------------------|
|-----------------------|---------------------|-----------------------|
|-----------------------|---------------------|-----------------------|
|-----------------------|---------------------|-----------------------|
|
|     PM    PM  PM         PM|      PM          PM|     PM        ~
|  E  E  E  E E E Q        E  E  E  E E E E E   E  E E  E S S S S Q
|-----------------------|---------------------|-----------------------|
|-----------------------|---------------------|-----------------------|
|-----------------------|---------------------|-----------------------|
|-----------------------|--------3----3s7s3---|------2----5p3p2p0-----|
|--------6----5---5tr6--|-----5-----5-------5-|----4----4---------4---|
|--8--5-----8---8-------|--3------------------|-2---------------------|


  D5        C/E     F          A        Asus4         A
   E   E  E E  E  E E  E    E   E   E E  E  E  E  E    W
|-10--------8-------8----|------9-------10----10----|--9--------------||
|-----10-------8------10-|---------10------10----10-|-----------------||
|--------10-------9------|-10---------9-------------|-----------------||
|------------------------|--------------------------|-----------------||
|------------------------|--------------------------|-----------------||
|------------------------|--------------------------|-----------------||
|
|  Q.       E +Q    Q      +E   Q.       Q     Q       H.       +Q
|------------------------|--------------------------|-----------------||
|------------------------|--------------------------|-----------------||
|------------------------|--------------------------|-----------------||
|--0--------2-(2)---7----|-(7)S11-------12----12----|-11-------(11)\--||
|--0--------3-(3)---3----|-(3)S=7--------7-----7----|--7--------(7)\--||
|--0--------2-(2)---3----|-(3)S=7--------7-----7----|--7--------(7)\--||


 Chorus
  D5   C/E F5  Bb5                              Gm   F     C/E
  Gtr I
     PM                                            PM
  Q  E E S E S Q    +W                          Q  E E E E Q
|-----------------|---------------------------|---------------|
|-----------------|---------------------------|---------------|
|-----------------|---------------------------|---------------|
|-0----2---3---8--|-(8)-----------------------|-8--8-7---7-5--|
|-0--0-3---3---8--|-(8)-----------------------|-5--5-3---3-3--|
|-0--0-2---3---8--|-(8)-----------------------|-5--5-3---3-2--|
|
| Gtr II
|    PM                 PM|   PM------|   PM|      PM
| Q  E E S E S Q    +E  S S E S S E S S E S S   Q  E E E E Q
|-----------------|---------------------------|---------------|
|-----------------|---------------------------|---------------|
|-----------------|---------------------------|---------------|
|-0----2---3---8--|-(8)-----8-----------8-----|-8----7---7-5--|
|-0--0-3---3---8--|-(8)-----8-----8-----8-----|-5--5-3---3-3--|
|-0--0-2---3---8--|-(8)-8-8-8-8-8-8-8-8-8-8-8-|-5--5-3---3-2--|


                              D5   C/E F5
                                 PM
  +W                          Q  E E E E Q    +W
|---------------------------|---------------|----------------------------|
|---------------------------|---------------|----------------------------|
|---------------------------|---------------|----------------------------|
|-(5)-----------------------|-0----2---3-3--|-(3)------------------------|
|-(3)-----------------------|-0--0-3---3-3--|-(3)------------------------|
|-(2)-----------------------|-0--0-2---3-3--|-(3)------------------------|
|
|     PM|   PM------|   PM|      PM               PM|   PM------|
| +E  S S E S S E S S E S S   Q  E E E E Q    +E  S S E S S E S S E +E
|---------------------------|---------------|----------------------------|
|---------------------------|---------------|----------------------------|
|---------------------------|---------------|----------------------------|
|-(5)-----5-----------5-----|-0----2---3-3--|-(3)-----3-----------3-(3)S=|
|-(3)-----3-----3-----3-----|-0--0-3---3-3--|-(3)-----3-----3-----3-(3)S=|
|-(2)-2-2-2-2-2-2-2-2-2-2-2-|-0--0-2---3-3--|-(3)-3-3-3-3-3-3-3-3-3-(3)S=|


  Gm   F     C/E
     PM
  Q  E E E E Q    +W
|---------------|---------------------------||
|---------------|---------------------------||
|---------------|---------------------------||
|-8--8-7---7-5--|-(5)-----------------------||
|-5--5-3---3-3--|-(3)-----------------------||
|-5--5-3---3-2--|-(2)-----------------------||
|
|    PM               PM|   PM------|   PM|
| Q  E E E E Q    +E  S S E S S E S S E S S
|---------------|---------------------------||
|---------------|---------------------------||
|---------------|---------------------------||
|-8----7---7-5--|-(5)-----5-----------5-----||
|-5--5-3---3-3--|-(3)-----3-----3-----3-----||
|-5--5-3---3-2--|-(2)-2-2-2-2-2-2-2-2-2-2-2-||


  Dm    C         Bbadd4      D5F5
  Gtrs I, II
      PM
  E E E E +E  E E E   +E  E E E Q  Q
|-------------------|------------------|
|-------------------|------------------|
|-------------------|------------------|
|-3-3-0-2-(2)-2---2-|-(2)-3-2---3--3/--|
|-5-5-0-3-(3)-3-0-1-|-(1)-1-1-0-3--3/--|
|-------------------|---------0-3--3/--|


  Gm    D5F         C             Dm
        PM                             PM|
   E  E E E +E  E E E   +E  E E E Q  E S S
|---------------------|--------------------|
|---------------------|--------------------|
|---------------------|-----5--------------|
|--8--8---7-(7)-7---5-|-(5)---5---3--3-----|
|-10-10-0-8-(8)-8-8S7-|-(7)-----7S5--5-5-5-|
|-------0-------------|--------------------|


        C         Bbadd4      D5F5
      PM
  E E E E +E  E E E   +E  E E E Q  Q
|-------------------|------------------|
|-------------------|------------------|
|-------------------|------------------|
|-3-3-0-2-(2)-2---2-|-(2)-3-2---3--3/--|
|-5-5-0-3-(3)-3-0-1-|-(1)-1-1-0-3--3/--|
|-------------------|---------0-3--3/--|


  Gm    D5F         C             Dm
        PM
   E  E E E +E  E E E   +E  E E E Q  Q
|---------------------|-----------------||
|---------------------|-----------------||
|---------------------|-----5-----------||
|--8--8---7-(7)-7---5-|-(5)---5---3--3--||
|-10-10-0-8-(8)-8-8S7-|-(7)-----7S5--5--||
|-------0-------------|-----------------||


 Interlude
  Dm                                C/E
  Gtrs I, II
  PM--------------------------------------------------------------|
  S S S S S S S S S S S S S S S S   S S S S S S S S S S S S S S S S
|---------------------------------|---------------------------------|
|---------------------------------|---------------------------------|
|---------------------------------|---------------------------------|
|-----------------3-3-3-3---------|-----------------5-5-5-5---------|
|---------0-0-0-0---------0-0-0-0-|---------3-3-3-3---------3-3-3-3-|
|-0-0-0-0-------------------------|-2-2-2-2-------------------------|


  D/F#                              Gm
  PM--------------------------------------------------------------|
  S S S S S S S S S S S S S S S S   S S S S S S S S S S S S S S S S
|---------------------------------|---------------------------------|
|---------------------------------|---------------------------------|
|---------------------------------|---------------------------------|
|-----------------7-7-7-7---------|-----------------8-8-8-8---------|
|---------5-5-5-5---------5-5-5-5-|---------5-5-5-5---------5-5-5-5-|
|-4-4-4-4-------------------------|-5-5-5-5-------------------------|


  Bb
  PM-----------------------------------
  S S S S S S S S  S  S  S  S S S S S
|-------------------------------------|
|-------------------------------------|
|-------------------------------------|
|-----------------12-12-12-12---------|
|---------8-8-8-8-------------8-8-8-8-|
|-8-8-8-8-----------------------------|


  C
 ----------------------------------------------|
   S  S  S  S  S  S  S  S  S  S  S  S  S  S  S  S
|-------------------------------------------------|
|-------------------------------------------------|
|-------------------------------------------------|
|-------------------------14-14-14-14-------------|
|-------------10-10-10-10-------------10-10-10-10-|
|-10-10-10-10-------------------------------------|


  Dm                                                D/F#
   PM------------------|
   S  S  S  S  S  S  S  S  S  S  S  S  S  S  S  S    E  E  E  E  E  E  E  E
|-------------------------------------------------|-------------------------||
|-------------------------------------------------|-------------------------||
|-------------------------------------------------|-------------------------||
|-------------------------15-15-15-15-------------|-16-16-16-16-16-16-16-16-||
|-------------12-12-12-12-------------12-12-12-12-|-17-17-17-17-17-17-17-17-||
|-12-12-12-12-------------------------------------|-16-16-16-16-16-16-16-16-||


 Bridge
  G5                           F5
  Gtr V
   E  E  E  E  E  E  E  S  S    E  E  E  E  E  E  E  S  S
|----------------------------|----------------------------|
|----------------------------|----------------------------|
|-15-15-15-15-15-15-15-15-15-|-14-14-14-14-14-14-14-14-14-|
|--x--x--x--x--x--x--x--x--x-|--x--x--x--x--x--x--x--x--x-|
|-13-13-13-13-13-13-13-13-13-|-12-12-12-12-12-12-12-12-12-|
|----------------------------|----------------------------|
|
| Gtrs I, II
|  E  E  E  E  E  E  E  E       E  E  E  E  E  E  E  E
|----------------------------|----------------------------|
|----------------------------|----------------------------|
|----------------------------|----------------------------|
|--5--5--5--5--5--5--5--5S===|==3--3--3--3--3--3--3--3----|
|--5--5--5--5--5--5--5--5S===|==3--3--3--3--3--3--3--3----|
|--5--5--5--5--5--5--5--5S===|==3--3--3--3--3--3--3--3----|


  C5            D5F5 E5  D5
   E  E  E  E E E  E E   E E E E E  E  Q
|----------------------|---------------------|
|----------------------|---------------------|
|-12-12-12-12---9-10-9-|-7-7-7s9-9s10-10S====|
|--x--x--x--x---x--x-x-|-x-x-x-x-x--x--x-----|
|-10-10-10-10---7--8-7-|-5-5-5s7-7s=8--8S====|
|----------------------|---------------------|
|
|  E  E  E  E E E  E E   Q   Q   Q     Q
|----------------------|---------------------|
|----------------------|---------------------|
|--5--5--5--5----------|---------------------|
|--5--5--5--5---0--3-2-|-0---0---0-----0-----|
|--3--3--3--3---0--3-2-|-0---0---0-----0-----|
|---------------0--3-2-|-0---0---0-----0-----|


  G5                           F5
   E  E  E  E  E  E  E  S  S    E  E  E  E  E  E  E  S  S
|----------------------------|----------------------------|
|----------------------------|----------------------------|
|-15-15-15-15-15-15-15-15-15-|-14-14-14-14-14-14-14-14-14-|
|--x--x--x--x--x--x--x--x--x-|--x--x--x--x--x--x--x--x--x-|
|-13-13-13-13-13-13-13-13-13-|-12-12-12-12-12-12-12-12-12-|
|----------------------------|----------------------------|
|
|  E  E  E  E  E  E  E  E       E  E  E  E  E  E  E  E
|----------------------------|----------------------------|
|----------------------------|----------------------------|
|----------------------------|----------------------------|
|--5--5--5--5--5--5--5--5S===|==3--3--3--3--3--3--3--3----|
|--5--5--5--5--5--5--5--5S===|==3--3--3--3--3--3--3--3----|
|--5--5--5--5--5--5--5--5S===|==3--3--3--3--3--3--3--3----|


  C5            D5F5 E5  D5
   E  E  E  E E E  E E   E E E E E  E  Q
|----------------------|---------------------|
|----------------------|---------------------|
|-12-12-12-12---9-10-9-|-7-7-7s9-9s10-10S====|
|--x--x--x--x---x--x-x-|-x-x-x-x-x--x--x-----|
|-10-10-10-10---7--8-7-|-5-5-5s7-7s=8--8S====|
|----------------------|---------------------|
|
|  E  E  E  E E E  E E   Q   Q   Q     Q
|----------------------|---------------------|
|----------------------|---------------------|
|--5--5--5--5----------|---------------------|
|--5--5--5--5---0--3-2-|-0---0---0-----0-----|
|--3--3--3--3---0--3-2-|-0---0---0-----0-----|
|---------------0--3-2-|-0---0---0-----0-----|


  G5                           F5
  Gtr VI
   W                            W
|----------------------------|----------------------------|
|----------------------------|----------------------------|
|----------------------------|----------------------------|
|----------------------------|----------------------------|
|----------------------------|----------------------------|
|----------------------------|----------------------------|
|
| Gtr V
|  E  E  E  E  E  E  E  S  S    E  E  E  E  E  E  E  S  S
|----------------------------|----------------------------|
|----------------------------|----------------------------|
|-15-15-15-15-15-15-15-15-15-|-14-14-14-14-14-14-14-14-14-|
|--x--x--x--x--x--x--x--x--x-|--x--x--x--x--x--x--x--x--x-|
|-13-13-13-13-13-13-13-13-13-|-12-12-12-12-12-12-12-12-12-|
|----------------------------|----------------------------|
|
| Gtrs I, II
|  E  E  E  E  E  E  E  E       E  E  E  E  E  E  E  E
|----------------------------|----------------------------|
|----------------------------|----------------------------|
|----------------------------|----------------------------|
|--5--5--5--5--5--5--5--5S===|==3--3--3--3--3--3--3--3----|
|--5--5--5--5--5--5--5--5S===|==3--3--3--3--3--3--3--3----|
|--5--5--5--5--5--5--5--5S===|==3--3--3--3--3--3--3--3----|


            F5  D5   E5  D5
   W                     Q    E     +E       +E   +E   E  E
|----------------------|-----15b17r(15)b17==(15)r(15)-13------|
|----------------------|---------------------------------15---|
|----------------------|--------------------------------------|
|----------------------|--------------------------------------|
|----------------------|--------------------------------------|
|----------------------|--------------------------------------|
|
|  E  E  E  E E E  E E   E E  E      E        E    E   Q
|----------------------|--------------------------------------|
|----------------------|--------------------------------------|
|-12-12-12-12---9-10-9-|-7-7--7s=====9--------9s==10--10S=====|
|--x--x--x--x---x--x-x-|-x-x--x------x--------x----x---x------|
|-10-10-10-10---7--8-7-|-5-5--5s=====7--------7s===8---8S=====|
|----------------------|--------------------------------------|
|
|  E  E  E  E E E  E E   Q    Q               Q        Q
|----------------------|--------------------------------------|
|----------------------|--------------------------------------|
|--5--5--5--5----------|--------------------------------------|
|--5--5--5--5---0--3-2-|-0----0---------------0--------0------|
|--3--3--3--3---0--3-2-|-0----0---------------0--------0------|
|---------------0--3-2-|-0----0---------------0--------0------|


  G5                           F5
   E  E  E  E  E  E  E  E       E  E  E  E  E  E  E  E
|-18----------18-------------|-17----------17-------------|
|----15-15-15----15-15-15----|----13-13-13----13-13-13----|
|----------------------------|----------------------------|
|----------------------------|----------------------------|
|----------------------------|----------------------------|
|----------------------------|----------------------------|
|
|  E  E  E  E  E  E  E  S  S    E  E  E  E  E  E  E  S  S
|----------------------------|----------------------------|
|----------------------------|----------------------------|
|-15-15-15-15-15-15-15-15-15-|-14-14-14-14-14-14-14-14-14-|
|--x--x--x--x--x--x--x--x--x-|--x--x--x--x--x--x--x--x--x-|
|-13-13-13-13-13-13-13-13-13-|-12-12-12-12-12-12-12-12-12-|
|----------------------------|----------------------------|
|
|  E  E  E  E  E  E  E  E       E  E  E  E  E  E  E  E
|----------------------------|----------------------------|
|----------------------------|----------------------------|
|----------------------------|----------------------------|
|--5--5--5--5--5--5--5--5S===|==3--3--3--3--3--3--3--3----|
|--5--5--5--5--5--5--5--5S===|==3--3--3--3--3--3--3--3----|
|--5--5--5--5--5--5--5--5S===|==3--3--3--3--3--3--3--3----|


  C5             D5 F5 E5   D5
   E  E  E  E  E  E  E  E    E  E  E  E  Q        +E      +S   S
|-15----------15----------|-13------------------------------------|
|----13-13-13----13-13-13-|----10-10-10-13b15r===(13)b15r(13)p10--|
|-------------------------|---------------------------------------|
|-------------------------|---------------------------------------|
|-------------------------|---------------------------------------|
|-------------------------|---------------------------------------|
|
|  E  E  E  E  E  E  E  E    E  E  E  E  E     E   Q
|-------------------------|---------------------------------------|
|-------------------------|---------------------------------------|
|-12-12-12-12-----9-10--9-|--7--7--7s=9--9s===10--10S=============|
|--x--x--x--x-----x--x--x-|--x--x--x--x--x-----x---x--------------|
|-10-10-10-10-----7--8--7-|--5--5--5s=7--7s====8---8S=============|
|-------------------------|---------------------------------------|
|
|  E  E  E  E  E  E  E  E    Q     Q     Q         Q
|-------------------------|---------------------------------------|
|-------------------------|---------------------------------------|
|--5--5--5--5-------------|---------------------------------------|
|--5--5--5--5-----0--3--2-|--0-----0-----0---------0--------------|
|--3--3--3--3-----0--3--2-|--0-----0-----0---------0--------------|
|-----------------0--3--2-|--0-----0-----0---------0--------------|


     Bb5
      ~~~~~~~~~~~~~~~~~~~~~~~~~~
   a  W                     +Q    +Q        H
|------------------------|----------------------------|
|-10h11------------------|-(11)--(11)\----------------|
|------------------------|----------------------------|
|------------------------|----------------------------|
|------------------------|----------------------------|
|------------------------|----------------------------|
|
|     Q   Q   E  E  E  E     Q     E    E  +E   E  Q
|------------------------|----------------------------|
|------------------------|----------------------------|
|----15--15--15-15-15-15-|--15----15---15-(15)-15-15S=|
|-----x---x---x--x--x--x-|---x-----x----x--(x)--x--x--|
|----13--13--13-13-13-13-|--13----13---13-(13)-13-13S=|
|------------------------|----------------------------|
|
|     Q   Q   E  E  E  E     Q     E    E  +E   E  Q
|------------------------|----------------------------|
|------------------------|----------------------------|
|-----3---3---3--3--3--3-|---3-----3----3--(3)--3--3S=|
|-----3---3---3--3--3--3-|---3-----3----3--(3)--3--3S=|
|-----1---1---1--1--1--1-|---1-----1----1--(1)--1--1S=|
|------------------------|----------------------------|


  C5                     Dm      A
   W                      W
|----------------------|------------------------||
|----------------------|------------------------||
|----------------------|------------------------||
|----------------------|------------------------||
|----------------------|------------------------||
|----------------------|------------------------||
|
|  Q   Q   E  E  Q        E  Q   E +E  Q   S S
|----------------------|------------------------||
|----------------------|------------------------||
|-17--17--17-17-17S====|=14-14S==9-(9)-9--10s9--||
|--x---x---x--x--x-----|--x--x---x-(x)-x---x-x--||
|-15--15--15-15-15S====|=12-12S==7-(7)-7---8s7--||
|----------------------|------------------------||
|
|  Q   Q   E  E  E S S    E  E E E +E  Q   E
|----------------------|------------------------||
|----------------------|------------------------||
|--5---5---5--5--5-x-x-|------------------------||
|--5---5---5--5--5-x-x-|--3--3------------------||
|--3---3---3--3--3-x-x-|--5--5---4-(4)-4---4----||
|----------------------|---------7-(7)-7---7----||


 Guitar Solo
  D
  Gtr III
  Q.        E  Q.       E   +E   Q     E  Q     E   E
  |         |  |        |    |   |     |  |     |   |
  /         /  /        /    /   /     /  /     /   x

  Gtr VI
  E   E  E  E  E  E  E  E    E   E  E  E  E  E  E   E
|----10-10s12-12s10-10s15-|-15s=14-14s12-12s10-10s=12-|
|-------------------------|---------------------------|
|-------------------------|---------------------------|
|-------------------------|---------------------------|
|-------------------------|---------------------------|
|-------------------------|---------------------------|
|
| Gtrs I, II, V
| W                         +H            Q     Q
|-------------------------|---------------------------|
|-------------------------|---------------------------|
|-7-----------------------|-(7)-----------7S===11\----|
|-x-----------------------|-(x)-----------x-----x-----|
|-5-----------------------|-(5)-----------5S====9\----|
|-0-----------------------|-(0)-----------------------|
| W                         +W
|
| Gtr IV
| E   E  E  E  E  E  E  E    E   E  E  E  E  E  E   E
|-0-----------------------|--0------------------------|
|-3---3--------3----------|--3---3--------3-----------|
|-2------2--------2-----2-|--2------2--------2------0-|
|-0---------4--------4----|------------4--------4-----|
|-------------------------|---------------------------|
|-------------------------|---------------------------|


  Cadd9
     Q.    E Q.     E   +E  Q    E Q     E E
     |     | |      |    |  |    | |     | |
     /     / /      /    /  /    / /     / x

   a Q.    E E  E Q     +E  E  E E E S S E E
|-12s8-----8-8s12s8---|-(8)-8--8s7-7h8p7-5-----|
|---------------------|--------------------8---|
|---------------------|------------------------|
|---------------------|------------------------|
|---------------------|------------------------|
|---------------------|------------------------|
|
|    Q   Q   H           W
|---------------------|------------------------|
|---------------------|------------------------|
|---------------------|------------------------|
|----x----------------|------------------------|
|----x----------------|------------------------|
|----x----------------|------------------------|
|
|    Q.    E E  E E E   +E  Q.     Q     Q
|----0-----0-0--0-0-0-|-(0)-0------0-----0-----|
|----1-----3-3--3---1-|-(1)-1------1-----1-----|
|----0-----0-0--0---0-|-(0)-0------0-----0-----|
|----2-----2-2--2---2-|-(2)-2------2-----2-----|
|----3-----3-3--3---3-|-(3)-3------3-----3-----|
|---------------------|------------------------|


  D
  Gtr III
  Q.        E  Q.       E   +E  Q     E  Q     E  E
  |         |  |        |    |  |     |  |     |  |
  /         /  /        /    /  /     /  /     /  x

  Gtr VI
  E   E  E  E  E  E  E  E    E  E  E  E  E  E  E  E
|----10-10s12-12s10-10s15-|-15s14-14s15-15s17-17s20-|
|-7-----------------------|-------------------------|
|-------------------------|-------------------------|
|-------------------------|-------------------------|
|-------------------------|-------------------------|
|-------------------------|-------------------------|
|
| Gtr IV
| E   E  E  E  E  E  E  E    E  E  E  E  E  E  E  E
|-0-----------------------|--0----------------------|
|-3---3--------3----------|--3--3--------3----------|
|-2------2--------2-----2-|--2-----2--------2-----0-|
|-0---------4--------4----|-----------4--------4----|
|-------------------------|-------------------------|
|-------------------------|-------------------------|


  Cadd9
   Q.   E  Q.           E    +E   Q    E   Q     E   E
   |    |  |            |     |   |    |   |     |   |
   /    /  /            /     /   /    /   /     /   x

   ~~~
   H       E   E  Q          +E   E  Q    +Q    +Q
|-20------20--17----------|------20--------------------|
|----------------20b22====|=(20)----20---(20)r=(20)\---|
|-------------------------|----------------------------|
|-------------------------|----------------------------|
|-------------------------|----------------------------|
|-------------------------|----------------------------|
|
|  Q.   E  E   E  E     E    +E   E  Q     H
|--0----0--0---0--0-----0-|--(0)--0--0-----0-----------|
|--1----3--3---3--------1-|--(1)--1--1-----1-----------|
|--0----0--0---0--------0-|--(0)--0--0-----0-----------|
|--2----2--2---2--------2-|--(2)--2--2-----2-----------|
|--3----3--3---3--------3-|--(3)--3--3-----3-----------|
|-------------------------|----------------------------|


      Bbsus2                              Cadd9
       H               Q      Q            E      Q.     Q    Q
       |               |      |            |      |      |    |
       /               /      /            /      /      /    /

                       ~~~~                              ~~~
  a a  Q       +Q     +Q     +Q      a  a  E     +Q.     H
|----------------------------------|------------------------------|
|-----15b17===(15)r==(15)---(15)\--|------15b17-(15)----15--------|
|---x------------------------------|---15-------------------------|
|-x--------------------------------|-x----------------------------|
|----------------------------------|------------------------------|
|----------------------------------|------------------------------|
|
|      Q.          E  +E  E   Q            E      Q   E +E  Q   E
|----------------------------------|------------------------------|
|----------------------------------|------------------------------|
|------------------3--(3)-3--------|------------------5-(5)-------|
|------3----------------------3----|------------------------5-----|
|----------------------------------|-------5s=====7-------------7-|
|----------------------------------|------------------------------|


     Dsus2
      Q.                    E   +E        E    E        E     +Q    Q    Q    Q
      |                     |    |        |    |        |      |    |    |    |
      /                     /    /        /    /        /      /    /    /    /

                                                               ~~~~
   a  E      +E   +E       +E   +E       +E   +E       +E     +H         Q.      E
|----------------------------------------------------------|-------------------------|
|-14s11b12==(11)r(11)b12==(11)r(11)b12==(11)r(11)b12==(11)r|=(11)--------------------|
|----------------------------------------------------------|-------------------------|
|----------------------------------------------------------|------------/x\-----<7>--|
|----------------------------------------------------------|------------/x\----------|
|----------------------------------------------------------|-------------------------|
|
|     E       Q             E   +E        E    E        E     +E  Q   E  E  E E  E
|----------------------------------------------------------|-------------------------|
|-------------------------------------------------------7--|--(7)--------7-----------|
|---------------------------7---(7)------------7-----------|------9---7--9--7----0---|
|-----------------------------------------7----------------|-------------7----9------|
|-----7s======9--------------------------------------------|-------------------------|
|----------------------------------------------------------|-------------------------|


  Bbsus2
  H             Q   Q
  |             |   |
  /             /   /

                ~~~
  Q      +Q    +Q.    S S
|-------------------------|
|-------------------------|
|-------------------------|
|-8b10===(8)r==(8)------8-|
|---------------------8---|
|-------------------------|
|
| Q.         E  Q   Q
|-------------------------|
|-------------------------|
|-3----------5--5---0-----|
|-3----------5--5---0-----|
|-5----------5--5---5S====|
|-------------------------|


  Cadd9                                 Dsus2
   E     Q.             Q     Q         Q.          E +E E E E
   |     |              |     |         |           |  | | | |
   /     /              /     /         /           /  / / / /

                                                ~~~~
   Q         +E   S  S  Q    +E   S S   Q      +H          E E
|-------------------------------------|-------------------------|
|-------------------------------------|-------------------------|
|-----------------------------------9-|-9b11===(9)r--------7-9s=|
|-10b12=====(10)-10-10-10r==(10)-10---|-------------------------|
|-------------------------------------|-------------------------|
|-------------------------------------|-------------------------|
|
|  E     Q        E     E E   E   E     Q.          E  E E E E
|-------------------------------------|-------------------------|
|-------------------------------------|------------------8-8-8--|
|--------5--------------7p5---5---5---|-7-----------9--9-9-9-9--|
|--------5--------------5-----5---5---|-7-----------7--7-7-7-7--|
|--7--------------7-----5-----7---7---|-9-----------9--9-9-9-9--|
|-------------------------------------|-------------------------|


                                 Bbsus2
  +Q    Q        Q      Q        H           Q            Q
   |    |        |      |        |           |            |
   /    /        /      /        /           /            /

   ~~~           ~~
   Q.      S  S  Q     +Q        E  E  E  E  E      +E   +E   E
|------------------------------|--------------------------------|
|------------------------------|------------11b13==(11)r(11)----|
|-14------12-11----------------|---------10---------------------|
|---------------12----(12)\----|-8-10s12------------------------|
|------------------------------|-----------------------------10-|
|------------------------------|--------------------------------|
|
|  E  Q    E     E  Q       E    H           E       Q        E
|------------------10----------|--------------------------------|
|--8--7----7-----7-------------|---------------------3----------|
|--9--7----7-----7----------9\-|-5-----------5-------3----------|
|--7--7----7-----7-------------|-3-----------3-------3-------/5-|
|--9--9----9-----9-------------|-5-----------5-------5----------|
|------------------------------|--------------------------------|


  Cadd9                              Dsus2
   E   Q.       Q           Q         Q.           E  +E    E      E        E
   |   |        |           |         |            |   |    |      |        |
   /   /        /           /         /            /   /    /      /        /

                                                ~~~~~~~~~~~
   E   E  E  E  E      +E   E  +E     Q        +Q     +E    S  S  +E       +E
|----------------------------------|---------------------------------------------|
|--------------13b15==(13)-13r(13)-|-13b15====(13)---(13)r-13-13-(13)b15==(13)---|
|-----------12---------------------|---------------------------------------------|
|-10--12s14------------------------|---------------------------------------------|
|----------------------------------|---------------------------------------------|
|----------------------------------|---------------------------------------------|
|
| +E   E  E  E  E       E   Q         E     E   E  E   Q           E        E
|----------------------------------|-------------------0-----------0--------0----|
|----------------------------------|---------------0---0-----------0--------0----|
|------5--------5-------7---5------|------------7------7-----------7--------7----|
|-(5)--------5---------------------|--------7----------7-----------7--------7----|
|---------7------------------------|--9----------------9-----------9--------9----|
|----------------------------------|---------------------------------------------|


   +Q              Q              Q       Q
    |              |              |       |
    /              /              /       /

                         ~~~~~~~~~~~~
         |--3---|  |--3--|
   +E   +S   S  S  S  S  S  +E   +Q      +E    S  S
|---------------------------------------------------|
|-(13)r(13)p12p10-----------------------------------|
|-----------------13p12p10-(10)-(10)----(10)\-15-15-|
|---------------------------------------------------|
|---------------------------------------------------|
|---------------------------------------------------|
|
|   E    Q                   E    E   Q        E
|--------------------------------10-----------------|
|---------------------------------------------------|
|---9s==11------------------11-------11-------\5----|
|---------------------------------------------------|
|---------------------------------------------------|
|---------------------------------------------------|


  Bbsus2                                  Cadd9
   H                     Q     Q           E     Q.                Q     Q
   |                     |     |           |     |                 |     |
   /                     /     /           /     /                 /     /

                                                                   ~~
   Q       +S   S  S  S  Q    +E   S  S    Q         +S   S  S  S  Q    +E    S  S
|-15b18===(15)-15-15-15-15r==(15)-------|-18b20=====(18)-18-18-18-18---(18)r---------||
|---------------------------------------|------------------------------------10-10---||
|---------------------------------15-15-|--------------------------------------------||
|---------------------------------------|--------------------------------------------||
|---------------------------------------|--------------------------------------------||
|---------------------------------------|--------------------------------------------||
|
|  Q.              E     E E   E   E       E     E    E      E     E E   Q
|---------------------------------------|--------------------------------------------||
|---------------------------------------|--------------------------------------------||
|--3---------------------5-3------------|--------------------5-----------5-----------||
|--3---------------5-----------3--------|--3s====5-------------------5---------------||
|--5-------------------------------5----|-------------7------------7-----------------||
|---------------------------------------|--------------------------------------------||


 Bridge
  D5     AbG5F5D5    F5D5Ab5    G5   F5D5   F5G5  Bb5
  Gtr VI
                                  \7
   ~~~~~~~~~~~~~~~~~~
   H            +Q.        E     +Q     +E  E H
|------------------------<12>-|-(12)---(12)----------|
|-13b15========(13)r-----<12>-|-(12)---(12)----------|
|-----------------------------|----------------------|
|-----------------------------|----------------------|
|-----------------------------|----------------------|
|-----------------------------|----------------------|
|
| Gtrs I, II
|  E     E E E   E   E E   E      E  E   E  E E E Q
|-----------------------------|----------------------|
|-----------------------------|----------------------|
|--7-------------------7------|----------------------|
|--7-----6-5-3---0---3-7---6--|---5--3---0--3-5---8S=|
|--5-----6-5-3---0---3-5---6--|---5--3---0--3-5---8S=|
|--------6-5-3---0---3-----6--|---5--3---0--3-5---8S=|


  F5
  W                 W
|-----------------|----------------|
|-----------------|----------------|
|-----------------|----------------|
|-----------------|----------------|
|-----------------|----------------|
|-----------------|----------------|
|
| E E E E E E E E   E E E E E E Q
|-----------------|----------------|
|-----------------|----------------|
|-----------------|----------------|
|-3-3-3-3-3-3-3-3-|-3-3-3-3-3-3-3--|
|-3-3-3-3-3-3-3-3-|-3-3-3-3-3-3-3--|
|-3-3-3-3-3-3-3-3-|-3-3-3-3-3-3-3--|


  D5AbG5F5D5F5D5Ab5 G5F5D5F5G5  Bb5  F5
  Gtrs I, II
  E E E E E E E E   E E E E E E Q    E E E E E E E E   E E E E E E Q
|-----------------|----------------|-----------------|----------------|
|-----------------|----------------|-----------------|----------------|
|-7-----------7---|----------------|-----------------|----------------|
|-7-6-5-3-0-3-7-6-|-5-3-0-3-5---8S=|=3-3-3-3-3-3-3-3-|-3-3-3-3-3-3-3--|
|-5-6-5-3-0-3-5-6-|-5-3-0-3-5---8S=|=3-3-3-3-3-3-3-3-|-3-3-3-3-3-3-3--|
|---6-5-3-0-3---6-|-5-3-0-3-5---8S=|=3-3-3-3-3-3-3-3-|-3-3-3-3-3-3-3--|


  Eb5                           D5  Bb5
  Gtr I
  Q  Q  E E Q    Q  E E +E  E E E   Q  Q  +E  Q  E   Q  E E +E  E E E
|--------------|------------------|----------------|------------------|
|--------------|------------------|----------------|------------------|
|--------------|------------------|-3--3--(3)-3--3-|-3--3-3-(3)-3-3-3-|
|-1--1--1-1-1--|-1--1-1-(1)-1-1---|-3--3--(3)-3--3-|-3--3-3-(3)-3-3-3-|
|-1--1--1-1-1--|-1--1-1-(1)-1-1-0-|-1--1--(1)-1--1-|-1--1-1-(1)-1-1-1-|
|-1--1--1-1-1--|-1--1-1-(1)-1-1-0-|----------------|------------------|
|
| Gtr II
| Q  Q  E E Q    Q  E E +E  E E E   Q  Q  +E  Q  E   Q  E E  E  E E E
|--------------|------------------|----------------|------------------|
|--------------|------------------|----------------|------------------|
|--------------|------------------|-3--3--(3)-3--3-|-3----------------|
|-1--1--1-1-1--|-1--1-1-(1)-1-1---|-3--3--(3)-3--3-|-3----------3-----|
|-1--1--1-1-1--|-1--1-1-(1)-1-1-0-|-1--1--(1)-1--1-|-1--1-3s=5----5---|
|-1--1--1-1-1--|-1--1-1-(1)-1-1-0-|----------------|----------------3-|


  F5                                  Eb5         Bb5
  Gtrs I, II
  Q  Q  +E  E Q    Q  E E +E  E E E   Q  Q  E E E E   +E  E Q  Q  E S S
|----------------|------------------|---------------|-------------------||
|----------------|------------------|---------------|-------------------||
|----------------|------------------|-------------3-|-(3)-3-3--3--3-x-x-||
|-3--3--(3)-3-3--|-3--3-3-(3)-3-3-x-|-1--1--1-1-1-3-|-(3)-3-3--3--3-x-x-||
|-3--3--(3)-3-3--|-3--3-3-(3)-3-3-x-|-1--1--1-1-1-1-|-(1)-1-1--1--1-x-x-||
|-3--3--(3)-3-3--|-3--3-3-(3)-3-3-x-|-1--1--1-1-1---|-------------------||


 Guitar Solo
  A
  Gtr V
   ~~~~~~
                           |------6-------|
   H          +E   +S   S  S  S  S  S  S  S
|-------------------------------------10-13-|
|----------------------------10-11-13-------|
|-12b14======(12)r(12)-12-12----------------|
|-------------------------------------------|
|-------------------------------------------|
|-------------------------------------------|
|
| Gtrs I, II
|  Q      Q    E.       S  E        E
|-------------------------------------------|
|--2------2----2--------2--2--------2-------|
|--2------2----2--------2--2--------2-------|
|--2------2----2--------2--2--------2-------|
|--0------0----0--------0--0--------0-------|
|-------------------------------------------|


                                           Bb
   ~~~                                      ~~~
   Q     +E     E  S  S  S  S S   S  S S    Q.      S  S  E   +E       E  S  S
|-12----(12)\-----12----13-13---/15-15---|-15------------------------/15-15-17--|
|----------------------------------------|---------18-17-18--(18)\--------------|
|-------------/14------------------------|--------------------------------------|
|----------------------------------------|--------------------------------------|
|----------------------------------------|--------------------------------------|
|----------------------------------------|--------------------------------------|
|
|  E. S   E     E  E.       S E      S S    E. S E  E     E.       S   E  E
|----------------------------------------|--------------------------------------|
|--2--2---2-----2--2--------2-2------x-x-|--3--3-3--3-----3--------3---3--3-----|
|--2--2---2-----2--2--------2-2------x-x-|--3--3-3--3-----3--------3---3--3-----|
|--2--2---2-----2--2--------2-2------x-x-|--3--3-3--3-----3--------3---3--3-----|
|--0--0---0-----0--0--------0-0------x-x-|--1--1-1--1-----1--------1---1--1-----|
|----------------------------------------|--------------------------------------|


   S   S  S  S  S  S  S  S  S   S  S  S  S  S  S  S
|-18------------------------------------------------|
|-----17-15----18-15--------------------------------|
|-----------15-------15----17--15-------------------|
|-----------------------15--------15----17-15-------|
|------------------------------------15-------15-16-|
|---------------------------------------------------|
|
|  E.        S  E     E     E.        S  E     E
|---------------------------------------------------|
|--3---------3--3-----3-----3---------3--3-----3S===|
|--3---------3--3-----3-----3---------3--3-----3S===|
|--3---------3--3-----3-----3---------3--3-----3S===|
|--1---------1--1-----1-----1---------1--1-----1S===|
|---------------------------------------------------|


  C
                                                          ~~
                     |--3---|    |---3---|    |--3---|
   Q       +E   +E   E   E  E    E  E    E    E   E  E    H       Q
|------------------------------------------|-----17-18---20------20\---|
|-------------------------------17------17-|-18------------------------|
|--------------------------15------15------|---------------------------|
|-------------------14--17-----------------|---------------------------|
|-17b19===(17)r(17)------------------------|---------------------------|
|------------------------------------------|---------------------------|
|
|  Q        Q        E.       S  E    E       E.       S  E E Q   Q
|------------------------------------------|---------------------------|
|--5--------5--------5--------5--5----5----|--5--------5--5-5-5---5----|
|--5--------5--------5--------5--5----5----|--5--------5--5-5-5---5S===|
|--5--------5--------5--------5--5----5----|--5--------5--5-5-5---5S===|
|--3--------3--------3--------3--3----3----|--3--------3--3-3-3---3S===|
|------------------------------------------|---------------------------|


  D5        Ab5               G5
   ~~~~~
   Q.        S  S  S  S  S  S  S  S  S  S
|-----------------------------------------|
|-13b15-----13----------------------------|
|--------------13-12----------12-10-------|
|--------------------13-10----------12-10-|
|-----------------
4 comments total. Showing first comments. show 1 bad comment
0 reply
Jaikan wrote on December 19 2009, 04:08 pm

Thanks for a complete/correct tab

+3 reply
JacobVien wrote on March 31 2010, 08:11 pm

vagina titties

I want to post or [tab]
guest
You may want to rate the tab now too:
select rating
Please do not post tabs as comments. Select "correction" instead!