Oops, an error
Loading. Please wait.

Brompton Cocktail Bass Tab

ver3
ver3

Whole song

More versions @911Tabs.com
1,215 views 3 this week
no commentswrite comment
1 2 3 4 5
excellent!
x 2
Autoscroll
+/-
esc
set tempo
stop
Contributor
Tuning
D A D G B E
Hey! There's an official Ultimate Guitar app which is ideal
for learning songs when you're away from computer. Get the app
WARNING: You are trying to view
                                    content from Ultimate-Guitar.com
                                    in an unauthorized application,
                                    which is prohibited.

                                    Please use an official Ultimate
                                    Guitar Tabs application for iPhone,
                                    iPad or Android to access legitimate
                                    chords, guitar, bass, and drum tabs
                                    from Ultimate-Guitar.com database.

                                    Type "ultimate guitar tabs" in Apple
                                    App Store's or Android Market's
                                    search to find the application.
I added fills to the chorus to make it more interesting

Intro 0:30
G|-----------------------------------------------------------------|
D|-----------------------------------------------------------------|
A|-------------------------5---------------------------------------|
D|-0---00008---8-7---0-3-0---0-8-0-7-0-00008---8-7---0-3-0-5-0-3-0-|
   1 + 2 + 3 + 4 + 1 + 2 + 3 + 4 + 1 + 2 + 3 + 4 + 1 + 2 + 3 + 4 +

G|-----------------------------------------------------------------|
D|-----------------------------------------------------------------|
A|-------------------------5---------------------------------------|
D|-0---00008---8-7---0-3-0---0-8-0-7-0-00008---8-7---0-3-0-5-0-3---|
   1 + 2 + 3 + 4 + 1 + 2 + 3 + 4 + 1 + 2 + 3 + 4 + 1 + 2 + 3 + 4 +

0:44
G|-----------------------------------------------------------------|
D|-----------------------------------------------------------------|
A|-----------------------------------------------------------------|
D|-0-----0-----0---0-----0-----7b--0-----0-----0---0-----0-----7b--|
   1 + 2 + 3 + 4 + 1 + 2 + 3 + 4 + 1 + 2 + 3 + 4 + 1 + 2 + 3 + 4 +

Verse
G|-------------------------------------------------------------------|
D|o-----------------------------------------------------------------o|
A|o-----------------------------------------------------------------o|
D|--0-----0-0---0---0-----0-0---7b--0-----0-0---0---0-----0-0---7b---|
    1 + 2 + 3 + 4 + 1 + 2 + 3 + 4 + 1 + 2 + 3 + 4 + 1 + 2 + 3 + 4 +

1:05
G|-----------------------------------------------------------------|
D|-----------------------------------------------------------------|
A|-5---------------5---------------------0--------------/5-5-5-4-4-|
D|---0-0-8-0-0-7-----0-0-5-0-0-7---0-0-0---5-3-2-2-0-0-0-----------|
   1 + 2 + 3 + 4 + 1 + 2 + 3 + 4 + 1 + 2 + 3 + 4 + 1 + 2 + 3 + 4 +

G|-----------------------------------------------------------------|
D|-----------------------------------------------------------------|
A|-----------------------------------------------------------------|
D|-0-0-0-8-0-0-7-7-0-0-0-5-0-0-7-7-0-0-0-5-0-0-3-3-0-0-0-0-0-0-0-0-|
   1 + 2 + 3 + 4 + 1 + 2 + 3 + 4 + 1 + 2 + 3 + 4 + 1 + 2 + 3 + 4 +

Pre Chorus 1:18
G|---------------------------------------------------------------------|
D|---------------------------------------------------------------------|
A|-5-------------5-7-------------7-------------------10-------------10-|
D|---0-0-0-0-0-0-----0-0-0-0-0-0---10-0-0-0-0-0-0-10----0-0-0-0-0-0----|
   1 + 2 + 3 + 4 + 1 + 2 + 3 + 4 + 1  + 2 + 3 + 4 +  1  + 2 + 3 + 4 +

G|------------------------------------------------------------------------|
D|------------------------------------------------------------------------|
A|-8-------------8-------------------10-------------10-8-----8------------|
D|---0-0-0-0-0-0---10-0-0-0-0-0-0-10----0-0-0-0-0-0------0-0-----10-10-10-|
   1 + 2 + 3 + 4 + 1  + 2 + 3 + 4 +  1  + 2 + 3 + 4 +  1 + 2 + 3 +  4  +

Chorus 1:31
G|-----------------------------------------------------------------|
D|-----------------------2---3-5-3-------------3-5-----------------|
A|-------5---5-5-5-3-3-3-----------3-3-3-3---3---------------------|
D|-0---0-------------------------------------------5-5-5-5---5-3---|
   1 + 2 + 3 + 4 + 1 + 2 + 3 + 4 + 1 + 2 + 3 + 4 + 1 + 2 + 3 + 4 +

G|-----------------------------------------------------------------|
D|-----------------------------5-5-------------3-5-----------------|
A|-------5---5-5-5-3-3-3-3---3-----3-3-3-3---3---------------------|
D|-0-0-0-------------------------------------------5-5-5-5-5---5-5-|
   1 + 2 + 3 + 4 + 1 + 2 + 3 + 4 + 1 + 2 + 3 + 4 + 1 + 2 + 3 + 4 +

Verse 1:43
G|-------------------------------------------------------------------|
D|o-----------------------------------------------------------------o|
A|o-----------------------------------------------------------------o|
D|--0-----0-0---0---0-----0-0---7b--0-----0-0---0---0-----0-0---7b---|
    1 + 2 + 3 + 4 + 1 + 2 + 3 + 4 + 1 + 2 + 3 + 4 + 1 + 2 + 3 + 4 +

1:55
G|-----------------------------------------------------------------|
D|-----------------------------------------------------------------|
A|-5---------------5---------------------0--------------/5-5-4-4-4-|
D|---0-0-8-0-0-7-7---0-0-5-0-0-7-7-0-0-0---5-3-2-2-0-0-0-----------|
   1 + 2 + 3 + 4 + 1 + 2 + 3 + 4 + 1 + 2 + 3 + 4 + 1 + 2 + 3 + 4 +

G|-----------------------------------------------------------------|
D|-----------------------------------------------------------------|
A|---------------------------------------0-------------------4-4-4-|
D|-0-0-0-8-0-0-7-7-0-0-0-5-----7---0-0-0---5-3-2---0-0-0-0-0-------|
   1 + 2 + 3 + 4 + 1 + 2 + 3 + 4 + 1 + 2 + 3 + 4 + 1 + 2 + 3 + 4 +


Pre Chorus 2:08
G|---------------------------------------------------------------------|
D|---------------------------------------------------------------------|
A|-5-------------5-7-------------7-------------------10-------------10-|
D|---0-0-0-0-0-0-----0-0-0-0-0-0---10-0-0-0-0-0-0-10----0-0-0-0-0-0----|
   1 + 2 + 3 + 4 + 1 + 2 + 3 + 4 + 1  + 2 + 3 + 4 +  1  + 2 + 3 + 4 +

G|------------------------------------------------------------------------|
D|------------------------------------------------------------------------|
A|-8-------------8-------------------10-------------10-8-----8------------|
D|---0-0-0-0-0-0---10-0-0-0-0-0-0-10----0-0-0-0-0-0------0-0-----10-10-10-|
   1 + 2 + 3 + 4 + 1  + 2 + 3 + 4 +  1  + 2 + 3 + 4 +  1 + 2 + 3 +  4  +

Chorus 2:22
G|-----------------------------------------------------------------|
D|---------------------------------------------3-5-----------------|
A|-------5---5-5---3-3-3-3---3-3-3-3-3-3-3---3---------------------|
D|-0---0-------------------------------------------5-5-5-5---5-3---|
   1 + 2 + 3 + 4 + 1 + 2 + 3 + 4 + 1 + 2 + 3 + 4 + 1 + 2 + 3 + 4 +

G|-----------------------------------------------------------------|
D|-----------------------------------------------------------------|
A|-------5---5-5---3-3-3-3---3-3---3-3-3-3---3-3-3-----------------|
D|-0-0-0-------------------------------------------5-5-5-5-5-5-5-5-|
   1 + 2 + 3 + 4 + 1 + 2 + 3 + 4 + 1 + 2 + 3 + 4 + 1 + 2 + 3 + 4 +

2:34
G|-----------------------------------------------------------------|
D|-------------------------------------------------5-5-5-5-7-5---5-|
A|-5-5-5-5-5-5-5-5-3-3-3-3-3-3-3-3/8-8-8-8-8-8-8-8-------------8---|
D|-----------------------------------------------------------------|
   1 + 2 + 3 + 4 + 1 + 2 + 3 + 4 + 1 + 2 + 3 + 4 + 1 + 2 + 3 + 4 +

G|-----------------------------------------------------------------|
D|-----------------------------------------------------------------|
A|-5-5-5-5-5-5-5-5-3-3-3-3-3-3-3-3---------------------------0-----|
D|---------------------------------3-3-3-3-3-3-3-3-5-5-5-5-5---5-3-|
   1 + 2 + 3 + 4 + 1 + 2 + 3 + 4 + 1 + 2 + 3 + 4 + 1 + 2 + 3 + 4 +

Bridge 2:46
G|o|---------------------------------------------------|
D|-|o-------------------------------------------------o|
A|-|o-8p7-----8p7-----7---7h8-5p3-----5p3-----3---3h5-o|
D|o|------0-0-----0-0---0---------2-2-----2-2---2------|
      1 + 2 + 3 + 4 + 5 + 6 + 1 + 2 + 3 + 4 + 5 + 6 +

G|-------------------------------------------------o|
D|--------------------------------------------------|
A|--------------------------------------------------|
D|-8-8-8-8-8-8-8-8-8-8-8-8-6-6-6-6-6-6-6-6-6-6-6-6-o|
   1 + 2 + 3 + 4 + 5 + 6 + 1 + 2 + 3 + 4 + 5 + 6 +

3:15
G|-------------------------------------------------------------------|
D|o-----------------------------------------------------------------o|
A|o-----------------------------------------------/-7-----4-----5---o|
D|--0-----2-----2-/-8-----5-----7---3-----5--------------------------|
    1 + 2 + 3 + 4 + 1 + 2 + 3 + 4 + 1 + 2 + 3 + 4 + 1 + 2 + 3 + 4 +

Pre Chorus 3:28
G|---------------------------------------------------------------------|
D|---------------------------------------------------------------------|
A|-5-------------5-7-------------7-------------------10-------------10-|
D|---0-0-0-0-0-0-----0-0-0-0-0-0---10-0-0-0-0-0-0-10----0-0-0-0-0-0----|
   1 + 2 + 3 + 4 + 1 + 2 + 3 + 4 + 1  + 2 + 3 + 4 +  1  + 2 + 3 + 4 +

G|------------------------------------------------------------------------|
D|------------------------------------------------------------------------|
A|-8-------------8-------------------10-------------10-8-----8------------|
D|---0-0-0-0-0-0---10-0-0-0-0-0-0-10----0-0-0-0-0-0------0-0-----10-10-10-|
   1 + 2 + 3 + 4 + 1  + 2 + 3 + 4 +  1  + 2 + 3 + 4 +  1 + 2 + 3 +  4  +

Chorus 3:40
G|-----------------------------------------------------------------|
D|-----------------------2---3-5-3-------------3-5-----------------|
A|-------5---5-5-5-3-3-3-----------3-3-3-3---3---------------------|
D|-0---0-------------------------------------------5-5-5-5---5-3---|
   1 + 2 + 3 + 4 + 1 + 2 + 3 + 4 + 1 + 2 + 3 + 4 + 1 + 2 + 3 + 4 +

G|-----------------------------------------------------------------|
D|-----------------------------5-3-------------3-5-----------------|
A|-------5---5-5---3-3-3-3---3-----3-3-3-3---3---------------------|
D|-0-0-0-------------------------------------------5-5-5-5-5-5-5-5-|
   1 + 2 + 3 + 4 + 1 + 2 + 3 + 4 + 1 + 2 + 3 + 4 + 1 + 2 + 3 + 4 +

3:52
G|-----------------------------------------------------------------|
D|-------------------------------------------------5-5-5-5-7-5---5-|
A|-5-5-5-5-5-5-5-5-3-3-3-3-3-3-3-3/8-8-8-8-8-8-8-8-------------8---|
D|-----------------------------------------------------------------|
   1 + 2 + 3 + 4 + 1 + 2 + 3 + 4 + 1 + 2 + 3 + 4 + 1 + 2 + 3 + 4 +

G|-----------------------------------------------------------------|
D|-----------------------------------------------------------------|
A|-5-5-5-5-5-5-5-5-3-3-3-3-3-3-3-3---------------------------------|
D|---------------------------------3-3-3-3-3-3-3-3-5-5-5-5-5-5-5-5-|
   1 + 2 + 3 + 4 + 1 + 2 + 3 + 4 + 1 + 2 + 3 + 4 + 1 + 2 + 3 + 4 +

G|---------------------------------------------------------------------------|
D|---------------------------------------------------------------------------|
A|---------------------------------------------------------------------------|
D|-0-----0-----0---0-----0-----7b--0-----0-----0---0-----0-----7b--0---------|
   1 + 2 + 3 + 4 + 1 + 2 + 3 + 4 + 1 + 2 + 3 + 4 + 1 + 2 + 3 + 4 +
Tabbed by Dave Vucko
comments
We did not receive enough feedback on this tab! Please rate:
print report bad tab
1 2 3 4 5
I want to post or [tab]
guest
You may want to rate the tab now too:
select rating
Please do not post tabs as comments. Select "correction" instead!