Oops, an error
Loading. Please wait.

Buried Alive Tab

ver3
ver3
More versions @911Tabs.com
22,283 views 18 this week
no commentswrite comment
1 2 3 4 5
worth learning
x 2
Autoscroll
+/-
esc
set tempo
stop
Contributor
Hey! There's an official Ultimate Guitar app which is ideal
for learning songs when you're away from computer. Get the app
WARNING: You are trying to view
                                    content from Ultimate-Guitar.com
                                    in an unauthorized application,
                                    which is prohibited.

                                    Please use an official Ultimate
                                    Guitar Tabs application for iPhone,
                                    iPad or Android to access legitimate
                                    chords, guitar, bass, and drum tabs
                                    from Ultimate-Guitar.com database.

                                    Type "ultimate guitar tabs" in Apple
                                    App Store's or Android Market's
                                    search to find the application.
-------------------------------------------------------------------------------
                            buried alive - avenged sevenfold
-------------------------------------------------------------------------------
Tabbed by:gddude

Tuning: standard

intro
e|----8----10p8----8---------7---------------------------------------------|
B|-10--10-------10---------8---8/10-10/8/10----5--6p5--5----0--------------|
G|-------------------------9-----------------7---7---7----5---7p5p4p0h4p0--|
D|------------------------------------------------------7------------------|
A|-0-----------------------7-----------------5-----------------------------|
E|-------------------------------------------------------------------------|

e|----8---10p8---8------7--------------------------------------------------|
B|-10--10-----10------8---8/10-10/8/10---5---6p5-------8-10-9h10p9p7h9-10--|
G|--------------------9----------------7---7-----7-9-10--------------------|
D|-------------------------------------------------------------------------|
A|-0------------------7----------------5---------5-7-8----------------------
E|-------------------------------------------------------------------------|

e|--------------------------------------------------------------------|-----|
B|-10p8h10--------------10-8-10--------10-8-10-------------7-8-7-5-5--|-----|
G|---------7p5-7p5--------------/7-7-5---------7p5-7p5------------5-5-|-x2--|
D|-----------------7-5---------------------------------7-5------------|-----|
A|--------------------------------------------------------------------|-----|
E|--------------------------------------------------------------------|-----|

e|----------5*-----------5*---------|
B|-----5-5---------5-5--------------|
G|-5-4----2----5-4-----2------------|
D|----------------------------------|
A|------------------------5*--------|
E|----------------------------------|

harmony 1
(part1)
e|-----------------------------------------------------------------------|
B|-10-10-10-12------------10-10-10-12------------------10-9-9-9-10-12----|
G|------------12-9/10-5/9------------12-9-9-10-10-10-12------------------|
D|-----------------------------------------------------------------------|
A|-----------------------------------------------------------------------|
E|-----------------------------------------------------------------------|

(part2)
e|---12-10-12---12-10-12-13-12-10--12-12h13p12--------|
B|-10---------13-----------------13------------12-----|
G|----------------------------------------------------|
D|----------------------------------------------------|
A|----------------------------------------------------|
E|----------------------------------------------------|

e|---12-10-12---12-10-12-13/15\13-12-10b12---12-10-8---------|
B|-10---------13---------------------------------12-10-9-10--|
G|-----------------------------------------------------------|
D|-----------------------------------------------------------|
A|-----------------------------------------------------------|
E|-----------------------------------------------------------|

harmony 2
(part1)
e|-------------------------------------------------------------------------|
B|-13-13-13-15-13----------13-13-13-15-13-----------12-13-12-12-12-13-15---|
G|---------------12-14-9/13--------------12-14-14-14-----------------------|
D|-------------------------------------------------------------------------|
A|-------------------------------------------------------------------------|
E|-------------------------------------------------------------------------|
(part2)
e|--------------------------17-15-13------------------|
B|-13-13-13-12-13--13-12-13---------17-13-13h15p13----|
G|---------------12-------------------------------13--|
D|----------------------------------------------------|
A|----------------------------------------------------|
E|----------------------------------------------------|

e|-------------------------------------------------------------------|
B|-13-13-13-12-13--13-12-13-15-17-15-13-12--13-12-10---------13hold--|
G|---------------12----------------------------------12-10-9---------|
D|-------------------------------------------------------------------|
A|-------------------------------------------------------------------|
E|-------------------------------------------------------------------|


verse ( pick/finger pick the chords)
e|--0---0-1-0----------|
B|--1---1-1-0----------|
G|--2---0-0-1------x4--|
D|--2---2-3-2----------|
A|--0-2-3-3--3-2-------|
E|---------------------|

pre chorus(finger pick chords again)
e|-1-0-3------------------|
B|-1-1-3------------------|
G|-0-0-0---x2-------------|
D|-3-2-0------------------|
A|-3-3-2-(2-2nd time)-----|
E|-----3-(4---------)-----|

lead
e|----------------------------------------------------------------|
B|--18-17-12---------12-13---18-17-20-21--------------------------|
G|--------------12-14---------------------------------------------|
D|----------------------------------------------------------------|
A|----------------------------------------------------------------|
E|----------------------------------------------------------------|

chorus (you can get the rhythm)
e|-----------------------------------------------------------------|
B|-----------------------------------------------------------------|
G|-----------------------------------------------------------------|
D|-2--------0-2-3--2------0-2-3--9-7-5-4---------------------------|
A|-0--2--3--2-3-5--0-2-3--2-3-5--7-5-3-2---------------------------|
E|----0--1-----------0-1-------------------------------------------|

e|------------------------------------------------------------------------|
B|------------------------------------------------------------------------|
G|------------------------------------------------------------------------|
D|-2-----0-2-3--2-----0-2-3---9hold-9hold-9-7-5-4-------------------------|
A|-0-2-3-2-3-5--0-2-3-2-3-5---7-----7-----7-5-3-2-------------------------|
E|---0-1----------0-1-----------------------------------------------------|


do part 1 of the harmonies in the intro
back to verse
pre-chorus
chorus ( just do the last bit again,you will kow wot i mean)


harmony solo

harmony 1
e|------------------------------------------------|
B|-10-10-10-12-13--------10--------8-8-8-10-12----|
G|---------------12-12\9---10-10-9----------------|
D|------------------------------------------------|
A|------------------------------------------------|
E|------------------------------------------------|

e|------------------------------------------------|
B|-10-10-10-12-13--------10-----10-9-9-9-10-12----|
G|---------------12-12\9---10-10------------------|
D|------------------------------------------------|
A|------------------------------------------------|
E|------------------------------------------------|

e|--12p8----x5---12p8---x5--13p10---x5---10p7----x5----|
B|------10-----------8-----------10----------8---------|
G|-----------------------------------------------------|
D|-----------------------------------------------------|
A|-----------------------------------------------------|
E|-----------------------------------------------------|

e|---12131210-12131210----16171614-------------1617------|
B|---------------------------------------151718----------|
G|---------------------------------141617----------------|
D|-------------------------------------------------------|
A|-------------------------------------------------------|
E|-------------------------------------------------------|
harmony 2
e|------------------------------------------------------|
B|--13-13-13-15-17-13-13----15---------12-12-12-13-15---|
G|-----------------------12----14-14-12-----------------|
D|------------------------------------------------------|
A|------------------------------------------------------|
E|------------------------------------------------------|

e|-----------------------------------------------------|
B|--13-13-13-15-17-13-13--15------15-12-12-12-13-15----|
G|----------------------12--14-14----------------------|
D|-----------------------------------------------------|
A|-----------------------------------------------------|
E|-----------------------------------------------------|


e|--17p12-----x5--15p12-----x5--17p13----x5---15p10----x5---|
B|-------13------------13------------15------------12-------|
G|----------------------------------------------------------|
D|----------------------------------------------------------|
A|----------------------------------------------------------|
E|----------------------------------------------------------|

e|--16171614-16171614---19201917---------------1920-----|
B|--------------------------------------182022----------|
G|--------------------------------171921----------------|
D|------------------------------------------------------|
A|------------------------------------------------------|
E|------------------------------------------------------|

solo: (tremelo pic or pick really fast)

e|------12-17-------17-16-------12-17-19-20-19-12-|
B|-10-13------13-18--------10-13------------------|
G|------------------------------------------------|
D|------------------------------------------------|
A|------------------------------------------------|
E|------------------------------------------------|

e|-17p12------12-20p12-17p12------12-20p12-17p13------13--------|
B|------13--13--------------13--13--------------13--13----------|
G|--------14------------------14------------------14------------|
D|--------------------------------------------------------------|
A|--------------------------------------------------------------|
E|--------------------------------------------------------------|

e|-20p12-16p12------12h16-----------------------------------------|
B|------------12--12----------------------------------------------|
G|--------------13------------------------------------------------|
D|----------------------------------------------------------------|
A|----------------------------------------------------------------|
E|----------------------------------------------------------------|

tremelo pick

e|------12-17-12-13-11-12--------------------------------------|
B|-10-13------------------13-12--------------------------------|
G|-------------------------------------------------------------|
D|-------------------------------------------------------------|
A|-------------------------------------------------------------|
E|-------------------------------------------------------------|

e|---------------10-11b12-------------12-15b17------------15-17-19b2019----|
B|----------10-13-------------------13---------------15-17-----------------|
G|------9-12-------------------12-14------------14-17----------------------|
D|----10---------------------14--------------------------------------------|
A|--12---------------------15----------------------------------------------|
E|-------------------------------------------------------------------------|

e|--17-15b17--------------------------------------|
B|-----------13h15h17p15p13-13h15-----------------|
G|------------------------------------------------|
D|------------------------------------------------|
A|------------------------------------------------|
E|------------------------------------------------|

e|-12p8------------8h12--13p8--------------8h13--16b17------------------|
B|-----10--------10----------10----------10-----------------------------|
G|-------9------9--------------10------10-------------------------------|
D|--------10--10-----------------10--10---------------------------------|
A|----------12---------------------12-----------------------------------|
E|----------------------------------------------------------------------|

break ( u can get rhythm but i tried to show it)
      (do this for as long as the song does)
e|----------------------------------------------------------------|
B|----------------------------------------------------------------|
G|----------------------------------------------------------------|
D|-2--2-2--2--2-2---2-2-------------------------------------------|
A|-2--2-2--2--2-2---2-2---how ever many times-then--555-44-4-0----|
E|-0--0-0--0--0-0---0-0-----------------------------777-66-5-1----|

e|----------------------------------------------------------|
B|----------------------------------------------------------|
G|----------------------------------------------------------|
D|----------------------------------------------------------|
A|-222-33-55-333-55-77----x2--repeat all of the break-------|
E|-444-55-77-555-77-88--------------------------------------|


solo 2
e|--11b12--121110------------------------12-1715------------------------|
B|---------------121110-8/10\8-------1012-------1715--------------------|
G|----------------------------9---912----------------1614---------------|
D|--------------------------------------------------------1714----------|
A|----------------------------------------------------------------------|
E|----------------------------------------------------------------------|

e|--18p17p15---19p17p15--------------------------------------------|
B|----------17---------17--15--------------------------------------|
G|-----------------------------------------------------------------|
D|-----------------------------------------------------------------|
A|-----------------------------------------------------------------|
E|-----------------------------------------------------------------|
harmony1
e|-------19-18----18-16--------------------------------------------------|
B|-17--17-----17---------------------------------------------------------|
G|---16---------16---------12h14p12--12h14p12-12-------------------------|
D|-----------------------14--------14------------------------------------|
A|-----------------------------------------------------------------------|
E|-----------------------------------------------------------------------|

e|-------19-18----18-16-17b19-17b19----------------------------------|
B|-17--17-----17-----------------------------------------------------|
G|---16---------16---------------------------------------------------|
D|-------------------------------------------------------------------|
A|-------------------------------------------------------------------|
E|-------------------------------------------------------------------|
harmony 2
e|--------1514----14-12---------------------------|
B|--12--12----12----------------------------------|
G|------------------------------------------------|
D|----14--------14--------------------------------|
A|------------------------------------------------|
E|------------------------------------------------|

e|--------1514----14-12--13b15 13b15--------------|
B|--12--12----12----------------------------------|
G|------------------------------------------------|
D|----14--------14--------------------------------|
A|------------------------------------------------|
E|------------------------------------------------|

e|------------------------------------------------------------|
B|------------------------------------------------------------|
G|------------------------------------------------------------|
D|---------------------------x4-------------------------------|
A|-2-54--32--222--222-----------------------------------------|
E|-0-32--10--000--000-----------------------------------------|

e|------------------------------------------------------------|
B|------------------------------------------------------------|
G|------------------------------------------------------------|
D|--------------------------till end--------------------------|
A|-2--21-02-222--222------------------------------------------|
E|-0--32-10-000--000------------------------------------------|

enjoy hope it accurate
(ps there could be mistakes due to typos sorry if there are any)
************************************

| /   slide up
| \   slide down
| h   hammer-on
| p   pull-off
| ~   vibrato
| *   harmonic
| x   Mute note
| b   Bend
| pb  Pre-bend
| br  Bend release
| pbr Pre-bend release
| brb Bend release bend

************************************
comments
We did not receive enough feedback on this tab! Please rate:
print report bad tab
1 2 3 4 5
I want to post or [tab]
guest
You may want to rate the tab now too:
select rating
Please do not post tabs as comments. Select "correction" instead!