Oops, an error
Loading. Please wait.

Buried Alive Tab

ver5
ver5
More versions @911Tabs.com
49,790 views 155 this week
11 commentsread comments
1 2 3 4 5
excellent!
x 22
Autoscroll
+/-
esc
set tempo
stop
Contributor
Hey! There's an official Ultimate Guitar app which is ideal
for learning songs when you're away from computer. Get the app
WARNING: You are trying to view
                                    content from Ultimate-Guitar.com
                                    in an unauthorized application,
                                    which is prohibited.

                                    Please use an official Ultimate
                                    Guitar Tabs application for iPhone,
                                    iPad or Android to access legitimate
                                    chords, guitar, bass, and drum tabs
                                    from Ultimate-Guitar.com database.

                                    Type "ultimate guitar tabs" in Apple
                                    App Store's or Android Market's
                                    search to find the application.
Here is my tab of Buried Alive. Its taken me a while, but I'm pretty sure its 
perfect. Enjoy and please rate!







Legend:  /    = slide from lower frets
         \    = slide from higher frets
         <    = fade into note (turn volume knob up from being off)
         ~    = virbato
         .    = palm mute
         b    = bend string
         r    = release bend
         t    = tap the note with your strumming hand
        ===   = tremelo pick
      |--3--| = all notes with this symbol are triplets
        X2    = play multiple times




Every guitar is tuned to Standard:

Guitar 1 - Lead guitar & left ear parts
Guitar 2 - Rythym guitar & right ear parts
Guitar 3 - Overdubbed rythym




Note: Avenged Sevenfold does play it differently live
      including who plays what when it comes to the harmonies.





GUITAR INTRO



Guitar 1
E|-------8--------10p8----8---------7-------5-------------|
B|-/10-------10--------10-------8-------8----------8/10---|
G|--------------------------------------------------------|
D|--------------------------------------------------------|
A|---0--------------------------7-------------------------|
E|---------------------------8----------------------------|



E|---------------------------------------------------|
B|-----5-------6p5---5---------5---------------------|
G|-7-------7-------7-------5-------4---7\4-4h5p4-----|
D|-----------------------------------------------5---|
A|-5-------------------------------------------------|
E|---------------------8-7-5-------------------------|



E|-------8--------10p8----8---------8-------7-------------|
B|-/10-------10--------10-------8-------8----------8/10---|
G|--------------------------------------------------------|
D|--------------------------------------------------------|
A|---0--------------------------7-------------------------|
E|---------------------------8----------------------------|



E|--------------------------------------------------------|
B|-----5-------6p5--------------8---10---9h10p9p7h9--10---|
G|-7-------7-------7---9---10-----------------------------|
D|--------------------------------------------------------|
A|-5---------------5---7---8-------------7----------------|
E|--------------------------------------------------------|



E|---------------------------------------------------|
B|-/10~--8-10---------------/10~--8-10---------------|
G|-------------/7-5-7-5-----------------/7--5h7--5---|
D|----------------------7-5--------------------------|
A|---0-----------------------------------5-----------|
E|--------------7------------8-----------------------|



E|------------------------------------5-----------------|
B|-/10~--8-10-----------------7---8---7---5-----5-------|
G|-------------/7-5-7-5---------------------5-----5-----|
D|----------------------7-5-------------------5-----5---|
A|---0------------------------5-----------3-------------|
E|--------------7---------------------------------------|



E|---------------------------------------------------|
B|-/10~--8-10---------------/10~--8-10---------------|
G|-------------/7-5-7-5-----------------/7--5h7--5---|
D|----------------------7-5--------------------------|
A|---0-----------------------------------5-----------|
E|--------------7------------8-----------------------|



E|------------------------------------------------------|
B|-/10~--8-10-----------------7---8---7---5-----5-------|
G|-------------/7-5-7-5---------------------5-----5-----|
D|----------------------7-5-------------------5-----5---|
A|---0------------------------5-----------3-------------|
E|--------------7---------------------------------------|



E|-----------------------t24---------------------------t24-t17-----|
B|-------------5--5--------------------------5--5------------------|
G|--/5~---4~---------2/5~~~~~~~/--/5~---4~---------2---------------|
D|-----------------------------------------------------------------|
A|-----------------------------------------------------------------|
E|---5----3----1-------------------5----3----1---------------------|




BRIDGE I


Guitar 1
E|-----------------------------------------------------------|
B|--10----10-10---12-----------------------------------------|
G|---------------------12\9--9--9--10~----10-10\5--5/9~------|
D|-----------------------------------------------------------|
A|-----------------------------------------------------------|
E|-----------------------------------------------------------|


Guitar 2
E|--8----8-8--/10-----------------------------------------|
B|------------------13\8--8--8-/10~----10-10\5--5/9~------|
G|--------------------------------------------------------|
D|--------------------------------------------------------|
A|--------------------------------------------------------|
E|--------------------------------------------------------|



Guitar 1
E|--------------------------------------------------------------------|
B|-/10----10-10---12-----------------------------------9-9-9-10-/12~--|
G|---------------------12\9--9--9/10-10---10/12--14~------------------|
D|--------------------------------------------------------------------|
A|--------------------------------------------------------------------|
E|--------------------------------------------------------------------|


Guitar 2
E|--8----8-8--/10-----------------------------------------------------|
B|------------------13\8--8--8/10-10---10-12--13~---12-12-12-13--15~--|
G|--------------------------------------------------------------------|
D|--------------------------------------------------------------------|
A|--------------------------------------------------------------------|
E|--------------------------------------------------------------------|



Gutiar 1
E|-------12-10~----12---------12-10~--12/13--12-10\8---/12---13p12\7~-----|
B|-10-10--------------13~--13---------------------------------------------|
G|------------------------------------------------------------------------|
D|------------------------------------------------------------------------|
A|------------------------------------------------------------------------|
E|------------------------------------------------------------------------|


Guitar 2
E|--------------------------------------/17--15-13--12---------------------|
B|-13-13-13-12~----13---------13-12~--12----------------/13---14p13\9~-----|
G|--------------------12~--12----------------------------------------------|
D|-------------------------------------------------------------------------|
A|-------------------------------------------------------------------------|
E|-------------------------------------------------------------------------|



Guitar 1
E|-------12-10~----12---------12-10~--12-13~-b15-13---10b12r10~------12-10-8-----------------|
B|-10-10--------------13~--13------------------------------------------------12-10-9-10~-----|
G|-------------------------------------------------------------------------------------------|
D|-------------------------------------------------------------------------------------------|
A|-------------------------------------------------------------------------------------------|
E|-------------------------------------------------------------------------------------------|


Guitar 2
E|---------------------------------------------------------------------------------------------|
B|-13-13-13-12~----13---------13-12~--13-/15--17-15---12b13r12~------13-12-10---------/13~-----|
G|--------------------12~--12-------------------------------------------------12-10-9----------|
D|---------------------------------------------------------------------------------------------|
A|---------------------------------------------------------------------------------------------|
E|---------------------------------------------------------------------------------------------|



Guitar 3
(Rythym to Bridge 1)
  Am               C               Csus4           C
E|---------0-------------0-----------------1-------------0---------|
B|-----1-----1---------1---------------1-----1---------1-----------|
G|---2---2-----------0---------------0---0-----0-----0-------------|
D|---------------------------0-2---3-------------3-2---------0-----|
A|-0---------------3-------------------------------------------3-2-|
E|-----------------------------------------------------------------|
                               X4




VERSE I


Guitars 1 & 2
   Am              C               Csus4           C
E|---------0-------------0-----------------1-------------0---------|
B|-----1---------------1---------------1-----1---------1-----------|
G|---2---2-----------0---------------0---0-----0-----0-------------|
D|---------------------------0-2---3-------------3-2---------0-----|
A|-0---------------3-------------------------------------------3-2-|
E|-----------------------------------------------------------------|


   Am              C               Csus4           C
E|---------0-------------0-----------------1-------------0---------|
B|-----1-----1---------1---------------1-----1---------1-----------|
G|---2---------------0---------------0---0-----0-----0-------------|
D|---------------------------0-2---3-------------3-2---------0-----|
A|-0---------------3-------------------------------------------3-2-|
E|-----------------------------------------------------------------|


(During violins and cellos)

   Am              C               Csus4           C
E|-----------------------0-----------------1-------------0---------|
B|-----1---------------1---------------1-----1---------1-----------|
G|---2---------------0---------------0---0-----0-----0-------------|
D|---------------------------0-2---3-------------3-2---------0-----|
A|-0---------------3-------------------------------------------3-2-|
E|-----------------------------------------------------------------|


   Am              C               Csus4           C
E|-----------------------0-----------------1-------------0---------|
B|-----1---------------1---------------1-----1---------1-----------|
G|---2---------------0---------------0---0-----0-----0-------------|
D|---------------------------0-2---3-------------3-2---------0-----|
A|-0---------------3-------------------------------------------3-2-|
E|-----------------------------------------------------------------|



Guitar 1
E|-------------------------------------------------------------------------------|
B|-<15~-----13~-----12~-----\8---10---12---13--/15~-----13~-----12~----/17~------|
G|-------------------------------------------------------------------------------|
D|-------------------------------------------------------------------------------|
A|-------------------------------------------------------------------------------|
E|-------------------------------------------------------------------------------|


Guitar 2
E|-<13~-----12~-----10~-----\7---8---10---12--/13~-----12~----/15~-----16~-------|
B|-------------------------------------------------------------------------------|
G|-------------------------------------------------------------------------------|
D|-------------------------------------------------------------------------------|
A|-------------------------------------------------------------------------------|
E|-------------------------------------------------------------------------------|


Guitar 3
   Dm              C               G                         
E|---------1---------------0---------------3-------------3---------|
B|-----------3---------1---------------3-------3-------3-----------|
G|-----2-------2-----0---0-----------0---0-----------0-------------|
D|-3-----3-------3-2---------------0---------------0---------------|
A|-----------------------------------------------------------0-2-3-|
E|-----------------------------------------------------------------|


   Dm              G                               E
E|---------1---------------3---------------3---------------5---7---|
B|-----3-------3-------3-----3---------3-----3---------0-----------|
G|---2---------------0---------0-----0---3-----0---1-----1---------|
D|-0---------------0---------------0-------------0---2-------------|
A|-----------------------------------------------------------------|
E|-----------------------------------------------------------------|





1ST CHORUS I


Guitar 1
E|--------------------------------------------------|
B|--------------------------------------------------|
G|--------------------------------------------------|
D|--------------------------------------------------|
A|-7-----7-7---2---3-----3-3---3---2-2-2-3~--5~---5-|
E|-5-----5-5---0---1-----1-1---1--------------------|


Guitar 2
E|--------------------------------------------------|
B|--------------------------------------------------|
G|--------------------------------------------------|
D|--------------------------------------------------|
A|-7-----7-7---2---3-----3-3---3--------------------|
E|-5-----5-5---0---1-----1-1---1---4-4-4-5~--7~---7-|




Guitar 1
E|------------------------------------------------------------------------|
B|------------------------------------------------------------------------|
G|------------------------------------------------------------------------|
D|------------------------------------------------999----7----10----9-----|
A|-7-----7-7---2---3-----3-3---3---2-2-2-3~--5~---777--555--888---777--77-|
E|-5-----5-5---0---1-----1-1---1------------------------------------------|
                                                       ..   ..    ..   ..

Guitar 2
E|------------------------------------------------------------------------|
B|------------------------------------------------------------------------|
G|------------------------------------------------------------------------|
D|------------------------------------------------999----7----10----9-----|
A|-7-----7-7---2---3-----3-3---3------------------777--555--888---777--77-|
E|-5-----5-5---0---1-----1-1---1---4-4-4-5~--7~---------------------------|
                                                       ..   ..    ..   ..



Guitar 1
E|--------------------------------------------------|
B|--------------------------------------------------|
G|--------------------------------------------------|
D|--------------------------------------------------|
A|-7-----7-7---2---3-----3-3---3---2-2-2-3~--5~---5-|
E|-5-----5-5---0---1-----1-1---1--------------------|


Guitar 2
E|--------------------------------------------------|
B|--------------------------------------------------|
G|--------------------------------------------------|
D|--------------------------------------------------|
A|-7-----7-7---2---3-----3-3---3--------------------|
E|-5-----5-5---0---1-----1-1---1---4-4-4-5~--7~---7-|




Guitar 1
E|--------------------------------------------------|
B|--------------------------------------------------|
G|--------------------------------------------------|
D|--------------------------------------------------|
A|-7-----7-7---2---3-----3-3---3---2-2-2-3~--5~-----|
E|-5-----5-5---0---1-----1-1---1------------------0-|
                                                  .

Guitar 2
E|--------------------------------------------------|
B|--------------------------------------------------|
G|--------------------------------------------------|
D|--------------------------------------------------|
A|-7-----7-7---2---3-----3-3---3--------------------|
E|-5-----5-5---0---1-----1-1---1---4-4-4-5~--7~---0-|
                                                  .



Guitars 1 & 2
E|---------------------------------------------------------|
B|---------------------------------------------------------|
G|---------------------------------------------------------|
D|-9---------------999---------------9----7----10----9-----|
A|-7---------------777---------------7--555--888---777--77-|
E|---------------------------------------------------------|
                                        ..   ..    ..   ..

(Bridge II begins)
E|-------------------------------|
B|-------------------------------|
G|-------------------------------|
D|-------------------------------|
A|-7-----------------------------|
E|-5-----------------------------|




BRIDGE II


Guitar 1
E|-----------------------------------------------------------|
B|--10----10-10---12-----------------------------------------|
G|---------------------12\9--9--9--10~----10-10\5--5/9~------|
D|-----------------------------------------------------------|
A|-----------------------------------------------------------|
E|-----------------------------------------------------------|


Guitar 2
E|--8----8-8--/10-----------------------------------------|
B|------------------13\8--8--8-/10~----10-10\5--5/9~------|
G|--------------------------------------------------------|
D|--------------------------------------------------------|
A|--------------------------------------------------------|
E|--------------------------------------------------------|



Guitar 1
E|-------------------------------------------------------------------------------|
B|-/10----10-10---12-----------------------------------9-9-9-10-/12~---10~-------|
G|---------------------12\9--9--9/10-10---10/12--14~-----------------------------|
D|-------------------------------------------------------------------------------|
A|-------------------------------------------------------------------------------|
E|-------------------------------------------------------------------------------|


Guitar 2
E|--8----8-8--/10----------------------------------------------------------------|
B|------------------13\8--8--8/10-10---10-12--13~---12-12-12-13--15~---13~-------|
G|-------------------------------------------------------------------------------|
D|-------------------------------------------------------------------------------|
A|-------------------------------------------------------------------------------|
E|-------------------------------------------------------------------------------|


Guitar 3
(Rythym to Bridge II)
  Am               C               Csus4           C
E|---------0-------------0-----------------1-------------0---------|
B|-----1-----1---------1---------------1-----1---------1-----------|
G|---2---2-----------0---------------0---0-----0-----0-------------|
D|---------------------------0-2---3-------------3-2---------0-----|
A|-0---------------3-------------------------------------------3-2-|
E|-----------------------------------------------------------------|
                               X2




VERSE II


Guitars 1 & 2
   Am              C               Csus4           C
E|---------0-------------0-----------------1-------------0---------|
B|-----1---------------1---------------1-----1---------1-----------|
G|---2---2-----------0---------------0---0-----0-----0-------------|
D|---------------------------0-2---3-------------3-2---------0-----|
A|-0---------------3-------------------------------------------3-2-|
E|-----------------------------------------------------------------|


   Am              C               Csus4           C
E|---------0-------------0-----------------1-------------0---------|
B|-----1-----1---------1---------------1-----1---------1-----------|
G|---2---------------0---------------0---0-----0-----0-------------|
D|---------------------------0-2---3-------------3-2---------0-----|
A|-0---------------3-------------------------------------------3-2-|
E|-----------------------------------------------------------------|


(During violins and cellos)

   Am              C               Csus4           C
E|-----------------------0-----------------1-------------0---------|
B|-----1---------------1---------------1-----1---------1-----------|
G|---2---------------0---------------0---0-----0-----0-------------|
D|---------------------------0-2---3-------------3-2---------0-----|
A|-0---------------3-------------------------------------------3-2-|
E|-----------------------------------------------------------------|


   Am              C               Csus4           C
E|-----------------------0-----------------1-------------0---------|
B|-----1---------------1---------------1-----1---------1-----------|
G|---2---------------0---------------0---0-----0-----0-------------|
D|---------------------------0-2---3-------------3-2---------0-----|
A|-0---------------3-------------------------------------------3-2-|
E|-----------------------------------------------------------------|



Guitar 1
E|-------------------------------------------------------------------------------|
B|-<15~-----13~-----12~-----\8---10---12---13--/15~-----13~-----12~----/17~------|
G|-------------------------------------------------------------------------------|
D|-------------------------------------------------------------------------------|
A|-------------------------------------------------------------------------------|
E|-------------------------------------------------------------------------------|


Guitar 2
E|-<13~-----12~-----10~-----\7---8---10---12--/13~-----12~----/15~-----16~-------|
B|-------------------------------------------------------------------------------|
G|-------------------------------------------------------------------------------|
D|-------------------------------------------------------------------------------|
A|-------------------------------------------------------------------------------|
E|-------------------------------------------------------------------------------|


Guitar 3
   Dm              C               G                         
E|---------1---------------0---------------3-------------3---------|
B|-----------3---------1---------------3-------3-------3-----------|
G|-----2-------2-----0---0-----------0---0-----------0-------------|
D|-3-----3-------3-2---------------0---------------0---------------|
A|-----------------------------------------------------------0-2-3-|
E|-----------------------------------------------------------------|


   Dm              G                               E
E|---------1---------------3---------------3---------------5---7---|
B|-----3-------3-------3-----3---------3-----3---------0-----------|
G|---2---------------0---------0-----0---3-----0---1-----1---------|
D|-0---------------0---------------0-------------0---2-------------|
A|-----------------------------------------------------------------|
E|-----------------------------------------------------------------|





1ST CHORUS II


Guitar 1
E|--------------------------------------------------|
B|--------------------------------------------------|
G|--------------------------------------------------|
D|--------------------------------------------------|
A|-7-----7-7---2---3-----3-3---3---2-2-2-3~--5~---5-|
E|-5-----5-5---0---1-----1-1---1--------------------|


Guitar 2
E|--------------------------------------------------|
B|--------------------------------------------------|
G|--------------------------------------------------|
D|--------------------------------------------------|
A|-7-----7-7---2---3-----3-3---3--------------------|
E|-5-----5-5---0---1-----1-1---1---4-4-4-5~--7~---7-|




Guitar 1
E|------------------------------------------------------------------------|
B|------------------------------------------------------------------------|
G|------------------------------------------------------------------------|
D|------------------------------------------------999----7----10----9-----|
A|-7-----7-7---2---3-----3-3---3---2-2-2-3~--5~---777--555--888---777--77-|
E|-5-----5-5---0---1-----1-1---1------------------------------------------|
                                                       ..   ..    ..   ..

Guitar 2
E|------------------------------------------------------------------------|
B|------------------------------------------------------------------------|
G|------------------------------------------------------------------------|
D|------------------------------------------------999----7----10----9-----|
A|-7-----7-7---2---3-----3-3---3------------------777--555--888---777--77-|
E|-5-----5-5---0---1-----1-1---1---4-4-4-5~--7~---------------------------|
                                                       ..   ..    ..   ..



Guitar 1
E|--------------------------------------------------|
B|--------------------------------------------------|
G|--------------------------------------------------|
D|--------------------------------------------------|
A|-7-----7-7---2---3-----3-3---3---2-2-2-3~--5~---5-|
E|-5-----5-5---0---1-----1-1---1--------------------|


Guitar 2
E|--------------------------------------------------|
B|--------------------------------------------------|
G|--------------------------------------------------|
D|--------------------------------------------------|
A|-7-----7-7---2---3-----3-3---3--------------------|
E|-5-----5-5---0---1-----1-1---1---4-4-4-5~--7~---7-|




Guitar 1
E|--------------------------------------------------|
B|--------------------------------------------------|
G|--------------------------------------------------|
D|--------------------------------------------------|
A|-7-----7-7---2---3-----3-3---3---2-2-2-3~--5~-----|
E|-5-----5-5---0---1-----1-1---1------------------0-|
                                                  .

Guitar 2
E|--------------------------------------------------|
B|--------------------------------------------------|
G|--------------------------------------------------|
D|--------------------------------------------------|
A|-7-----7-7---2---3-----3-3---3--------------------|
E|-5-----5-5---0---1-----1-1---1---4-4-4-5~--7~---0-|
                                                  .



Guitars 1 & 2
E|---------------------------------------------------------|
B|---------------------------------------------------------|
G|---------------------------------------------------------|
D|-9---------------999---------------9----7----10----9-----|
A|-7---------------777---------------7--555--888---777--77-|
E|---------------------------------------------------------|
                                        ..   ..    ..   ..



E|---------------------------------------------------------|
B|---------------------------------------------------------|
G|---------------------------------------------------------|
D|-9---------------999---------------9----7----10----9-----|
A|-7---------------777---------------7--555--888---777--77-|
E|---------------------------------------------------------|
                                        ..   ..    ..   ..




INTERLUDE
(Rythym at the bottom of Interlude)


Guitar 1
E|-------------------------------------------------------------------------------|
B|-/10---10-10--h12-12/13-13\8-8-8--\5-5/10-10\6-6-6---5~----/8-8-8-10--/12~-----|
G|-------------------------------------------------------------------------------|
D|-------------------------------------------------------------------------------|
A|-------------------------------------------------------------------------------|
E|-------------------------------------------------------------------------------|


Guitar 2
E|-/8---8-8--h10-10/12-12\8-8-8--\3-3/10-10\5-5-5---3~----/7-7-7-8--/10~-----|
B|---------------------------------------------------------------------------|
G|---------------------------------------------------------------------------|
D|---------------------------------------------------------------------------|
A|---------------------------------------------------------------------------|
E|---------------------------------------------------------------------------|



Guitar 1
E|--------------------------------------------------------------------------------|
B|-/10---10-10--h12-12/13-13\8-8-8--\5-5/10-10\6-6-6--/10~----/9-9-9-10--/12~-----|
G|--------------------------------------------------------------------------------|
D|--------------------------------------------------------------------------------|
A|--------------------------------------------------------------------------------|
E|--------------------------------------------------------------------------------|


Guitar 2
E|-/8---8-8--h10-10/12-12\8-8-8--\3-3/10-10\5-5-5--/10~----/7-7-7-8--/10~-----|
B|----------------------------------------------------------------------------|
G|----------------------------------------------------------------------------|
D|----------------------------------------------------------------------------|
A|----------------------------------------------------------------------------|
E|----------------------------------------------------------------------------|




Guitar 1
E|-12p8----12p8----12p8----12p8----12p8------12p8---12p8---12p8---12p8---12p8-----|
B|------10------10------10------10------10--------8------8------8------8------8---|
G|-----------------------------------------9------------------------------------9-|
D|--------------------------------------------------------------------------------|
A|--------------------------------------------------------------------------------|
E|--------------------------------------------------------------------------------|


Guitar 2
E|-17p12----17p12----17p12----17p12----17p12-------15p12----15p12----15p12----15p12----15p12-------|
B|-------13-------13-------13-------13-------13----------13-------13-------13-------13-------13----|
G|----------------------------------------------14----------------------------------------------12-|
D|-------------------------------------------------------------------------------------------------|
A|-------------------------------------------------------------------------------------------------|
E|-------------------------------------------------------------------------------------------------|



Guitar 1
E|-13p10----13p10----13p10----13p10----13p10-------12p8---12p8---12p8---12p8---12p8-----|
B|-------10-------10-------10-------10-------10---------8------8------8------8------8---|
G|----------------------------------------------10------------------------------------9-|
D|--------------------------------------------------------------------------------------|
A|--------------------------------------------------------------------------------------|
E|--------------------------------------------------------------------------------------|


Guitar 2
E|-17p13----17p13----17p13----17p13----17p13-------15p12----15p12----15p12----15p12----15p12-------|
B|-------15-------15-------15-------15-------15----------13-------13-------13-------13-------13----|
G|----------------------------------------------14----------------------------------------------12-|
D|-------------------------------------------------------------------------------------------------|
A|-------------------------------------------------------------------------------------------------|
E|-------------------------------------------------------------------------------------------------|



Guitar 1
E|-12p8----12p8----12p8----12p8----12p8------12p8---12p8---12p8---12p8---12p8-----|
B|------10------10------10------10------10--------8------8------8------8------8---|
G|-----------------------------------------9------------------------------------9-|
D|--------------------------------------------------------------------------------|
A|--------------------------------------------------------------------------------|
E|--------------------------------------------------------------------------------|


Guitar 2
E|-17p12----17p12----17p12----17p12----17p12-------15p12----15p12----15p12----15p12----15p12-------|
B|-------13-------13-------13-------13-------13----------13-------13-------13-------13-------13----|
G|----------------------------------------------14----------------------------------------------12-|
D|-------------------------------------------------------------------------------------------------|
A|-------------------------------------------------------------------------------------------------|
E|-------------------------------------------------------------------------------------------------|



Guitar 1
E|-13p10----13p10----13p10----13p10----13p10-------|
B|-------10-------10-------10-------10-------10----|
G|----------------------------------------------10-|
D|-------------------------------------------------|
A|-------------------------------------------------|
E|-------------------------------------------------|


Guitar 2
E|-17p13----17p13----17p13----17p13----17p13-------|
B|-------15-------15-------15-------15-------15----|
G|----------------------------------------------14-|
D|-------------------------------------------------|
A|-------------------------------------------------|
E|-------------------------------------------------|



Guitar 1                              |--------3--------|
E|-12-13-12-11-12-13-12-11-16-17-16-15----------12-13-15/17~---|
B|-------------------------------------13-14-15----------------|
G|-------------------------------------------------------------|
D|-------------------------------------------------------------|
A|-------------------------------------------------------------|
D|-------------------------------------------------------------|


Guitar 2                              |--------3--------|
E|-16-17-16-15-16-17-16-15-19-20-19-18----------13-14-16/22~---|
B|-------------------------------------13-14-15----------------|
G|-------------------------------------------------------------|
D|-------------------------------------------------------------|
A|-------------------------------------------------------------|
D|-------------------------------------------------------------|



Guitar 3
E|-----------------------------------------------------------------|----------|
B|-----------------------------------------------------------------|          |
G|-----------------------------------------------------------------|          |
D|-----------------5-----5-----5-7-7-----7-----7\------------------|          |
A|-7-----7-----5---3-3-3-3-3-3-3/5-5-5-5-5-5-5-5\--5---------------|          |
E|-5-5-5-5-5-5-7-7---------------------------------3-3-3-3---5-7~--|          |
     . .   . .   .   . .   . .       . .   . .       . .                      |
                                                                              |
Guitar 3                                                                      X2
E|-----------------------------------------------------------------------|    |
B|-----------------------------------------------------------------------|    |
G|-----------------------------------------------------------------------|    |
D|-----------------5-----5-----5-7-7-----7-----7---9----7----10----9-----|    |
A|-7-----7-----5---3-3-3-3-3-3-3/5-5-5-5-5-5-5-5-777--555--888---777-----|    |
E|-5-5-5-5-5-5-7-7----------------------------------------------------00-|    |
     . .   . .   .   . .   . .       . .   . .   ..   ..   ..    ..   ..______|




SOLO I


Guitar 1
E|-5======/8======/12===/17============\8======/13======/17===\16============\|
B|----------------------------------------------------------------------------|
G|----------------------------------------------------------------------------|
D|----------------------------------------------------------------------------|
A|----------------------------------------------------------------------------|
E|----------------------------------------------------------------------------|



E|-5======/8======/12===/17===========/19======/20======\19===\11=============|
B|----------------------------------------------------------------------------|
G|----------------------------------------------------------------------------|
D|----------------------------------------------------------------------------|
A|----------------------------------------------------------------------------|
E|----------------------------------------------------------------------------|



E|-17p12----------12-19p12-17p12----------12-19p12-17p12----------12-17p12-16p12----------12-16p12-|
B|-------13----13----------------13----13----------------13----13----------------13----13----------|
G|----------14----------------------14----------------------14----------------------13-------------|
D|-------------------------------------------------------------------------------------------------|
A|-------------------------------------------------------------------------------------------------|
E|-------------------------------------------------------------------------------------------------|



E|-5======/8======/12===/17========\12========/13====\11====/12===\7====/8====\4===5~-----|
B|----------------------------------------------------------------------------------------|
G|----------------------------------------------------------------------------------------|
D|----------------------------------------------------------------------------------------|
A|----------------------------------------------------------------------------------------|
E|----------------------------------------------------------------------------------------|



E|----------------8-10-11b~------------------------12-15b~---|
B|-----------8-10-------------------------13-15-16-----------|
G|-------8-9------------------------12-14--------------------|
D|----10----------------------13-14--------------------------|
A|-12--------------------------------------------------------|
E|-----------------------------------------------------------|



E|----------------------17-19b20r19---17--------------------------------------8/|
B|-------------17-19-20-------------------20b22--20-18-17-----------------------|
G|----17-19-20--------------------------------------------19-17~---17-19-17~----|
D|-19---------------------------------------------------------------------------|
A|------------------------------------------------------------------------------|
E|------------------------------------------------------------------------------|



E|-12p8-----------------------8-12-13p8----------------------------13-16b~-------|
B|------10-----------------10-----------10----------------------13---------------|
G|---------9-------------9-----------------10----------------14------------------|
D|-----------10-------10----------------------10----------15---------------------|
A|--------------11-12----------------------------10-12/15------------------------|
E|-------------------------------------------------------------------------------|



(Rythym for Solo)

Guitar 2
E|-----------------------------------------------------------------|
B|-----------------------------------------------------------------|
G|-----------------------------------------------------------------|
D|-----------------------------------------------------------------|
A|-7-----7-----2---3-----3-----6---7-----7-----2---3-----3-----6---|
E|-5-55555-55550-001-11111-11114-445-55555-55550-001-11111-11114-44|
     ....  ....  ..  ....  ....  ..  ....  ....  ..  ....  ....  ..


E|-----------------------------------------------------------------|
B|-----------------------------------------------------------------|
G|-----------------------------------------------------------------|
D|-----------------------------------------------------------------|
A|-7-----7-----2---3-----3-----6---7-----7-----2---3-----3-----6---|
E|-5-55555-55550-001-11111-11114-445-55555-55550-001-11111-11114-44|
     ....  ....  ..  ....  ....  ..  ....  ....  ..  ....  ....  ..


E|------------------------------------------------------------------------|
B|------------------------------------------------------------------------|
G|------------------------------------------------------------------------|
D|------------------------------------------------------------------------|
A|-7-----7-----7---6-----6-----6---5-----5-----5---4---4---4--4---4---4---|
E|-5-55555-55555-554-44444-44444-443-33333-33333-332---2---2--2---2---2---|
     ....  ....  ..  ....  ....  ..  ....  ....  ..


E|---------------------------------------------------------------------|
B|---------------------------------------------------------------------|
G|---------------------------------------------------------------------|
D|----------------999----7----10----9----------------------------------|
A|-3--------------777--555--888---777--777-----------------------------|
E|-1-------------------------------------5-----------------------------|
                       ..   ..    ..   ..




BREAKDOWN


Guitars 1 and 2
E|-----------------------------------------------------------------|
B|-----------------------------------------------------------------|
G|-----------------------------------------------------------------|
D|-2-----------2---2-----------2---2-----------2---2-----------2---|
A|-2-----2-----2---2-----2-----2---2-----2-----2---2-----2-----2---|
E|-0-0-0-0-0-0-0-0-0-0-0-0-0-0-0-0-0-0-0-0-0-0-0-0-0-0-0-0-0-0-0-0-|
     . .   . .   .   . .   . .   .   . .   . .   .   . .   . .   .



Guitar 1
E|-----------------------------------------------------------------|
B|-----------------------------------------------------------------|
G|-----------------------------------------------------------------|
D|-2-----------2---2-----------2---2-----------2-------------------|
A|-2-----2-----2---2-----2-----2---2-----2-----2-------------------|
E|-0-0-0-0-0-0-0-0-0-0-0-0-0-0-0-0-0-0-0-0-0-0-0-0-3-3-3-2---1~----|
     . .   . .   .   . .   . .   .   . .   . .   .

Guitar 2
E|-----------------------------------------------------------------|
B|-----------------------------------------------------------------|
G|-----------------------------------------------------------------|
D|-2-----------2---2-----------2---2-----------2-------------------|
A|-2-----2-----2---2-----2-----2---2-----2-----2-------------------|
E|-0-0-0-0-0-0-0-0-0-0-0-0-0-0-0-0-0-0-0-0-0-0-0-0-7-7-7-6---5~----|
     . .   . .   .   . .   . .   .   . .   . .   .



Guitar 1
E|-----------------------------------------------------------------|
B|-----------------------------------------------------------------|
G|-----------------------------------------------------------------|
D|-2-----------2---2-----------2---2-----------2-------------------|
A|-2-----2-----2---2-----2-----2---2-----2-----2-------------------|
E|-0-0-0-0-0-0-0-0-0-0-0-0-0-0-0-0-0-0-0-0-0-0-0-0-3-3-3-2---1~----|
     . .   . .   .   . .   . .   .   . .   . .   .

Guitar 2
E|-----------------------------------------------------------------|
B|-----------------------------------------------------------------|
G|-----------------------------------------------------------------|
D|-2-----------2---2-----------2---2-----------2-------------------|
A|-2-----2-----2---2-----2-----2---2-----2-----2-------------------|
E|-0-0-0-0-0-0-0-0-0-0-0-0-0-0-0-0-0-0-0-0-0-0-0-0-7-7-7-6---5~----|
     . .   . .   .   . .   . .   .   . .   . .   .



Guitar 1
E|-----------------------------------------------------------------|
B|-----------------------------------------------------------------|
G|-----------------------------------------------------------------|
D|-2-----------2---2-----------2---2-----------2-------------------|
A|-2-----2-----2---2-----2-----2---2-----2-----2-------------------|
E|-0-0-0-0-0-0-0-0-0-0-0-0-0-0-0-0-0-0-0-0-0-0-0-0-3-3-3-2---1~----|
     . .   . .   .   . .   . .   .   . .   . .   .

Guitar 2
E|-----------------------------------------------------------------|
B|-----------------------------------------------------------------|
G|-----------------------------------------------------------------|
D|-2-----------2---2-----------2---2-----------2-------------------|
A|-2-----2-----2---2-----2-----2---2-----2-----2-------------------|
E|-0-0-0-0-0-0-0-0-0-0-0-0-0-0-0-0-0-0-0-0-0-0-0-0-7-7-7-6---5~----|
     . .   . .   .   . .   . .   .   . .   . .   .



Guitar 1
E|-----------------------------------------------------------------|
B|-----------------------------------------------------------------|
G|-----------------------------------------------------------------|
D|-----------------------------------------------------------------|
A|-----------------------------------------------------------------|
E|-4-4-4-5---7~----5-5-5-7---8~----4-4-4-5---7~----5-5-5-7---8~----|


Guitar 2
E|-----------------------------------------------------------------|
B|-----------------------------------------------------------------|
G|-----------------------------------------------------------------|
D|-----------------------------------------------------------------|
A|-2-2-2-3---5~----3-3-3-5---7~----2-2-2-3---5~----3-3-3-5---7~----|
E|-----------------------------------------------------------------|




Guitar 1
E|-----------------------------------------------------------------|
B|-----------------------------------------------------------------|
G|-----------------------------------------------------------------|
D|-2-----------2---2-----------2---2-----------2-------------------|
A|-2-----2-----2---2-----2-----2---2-----2-----2-------------------|
E|-0-0-0-0-0-0-0-0-0-0-0-0-0-0-0-0-0-0-0-0-0-0-0-0-3-3-3-2---1~----|
     . .   . .   .   . .   . .   .   . .   . .   .

Guitar 2
E|-----------------------------------------------------------------|
B|-----------------------------------------------------------------|
G|-----------------------------------------------------------------|
D|-2-----------2---2-----------2---2-----------2-------------------|
A|-2-----2-----2---2-----2-----2---2-----2-----2-------------------|
E|-0-0-0-0-0-0-0-0-0-0-0-0-0-0-0-0-0-0-0-0-0-0-0-0-7-7-7-6---5~----|
     . .   . .   .   . .   . .   .   . .   . .   .



Guitar 1
E|-----------------------------------------------------------------|
B|-----------------------------------------------------------------|
G|-----------------------------------------------------------------|
D|-2-----------2---2-----------2---2-----------2-------------------|
A|-2-----2-----2---2-----2-----2---2-----2-----2-------------------|
E|-0-0-0-0-0-0-0-0-0-0-0-0-0-0-0-0-0-0-0-0-0-0-0-0-3-3-3-2---1~----|
     . .   . .   .   . .   . .   .   . .   . .   .

Guitar 2
E|-----------------------------------------------------------------|
B|-----------------------------------------------------------------|
G|-----------------------------------------------------------------|
D|-2-----------2---2-----------2---2-----------2-------------------|
A|-2-----2-----2---2-----2-----2---2-----2-----2-------------------|
E|-0-0-0-0-0-0-0-0-0-0-0-0-0-0-0-0-0-0-0-0-0-0-0-0-7-7-7-6---5~----|
     . .   . .   .   . .   . .   .   . .   . .   .



Guitar 1
E|-----------------------------------------------------------------|
B|-----------------------------------------------------------------|
G|-----------------------------------------------------------------|
D|-----------------------------------------------------------------|
A|-----------------------------------------------------------------|
E|-4-4-4-5---7~----5-5-5-7---8~----4-4-4-5---7~----5-5-5-7---8~----|


Guitar 2
E|-----------------------------------------------------------------|
B|-----------------------------------------------------------------|
G|-----------------------------------------------------------------|
D|-----------------------------------------------------------------|
A|-2-2-2-3---5~----3-3-3-5---7~----2-2-2-3---5~----3-3-3-5---7~----|
E|-----------------------------------------------------------------|




SOLO II


Guitar 1
E|----------------------------------------------------|
B|-15b17~-----15b17-15-13-----------------------------|
G|------------------------15-14-12----14----12~-------|
D|---------------------------------14----14------14\--|
A|----------------------------------------------------|
E|----------------------------------------------------|



E|-------------------12-17-15-12-12----------------17-15-12-12-------18-15---------------------|
B|-------------12-15----------------15-12----------------------15-12-------17-17-15----15~-----|
G|-------12-15----------------------------15-14-12----------------------------------16---------|
D|-12-14---------------------------------------------------------------------------------------|
A|---------------------------------------------------------------------------------------------|
E|---------------------------------------------------------------------------------------------|



Guitar 1
E|-----------19-18-------17-15~----------------------------------|
B|-/17----17-------17--------------------------------------------|
G|-----16-------------16-----------14-12-14-12-------14-13-12~---|
D|---------------------------------------------14-12-------------|
A|---------------------------------------------------------------|
E|---------------------------------------------------------------|


Guitar 2
E|-----------15-14-------13-12~----------------------------------|
B|-/12----12-------12--------------------------------------------|
G|-----12-------------12-----------14-12-14-12-------14-13-12~---|
D|---------------------------------------------14-12-------------|
A|---------------------------------------------------------------|
E|---------------------------------------------------------------|




Guitar 1
E|-----------19-18-------17-15~----18b---18b19~--------|
B|-/17----17-------17----------------------------------|
G|-----16-------------16-------------------------------|
D|-----------------------------------------------------|
A|-----------------------------------------------------|
E|-----------------------------------------------------|


Guitar 2
E|-----------15-14-------13-12~----14b---14b15~--------|
B|-/12----12-------12----------------------------------|
G|-----12-------------12-------------------------------|
D|-----------------------------------------------------|
A|-----------------------------------------------------|
E|-----------------------------------------------------|




Guitar 3
E|-----------------------------------------------------------------|
B|-----------------------------------------------------------------|
G|-----------------------------------------------------------------|
D|-2-----------2---2-----------2---2-----------2---2-----------2---|
A|-2-----2-----2---2-----2-----2---2-----2-----2---2-----2-----2---|
E|-0-0-0-0-0-0-0-0-0-0-0-0-0-0-0-0-0-0-0-0-0-0-0-0-0-0-0-0-0-0-0-0-|
     . .   . .   .   . .   . .   .   . .   . .   .   . .   . .   .
                                X2




2ND CHORUS I


Guitars 1 and 2
E|-----------------------------------------------|
B|-----------------------------------------------|
G|-----------------------------------------------|
D|-----------------------------------------------|
A|-2-----5-4-----3-2-----------------------------|
E|-0-----3-2-----1-0-----0-0-0---0-0-0---0-0-0---|
                         . . .   . . .   . . .
                      X4


Guitars 1 and 2
E|-----------------------------------------------|-----|
B|-----------------------------------------------|     |
G|-----------------------------------------------|     |
D|-----------------------------------------------|     |
A|-----------------------------------------------|     |
E|-3~----7-6~----5-3~\---0-0-0-0-0-0-0-0-0-0-0-0-|     |
                         . . . . . . . . . . . .       |
                                                       |
Guitar 3                                              X4
E|-----------------------------------------------|     |
B|-----------------------------------------------|     |
G|-----------------------------------------------|     |
D|-----------------------------------------------|     |
A|-2-----5-4-----3-2-----------------------------|     |
E|-0-----3-2-----1-0-----0-0-0-0-0-0-0-0-0-0-0-0-|     |
                         . . . . . . . . . . . ._______|



Guitars 1 and 2
E|-----------------------------------------------|
B|-----------------------------------------------|
G|-----------------------------------------------|
D|-----------------------------------------------|
A|-----------------------------------------------|
E|-3~----7-6~----5-3~\---0-0-0---0-0-0---0-0-0---|
                         . . .   . . .   . . .

Guitar 3
E|-----------------------------------------------|
B|-----------------------------------------------|
G|-----------------------------------------------|
D|-----------------------------------------------|
A|-2-----5-4-----3-2-----------------------------|
E|-0-----3-2-----1-0-----0-0-0---0-0-0---0-0-0---|
                         . . .   . . .   . . .


Guitars 1 and 2
E|-----------------------------------|
B|-----------------------------------|
G|-----------------------------------|
D|-----------------------------------|
A|-----------------------------------|
E|-3~----7-6~----5-3~\---------------|


Guitar 3
E|-----------------------------------|
B|-----------------------------------|
G|-----------------------------------|
D|-----------------------------------|
A|-2-----5-4-----3-2-----------------|
E|-0-----3-2-----1-0-----------------|
comments
print report bad tab
11 comments total. Showing first comments.
0 reply
Guitar Skater wrote on November 25 2010, 12:29 pm

Should be this

Guitar 1 ****
E|-------8--------10p8----8---------7--------------------|
B|-/10-------10--------10-------8-------8---10----8/10---|
G|-------------------------------------------------------|
D|-------------------------------------------------------|
A|---0--------------------------7------------------------|
E|---------------------------8---------------------------|

0 reply
Jon_09 wrote on November 27 2010, 09:20 pm

yeah, u r right. thx, i didnt realize that. im gonna change it.

0 reply
avsHRSHES wrote on April 12 2011, 12:12 am

Great tab man! not trying to be a snob or say im better but i think on the intro it should be

B-------5-5
G----------2t5/
D-/5-4
A
E-/5-3--1
the only thing i changed was where you tap and slide if you listen carefully you can hear it or watch live. Still amazing job man :)

I want to post or [tab]
guest
You may want to rate the tab now too:
select rating
Please do not post tabs as comments. Select "correction" instead!