Oops, an error
Loading. Please wait.

Carry On Tab

ver1
ver1

Whole song

Interactive

More versions @911Tabs.com
107,339 views 488 this week
6 commentsread comments
1 2 3 4 5
excellent!
x 27
Autoscroll
+/-
esc
set tempo
stop
Contributor
Difficulty
Tuning
intermediate
D A D G B E
Hey! There's an official Ultimate Guitar app which is ideal
for learning songs when you're away from computer. Get the app
WARNING: You are trying to view
                                    content from Ultimate-Guitar.com
                                    in an unauthorized application,
                                    which is prohibited.

                                    Please use an official Ultimate
                                    Guitar Tabs application for iPhone,
                                    iPad or Android to access legitimate
                                    chords, guitar, bass, and drum tabs
                                    from Ultimate-Guitar.com database.

                                    Type "ultimate guitar tabs" in Apple
                                    App Store's or Android Market's
                                    search to find the application.
Tabbed by: Joshua Garcia (joshuag523@aol.com)

Tabs for the song: Carry On by Avenged Sevenfold
Please rate and let me know if you have any corrections. Thank you.


Tuning: Drop D (D A D G B E)


Intro
Guitar 1 (Left):
E||----------------|---------------------|--------12-13-13~---15/17-17~--|
B||--------6-5-6~--|--8~---/13-\8-/-10~--|--15~--------------------------|
G||--/7~-----------|---------------------|-------------------------------|
D||----------------|---------------------|-------------------------------|
A||----------------|---------------------|-------------------------------|
D||----------------|---------------------|-------------------------------|


Guitar 2 (Right):
E||-----------------|--------------------|--6~---8-10----------8-9~--|
B||--/6~--10-8-10~--|-/5~---/10-\5-/-6~--|------------10~---11-------|
G||-----------------|--------------------|---------------------------|
D||-----------------|--------------------|---------------------------|
A||-----------------|--------------------|---------------------------|
D||-----------------|--------------------|---------------------------|


Guitar 3:
E||---------------|---------------|------------------------|
B||---------------|---------------|------------------------|
G||---------------|--5~-----------|--3~---3-3----------2~--|
D||--0~---0-2-3~--|--5~---3-2-0~--|--3~---3-3-3~---3-3-2~--|
A||--0~---0-2-3~--|--3~---3-2-0~--|--1~---1-1-3~---3-3-0~--|
D||--0~---0-2-3~--|-------3-2-0~--|-----------3~---3-3-----|



Pre-Verse
Guitar 1/2:
E||------------|
B||------------|
G||------------|
D||--pick------|
A||-----slide--|
D||------------|


Guitar 3:
E||------------------------------------|
B||------------------------------------|
G||------------------------------------|
D||--0----------------------------2-3--| x2
A||--0----------------------------2-3--|
D||--0-00000000000000000000000000-2-3--|
       ..........................



Guitar 1:
E||--17-13----------13-16-13----------13-15-13----------13-12~--|
B||--------15----15----------15----15----------15----14---------|
G||-----------14----------------14----------------14------------|
D||-------------------------------------------------------------|
A||-------------------------------------------------------------|
D||-------------------------------------------------------------|


E||--13-10----------10-12-10----------10------------------------|
B||--------10----10----------10----10----13-10----------10------|
G||-----------10----------------10-------------10----10----13~--|
D||-----------------------------------------------12------------|
A||-------------------------------------------------------------|
D||-------------------------------------------------------------|


E||--------------13-16-17-13-----------------------------------|
B||-----------15-------------15----17-15----15-14--------------|
G||--------14-------------------14-------14-------14-17-14-----|
D||-----15-------------------------------------------------15--|
A||--17--------------------------------------------------------|
D||------------------------------------------------------------|


E||-----------------------------------15-17----------|
B||-----------------------14-15-17-18----------------|
G||-----------------14-15----------------------------|
D||--------14-15-17--------------------------('3~w)--|
A||--16-17-------------------------------------------|
D||--------------------------------------------------|


Guitar 2:
E||------------------------------------|------------------------------|
B||------------------------------------|------------------------------|
G||------------------------------------|------------------------------|
D||--0----------------------------2-3--|--0------------------------0--|
A||--0----------------------------2-3--|--0------------------------0--|
D||--0-00000000000000000000000000-2-3--|--0-0000000000000000000000-0--|
       ..........................           ......................



Verse
Guitar 1/2:
E||-------------------------------------|
B||-------------------------------------|
G||-------------------------------------|
D||--2-------2---2---2-2-------2--4--5--| x2
A||--2-------2---2---2-2-------2--4--5--|
D||--2-2222222--22--22-2-2222222--4--5--|
       ......   .   .    ......


Guitar 1:
E||--------------------------|
B||-------'7~---'5~----------|
G||--'5~------------'3~---w--|
D||--------------------------|
A||--------------------------|
D||--------------------------|


Guitar 2:
E||-----------------------------------|
B||-----------------------------------|
G||-----------------------------------|
D||--0-0--00-0-0--00-0-0--00-0--5--0--|
A||--0-0--00-0-0--00-0-0--00-0--5--0--|
D||--0-0--00-0-0--00-0-0--00-0--5--0--|


Guitar 1/2:
E||----------------------------------------|
B||----------------------------------------|
G||----------------------------------------|
D||--2--------2---2---2--2--------2--4--5--| x2
A||--2--------2---2---2--2--------2--4--5--|
D||--2-222222-2--22--22--2-222222-2--4--5--|
       ......    .   .     ......


Guitar 1:
E||-----------------------------------|
B||-----------------------------------|
G||-----------------------------------|
D||--0-0--00-0-0--00-0-0--00-0--5--0--|
A||--0-0--00-0-0--00-0-0--00-0--5--0--|
D||--0-0--00-0-0--00-0-0--00-0--5--0--|


Guitar 2:
E||-------------------|
B||------'7~----'7w~--|
G||----'7-------------|
D||--'7---------------|
A||-------------------|
D||-------------------|



Pre-Chorus
Guitar 1:
E||-----------------------|-----------------------9-10-12-13--|
B||--10~-----10h11p10-9~--|------------------9-10-------------|
G||-----------------------|--12~-----9-10-12------------------|
D||-----------------------|-----------------------------------|
A||-----------------------|-----------------------------------|
D||-----------------------|-----------------------------------|


Guitar 2:
E||-----------------------|-----------------9-10-12-13-12-10--|
B||-----------------------|------------9-10-------------------|
G||--10~-----10h12p10-9~--|--8~-----10------------------------|
D||-----------------------|-----------------------------------|
A||-----------------------|-----------------------------------|
D||-----------------------|-----------------------------------|


Guitar 3:
E||---------------------------------------------------------------|
B||---------------------------------------------------------------|
G||---------------------------------------------------------------|
D||--0-0--00-0-0--00-2-2--22-2-2--22-5-5--55-5-5--55-0---0---0-0--|
A||--0-0--00-0-0--00-2-2--22-2-2--22-5-5--55-5-5--55-0---0---0-0--|
D||--0-0--00-0-0--00-2-2--22-2-2--22-5-5--55-5-5--55-0---0---0-0--|



Chorus
Guitar 1:
E||--10~-----13~---15-17-12~--|--13~----15-17-18~---17-15-17-13---15-17~--|--9~--10~--|
B||---------------------------|-------------------------------------------|-----------|
G||---------------------------|-------------------------------------------|-----------|
D||---------------------------|-------------------------------------------|-----------|
A||---------------------------|-------------------------------------------|-----------|
D||---------------------------|-------------------------------------------|-----------|


E||--12~-----15~---17-19-14~--|--15~----17-19-20-15----20-19-15----15-19~--|
B||---------------------------|---------------------17----------15---------|
G||---------------------------|--------------------------------------------|
D||---------------------------|--------------------------------------------|
A||---------------------------|--------------------------------------------|
D||---------------------------|--------------------------------------------|


Guitar 2:
E||--13~-----17~---18-20-15~--|--17~----18-20-22~---20-18-20-17---18-21~--|--12~--13~--|
B||---------------------------|-------------------------------------------|------------|
G||---------------------------|-------------------------------------------|------------|
D||---------------------------|-------------------------------------------|------------|
A||---------------------------|-------------------------------------------|------------|
D||---------------------------|-------------------------------------------|------------|


E||--15~-----19~---20-22-17~--|--19~----20-22-24-20----24-22-19----19-23~--|
B||---------------------------|---------------------20----------19---------|
G||---------------------------|--------------------------------------------|
D||---------------------------|--------------------------------------------|
A||---------------------------|--------------------------------------------|
D||---------------------------|--------------------------------------------|


Guitar 3:
E||-------------------------------------------------------------------|
B||-------------------------------------------------------------------|
G||----------------------------------5-5--55-5-5--55------------------|
D||--0-0--00-0-0--00-3-3--33-3-3--33-5-5--55-5-5--55-0-0--00-0-0--00--|
A||--0-0--00-0-0--00-3-3--33-3-3--33-3-3--33-3-3--33-0-0--00-0-0--00--|
D||--0-0--00-0-0--00-3-3--33-3-3--33-----------------0-0--00-0-0--00--|


E||-------------------------------------------------------------------|
B||-------------------------------------------------------------------|
G||--3-3--33-3-3--33-----------------2-2--22-2-2--22-2-2--22-2-2--22--|
D||--3-3--33-3-3--33-3-3--33-3-3--33-2-2--22-2-2--22-2-2--22-2-2--22--|
A||--1-1--11-1-1--11-3-3--33-3-3--33-0-0--00-0-0--00-0-0--00-0-0--00--|
D||------------------3-3--33-3-3--33----------------------------------|


E||-------------------------------------------------------------------|
B||-------------------------------------------------------------------|
G||----------------------------------5-5--77-7-7--77------------------|
D||--2-2--22-2-2--22-5-5--55-5-5--55-5-5--77-7-7--77-2-2--22-2-2--22--|
A||--2-2--22-2-2--22-5-5--55-5-5--55-5-5--55-5-5--55-2-2--22-2-2--22--|
D||--2-2--22-2-2--22-5-5--55-5-5--55-----------------2-2--22-2-2--22--|


E||-------------------------------------------------------------------|
B||-------------------------------------------------------------------|
G||--5-5--55-5-5--55-----------------4-4--44-4-4--44-4-4--44-4-4--44--|
D||--5-5--55-5-5--55-5-5--55-5-5--55-4-4--44-4-4--44-4-4--44-4-4--44--|
A||--3-3--33-3-3--33-5-5--55-5-5--55-2-2--22-2-2--22-2-2--22-2-2--22--|
D||------------------5-5--55-5-5--55----------------------------------|



Pre-Verse
Guitar 1/2:
E||------------------------------------|----------------------------|
B||------------------------------------|----------------------------|
G||------------------------------------|----------------------------|
D||--0----------------------------2-3--|--0-------------------------|
A||--0----------------------------2-3--|--0-------------------------|
D||--0-00000000000000000000000000-2-3--|--0-0000000000000000000000--|
       ..........................           ......................



Verse
Guitar 1/2:
E||-------------------------------------|
B||-------------------------------------|
G||-------------------------------------|
D||--2-------2---2---2-2-------2--4--5--| x2
A||--2-------2---2---2-2-------2--4--5--|
D||--2-2222222--22--22-2-2222222--4--5--|
       ......   .   .    ......


Guitar 1:
E||--'5~---------------------|
B||-----'5~------'7~------w--|
G||----------'5~-------------|
D||--------------------------|
A||--------------------------|
D||--------------------------|


Guitar 2:
E||-----------------------------------|
B||-----------------------------------|
G||-----------------------------------|
D||--0-0--00-0-0--00-0-0--00-0--5--0--|
A||--0-0--00-0-0--00-0-0--00-0--5--0--|
D||--0-0--00-0-0--00-0-0--00-0--5--0--|


Guitar 1/2:
E||----------------------------------------|
B||----------------------------------------|
G||----------------------------------------|
D||--2--------2---2---2--2--------2--4--5--| x2
A||--2--------2---2---2--2--------2--4--5--|
D||--2-222222-2--22--22--2-222222-2--4--5--|
       ......    .   .     ......


Guitar 1:
E||-----------------------------------|
B||-----------------------------------|
G||-----------------------------------|
D||--0-0--00-0-0--00-0-0--00-0--5--0--|
A||--0-0--00-0-0--00-0-0--00-0--5--0--|
D||--0-0--00-0-0--00-0-0--00-0--5--0--|


Guitar 2:
E||-------------------------|
B||------'7~----------------|
G||--'5~------'7~-----------|
D||---------------'7~---w~--|
A||-------------------------|
D||-------------------------|



Pre-Chorus
Guitar 1:
E||-----------------------|----------------------9-10-12-13--|
B||--10~-----10h11p10-9~--|-----------------9-10-------------|
G||-----------------------|--12~----9-10-12------------------|
D||-----------------------|----------------------------------|
A||-----------------------|----------------------------------|
D||-----------------------|----------------------------------|


Guitar 2:
E||-----------------------|-----------------9-10-12-13-12-10--|
B||-----------------------|------------9-10-------------------|
G||--10~-----10h12p10-9~--|---8~----10------------------------|
D||-----------------------|-----------------------------------|
A||-----------------------|-----------------------------------|
D||-----------------------|-----------------------------------|


Guitar 3:
E||---------------------------------------------------------------|
B||---------------------------------------------------------------|
G||---------------------------------------------------------------|
D||--0-0--00-0-0--00-2-2--22-2-2--22-5-5--55-5-5--55-0---0---0-0--|
A||--0-0--00-0-0--00-2-2--22-2-2--22-5-5--55-5-5--55-0---0---0-0--|
D||--0-0--00-0-0--00-2-2--22-2-2--22-5-5--55-5-5--55-0---0---0-0--|



Chorus
Guitar 1:
E||--10~-----13~---15-17-12~--|--13~----15-17-18~---17-15-17-13---15-17~--|--9~--10~--|
B||---------------------------|-------------------------------------------|-----------|
G||---------------------------|-------------------------------------------|-----------|
D||---------------------------|-------------------------------------------|-----------|
A||---------------------------|-------------------------------------------|-----------|
D||---------------------------|-------------------------------------------|-----------|


E||--12~-----15~---17-19-14~--|--15~----17-19-20-15----20-19-15----15-19~--|
B||---------------------------|---------------------17----------15---------|
G||---------------------------|--------------------------------------------|
D||---------------------------|--------------------------------------------|
A||---------------------------|--------------------------------------------|
D||---------------------------|--------------------------------------------|


Guitar 2:
E||--13~-----17~---18-20-15~--|--17~----18-20-22~---20-18-20-17---18-21~--|--12~--13~--|
B||---------------------------|-------------------------------------------|------------|
G||---------------------------|-------------------------------------------|------------|
D||---------------------------|-------------------------------------------|------------|
A||---------------------------|-------------------------------------------|------------|
D||---------------------------|-------------------------------------------|------------|


E||--15~-----19~---20-22-17~--|--19~----20-22-24-20----24-22-19----19-23~--|
B||---------------------------|---------------------20----------19---------|
G||---------------------------|--------------------------------------------|
D||---------------------------|--------------------------------------------|
A||---------------------------|--------------------------------------------|
D||---------------------------|--------------------------------------------|


Guitar 3:
E||-------------------------------------------------------------------|
B||-------------------------------------------------------------------|
G||----------------------------------5-5--55-5-5--55------------------|
D||--0-0--00-0-0--00-3-3--33-3-3--33-5-5--55-5-5--55-0-0--00-0-0--00--|
A||--0-0--00-0-0--00-3-3--33-3-3--33-3-3--33-3-3--33-0-0--00-0-0--00--|
D||--0-0--00-0-0--00-3-3--33-3-3--33-----------------0-0--00-0-0--00--|


E||-------------------------------------------------------------------|
B||-------------------------------------------------------------------|
G||--3-3--33-3-3--33-----------------2-2--22-2-2--22-2-2--22-2-2--22--|
D||--3-3--33-3-3--33-3-3--33-3-3--33-2-2--22-2-2--22-2-2--22-2-2--22--|
A||--1-1--11-1-1--11-3-3--33-3-3--33-0-0--00-0-0--00-0-0--00-0-0--00--|
D||------------------3-3--33-3-3--33----------------------------------|


E||-------------------------------------------------------------------|
B||-------------------------------------------------------------------|
G||----------------------------------5-5--77-7-7--77------------------|
D||--2-2--22-2-2--22-5-5--55-5-5--55-5-5--77-7-7--77-2-2--22-2-2--22--|
A||--2-2--22-2-2--22-5-5--55-5-5--55-5-5--55-5-5--55-2-2--22-2-2--22--|
D||--2-2--22-2-2--22-5-5--55-5-5--55-----------------2-2--22-2-2--22--|


E||-------------------------------------------------------------------|
B||-------------------------------------------------------------------|
G||--5-5--55-5-5--55-----------------4-4--44-4-4--44-4-4--44-4-4--44--|
D||--5-5--55-5-5--55-5-5--55-5-5--55-4-4--44-4-4--44-4-4--44-4-4--44--|
A||--3-3--33-3-3--33-5-5--55-5-5--55-2-2--22-2-2--22-2-2--22-2-2--22--|
D||------------------5-5--55-5-5--55----------------------------------|



Dual Bridge
Guitar 1:
E||--12------12------12------12------14------14------14------14--------|
B||----12--12--12--12--12--12--12--12--15--15--15--15--15--15--15--15--|
G||------12------12------12------12------14------14------14------14----|
D||--------------------------------------------------------------------|
A||--------------------------------------------------------------------|
D||--------------------------------------------------------------------|


E||--15------15------15------15------12------12------12------12--------|
B||----15--15--15--15--15--15--15--15--13--13--13--13--13--13--13--13--|
G||------16------16------16------16------12------12------12------12----|
D||--------------------------------------------------------------------|
A||--------------------------------------------------------------------|
D||--------------------------------------------------------------------|


Guitar 2:
E||--15-12--12-15-12--12-15-12--12-15-12--12-17-14--14-17-14--14-17-14--14-17-14--14--|
B||-------12--------12--------12--------12--------15--------15--------15--------15----|
G||-----------------------------------------------------------------------------------|
D||-----------------------------------------------------------------------------------|
A||-----------------------------------------------------------------------------------|
D||-----------------------------------------------------------------------------------|


E||--19-15--15-19-15--15-19-15--15-19-15--15-15-12--12-15-12--12-15-12--12-15-12--12--|
B||-------15--------15--------15--------15--------13--------13--------13--------13----|
G||-----------------------------------------------------------------------------------|
D||-----------------------------------------------------------------------------------|
A||-----------------------------------------------------------------------------------|
D||-----------------------------------------------------------------------------------|


Guitar 3:
E||-------------------------------------------------------------------|
B||-------------------------------------------------------------------|
G||------------------7-7--77-7-7--77-----------------5-5--55-5-5--55--|
D||--2-2--22-2-2--22-7-7--77-7-7--77-5-5--55-5-5--55-5-5--55-5-5--55--|
A||--2-2--22-2-2--22-5-5--55-5-5--55-5-5--55-5-5--55-3-3--33-3-3--33--|
D||--2-2--22-2-2--22-----------------5-5--55-5-5--55------------------|




Guitar 1:
E||--12------12------12------12------14------14------14------14--------|
B||----12--12--12--12--12--12--12--12--15--15--15--15--15--15--15--15--|
G||------12------12------12------12------14------14------14------14----|
D||--------------------------------------------------------------------|
A||--------------------------------------------------------------------|
D||--------------------------------------------------------------------|


E||--10------10------10------14------12------12------12------12--------|
B||----12--12--12--12--12--12--12--12--13--13--13--13--13--13--13--13--|
G||------11------11------11------11------12------12------12------12----|
D||--------------------------------------------------------------------|
A||--------------------------------------------------------------------|
D||--------------------------------------------------------------------|


Guitar 2:
E||--15-12--12-15-12--12-15-12--12-15-12--12-17-14--14-17-14--14-17-14--14-17-14--14--|
B||-------12--------12--------12--------12--------15--------15--------15--------15----|
G||-----------------------------------------------------------------------------------|
D||-----------------------------------------------------------------------------------|
A||-----------------------------------------------------------------------------------|
D||-----------------------------------------------------------------------------------|


E||--14------14------14------17------15-12--12-15-12--12-15-12--12-15-12--12--|
B||----15--15--15--15--15--15--15--15-----13--------13--------13--------13----|
G||------16------16------16------16-------------------------------------------|
D||---------------------------------------------------------------------------|
A||---------------------------------------------------------------------------|
D||---------------------------------------------------------------------------|


Guitar 3:
E||-------------------------------------------------------------------|
B||-------------------------------------------------------------------|
G||------------------7-7--77-7-7--77-4-4--44-4-4--44-5-5--55-5-5--55--|
D||--2-2--22-2-2--22-7-7--77-7-7--77-4-4--44-4-4--44-5-5--55-5-5--55--|
A||--2-2--22-2-2--22-5-5--55-5-5--55-2-2--22-2-2--22-3-3--33-3-3--33--|
D||--2-2--22-2-2--22--------------------------------------------------|




Guitar 1:
E||--8---------8---------8---------8---------7-------7-------7---------|
B||----10---10---10---10---10---10---10---10---8---8---8---8---8---8---|
G||-------9---------9---------9---------9--------9-------9-------9-----|
D||--------------------------------------------------------------------|
A||--------------------------------------------------------------------|
D||--------------------------------------------------------------------|

E||--7-------7-------7-------7-------7-------7--------------------------|
B||----7---7---7---7---7---7---7---7---8---8---8---8-10-7---7-10-7---7--|
G||------8-------8-------8-------8-------9-------9--------7--------7----|
D||---------------------------------------------------------------------|
A||---------------------------------------------------------------------|
D||---------------------------------------------------------------------|


Guitar 2:
E||--12------12------12------12------12------12------12------12--------|
B||----13--13--13--13--13--13--13--13--12--12--12--12--12--12--12--12--|
G||------14------14------14------14------12------12------12------12----|
D||--------------------------------------------------------------------|
A||--------------------------------------------------------------------|
D||--------------------------------------------------------------------|


E||--11------11------11------11------12------12------10------10--------|
B||----12--12--12--12--12--12--12--12--12--12--12--12--10--10--10--10--|
G||------11------11------11------11------12------12------11------11----|
D||--------------------------------------------------------------------|
A||--------------------------------------------------------------------|
D||--------------------------------------------------------------------|


Guitar 3:
E||-------------------------------------------------------------------|
B||-------------------------------------------------------------------|
G||--2-2--22-2-2--22-----------------4-4--44-4-4--44---------7-7--77--|
D||--2-2--22-2-2--22-5-5--55-5-5--55-4-4--44-4-4--44-2-2--22-7-7--77--|
A||--0-0--00-0-0--00-5-5--55-5-5--55-2-2--22-2-2--22-2-2--22-5-5--55--|
D||------------------5-5--55-5-5--55-----------------2-2--22----------|




Guitar 1:
D||-------------------------------------------------------------------------------|
E||--8--------8--------8--------8--------10--------10-----------------------------|
B||----9----9---9----9---9----9---9----9----9----9----9----9-12-9----9-11-9----9--|
G||------10-------10-------10-------10--------10--------10--------10--------10----|
D||-------------------------------------------------------------------------------|
A||-------------------------------------------------------------------------------|


E||----------------------------------7-------7-------7-------7-----------|
B||--10------10------10------10--------8---8---8---8---7---7---7---7-----|
G||----11--11--11--11--11--11--11--11----7-------7-------8-------8---9\--|
D||------12------12------12------12--------------------------------------|
A||----------------------------------------------------------------------|
D||----------------------------------------------------------------------|


Guitar 2:
E||--8-------8-------8-------8-------8---------8---------7--------10---------|
B||----8---8---8---8---8---8---8---8---10---10---10---10---10---10--10---10--|
G||------9-------9-------9-------9--------9---------9---------9--------9-----|
D||--------------------------------------------------------------------------|
A||--------------------------------------------------------------------------|
D||--------------------------------------------------------------------------|


E||--10------10------10------10------10------10------14-11--11-14-11--11-12\--|
B||----10--10--10--10--10--10--10--10--12--12--12--12-----12--------12--------|
G||------11------11------11------11------11------11---------------------------|
D||---------------------------------------------------------------------------|
A||---------------------------------------------------------------------------|
D||---------------------------------------------------------------------------|


Guitar 3:
E||-----------------------------------------------------------------|
B||-----------------------------------------------------------------|
G||--5-5--55-5-5--55-----------------7-7--77-7-7--77----4-----------|
D||--5-5--55-5-5--55-7-7--77-7-7--77-7-7--77-7-7--77-5--4--0--4--2--|
A||--3-3--33-3-3--33-7-7--77-7-7--77-5-5--55-5-5--55-5--2--0--4--2--|
D||------------------7-7--77-7-7--77-----------------5-----0--4--2--|



Drum Solo
Guitar 2:
E||---------|---------|---------|-------|
B||---------|---------|---------|-------|
G||---------|---------|---------|-------|
D||--4-5-2--|--4-5-2--|--4-5-2--|--4-5--|
A||--4-5-2--|--4-5-2--|--4-5-2--|--4-5--|
D||--4-5-2--|--4-5-2--|--4-5-2--|--4-5--|


Guitar 1:
E||---------|---------|------------------|
B||---------|---------|------------------|
G||---------|---------|------------------|
D||---------|---------|--------pick------|
A||---------|---------|-----------slide--|
D||---------|---------|------------------|



Solo
Guitar 1:
E||-----------17----------15----------13--------------------------------|
B||--------15----15----15----15----15----15----15-17-15----17-15--------|
G||-----14----------14----------14----------14----------14-------14-----|
D||--15-------------------------------------------------------------15--|
A||---------------------------------------------------------------------|
D||---------------------------------------------------------------------|


E||--------------------15----15h17--|
B||--------------15-------15--------|
G||-----------14----14--------------|
D||-----14-15-----------------------|
A||--17-----------------------------|
D||---------------------------------|


E||-----------17----------15----------13-----------------------------|
B||--------15----15----15----15----15----15----15-17-15----17-15-----|
G||-----14----------14----------14----------14----------14-------14--|
D||--15--------------------------------------------------------------|
A||------------------------------------------------------------------|
D||------------------------------------------------------------------|


E||-----------15-12----17-13----20-22--|
B||--18-17----------13-------15--------|
G||--------14--------------------------|
D||------------------------------------|
A||------------------------------------|
D||------------------------------------|


Guitar 2:
E||------------------------------------|
B||------------------------------------|
G||------------------------------------|
D||--0----------------------------2-3--| x2
A||--0----------------------------2-3--|
D||--0-00000000000000000000000000-2-3--|
       ..........................



Guitar 1:
E||--/171717171717\131313/151515151515\121212/131313131313\101010/121212121212-131313--|
B||------------------------------------------------------------------------------------|
G||------------------------------------------------------------------------------------|
D||------------------------------------------------------------------------------------|
A||------------------------------------------------------------------------------------|
D||------------------------------------------------------------------------------------|


Guitar 2:
E||--/131313131313\101010/121212121212\888/101010101010\555/888888-101010--|
B||------------------------------------------------------------------------|
G||------------------------------------------------------------------------|
D||------------------------------------------------------------------------|
A||------------------------------------------------------------------------|
D||------------------------------------------------------------------------|


Guitar 3:
E||------------------------------------|
B||------------------------------------|
G||------------------------------------|
D||--0----------------------------2-3--|
A||--0----------------------------2-3--|
D||--0-00000000000000000000000000-2-3--|
       ..........................



Guitar 1:
E||-----------17----------15----------13-----------------------------|
B||--------15----15----15----15----15----15----15-17-15----17-15-----|
G||-----14----------14----------14----------14----------14-------14--|
D||--15--------------------------------------------------------------|
A||------------------------------------------------------------------|
D||------------------------------------------------------------------|


E||-----------15-12----17-13----17-20-22~-----(20b22~r20~)--|
B||--18-17----------13-------15-----------------------------|
G||--------14-----------------------------------------------|
D||---------------------------------------------------------|
A||---------------------------------------------------------|
D||---------------------------------------------------------|


Guitar 2:
E||-----------13----------12----------11--------------------|
B||--------11----11----11----11----11----11----11-13-11-----|
G||-----11----------11----------11----------11----------11--|
D||--12-----------------------------------------------------|
A||---------------------------------------------------------|
D||---------------------------------------------------------|


E||--15-13----17-13----20-15----20-17----------------|
B||--------15-------15-------17-------17--15-17-18~--|
G||--------------------------------------------------|
D||--------------------------------------------------|
A||--------------------------------------------------|
D||--------------------------------------------------|


Guitar 3:
E||------------------------------------|
B||------------------------------------|
G||------------------------------------|
D||--0----------------------------2-3--|
A||--0----------------------------2-3--|
D||--0-00000000000000000000000000-2-3--|
       ..........................



Chorus
Guitar 1:
E||--10~-----13~---15-17-12~--|--13~----15-17-18~---17-15-17-13---15-17~--|--9~--10~--|
B||---------------------------|-------------------------------------------|-----------|
G||---------------------------|-------------------------------------------|-----------|
D||---------------------------|-------------------------------------------|-----------|
A||---------------------------|-------------------------------------------|-----------|
D||---------------------------|-------------------------------------------|-----------|


E||--12~-----15~---17-19-14~--|--15~----17-19-20-15----20-19-15----15-19~--|
B||---------------------------|---------------------17----------15---------|
G||---------------------------|--------------------------------------------|
D||---------------------------|--------------------------------------------|
A||---------------------------|--------------------------------------------|
D||---------------------------|--------------------------------------------|


Guitar 2:
E||--13~-----17~---18-20-15~--|--17~----18-20-22~---20-18-20-17---18-21~--|--12~--13~--|
B||---------------------------|-------------------------------------------|------------|
G||---------------------------|-------------------------------------------|------------|
D||---------------------------|-------------------------------------------|------------|
A||---------------------------|-------------------------------------------|------------|
D||---------------------------|-------------------------------------------|------------|


E||--15~-----19~---20-22-17~--|--19~----20-22-24-20----24-22-19----19-23~--|
B||---------------------------|---------------------20----------19---------|
G||---------------------------|--------------------------------------------|
D||---------------------------|--------------------------------------------|
A||---------------------------|--------------------------------------------|
D||---------------------------|--------------------------------------------|


Guitar 3:
E||-------------------------------------------------------------------|
B||-------------------------------------------------------------------|
G||----------------------------------5-5--55-5-5--55------------------|
D||--0-0--00-0-0--00-3-3--33-3-3--33-5-5--55-5-5--55-0-0--00-0-0--00--|
A||--0-0--00-0-0--00-3-3--33-3-3--33-3-3--33-3-3--33-0-0--00-0-0--00--|
D||--0-0--00-0-0--00-3-3--33-3-3--33-----------------0-0--00-0-0--00--|


E||-------------------------------------------------------------------|
B||-------------------------------------------------------------------|
G||--3-3--33-3-3--33-----------------2-2--22-2-2--22-2-2--22-2-2--22--|
D||--3-3--33-3-3--33-3-3--33-3-3--33-2-2--22-2-2--22-2-2--22-2-2--22--|
A||--1-1--11-1-1--11-3-3--33-3-3--33-0-0--00-0-0--00-0-0--00-0-0--00--|
D||------------------3-3--33-3-3--33----------------------------------|


E||-------------------------------------------------------------------|
B||-------------------------------------------------------------------|
G||----------------------------------5-5--77-7-7--77------------------|
D||--2-2--22-2-2--22-5-5--55-5-5--55-5-5--77-7-7--77-2-2--22-2-2--22--|
A||--2-2--22-2-2--22-5-5--55-5-5--55-5-5--55-5-5--55-2-2--22-2-2--22--|
D||--2-2--22-2-2--22-5-5--55-5-5--55-----------------2-2--22-2-2--22--|


E||-------------------------------------------------------------------|
B||-------------------------------------------------------------------|
G||--5-5--55-5-5--55-----------------4-4--44-4-4--44-4-4--44-4-4--44--|
D||--5-5--55-5-5--55-5-5--55-5-5--55-4-4--44-4-4--44-4-4--44-4-4--44--|
A||--3-3--33-3-3--33-5-5--55-5-5--55-2-2--22-2-2--22-2-2--22-2-2--22--|
D||------------------5-5--55-5-5--55----------------------------------|



Outro
Guitar 1:
E||-------------------------------------------------------------|
B||--/13~--13-13-13--12--10------10-12--10~---------------------|
G||-------------------------12~----------------/11--\9~--7-7~---|
D||-------------------------------------------------------------|
A||-------------------------------------------------------------|
D||-------------------------------------------------------------|


E||-----------------------------------------|
B||--/13~--13-13-13--12--10------10-12/15~--|
G||-------------------------12~-------------|
D||-----------------------------------------|
A||-----------------------------------------|
D||-----------------------------------------|


Guitar 2:
E||---------------------------------------------------------------|
B||--/17~--17-17-17--15--13-12~--13-15----------------------------|
G||-------------------------------------11~----/14--\12~--11-11~--|
D||---------------------------------------------------------------|
A||---------------------------------------------------------------|
D||---------------------------------------------------------------|


E||-----------------------------------------|
B||--/17~--17-17-17--15--13-12~--13-15/19~--|
G||-----------------------------------------|
D||-----------------------------------------|
A||-----------------------------------------|
D||-----------------------------------------|


Guitar 3:
E||----------------------------------------------|
B||----------------------------------------------|
G||--5~---------4---44--444----------------------|
D||--5~--5-5-5--4---44--444--0~-----4--4-5--555--|
A||--3~--3-3-3--2~--22--222--0~-----4--4-5--555--|
D||--------------------------0~-----4--4-5--555--|
         . . .

E||------------------------------|
B||------------------------------|
G||--5~---------4---44--44-/-7~--|
D||--5~--5-5-5--4---44--44-/-7~--|
A||--3~--3-3-3--2~--22--22-/-5~--|
D||------------------------------|
         . . .




Tablature Legend
----------------
 h   hammer-on
 p   pull-off
 b   bend
 pb  pre-bend
 r   release bend
 ~   hold / vibrato
 .   palm mute
 /   slide up
 \   slide down
 *   pinch harmonic
 '   natural harmonic
 x   mute note
 T   tap
comments
print report bad tab
6 comments total. Showing first comments.
-1 reply
marcelaguiar wrote on September 27 2012, 04:54 pm

Good tab.

On another note, I wasn't really impressed by the guitar work on this single. I think the hats should go off to M Shadows for some awesome singing. Especially "one for tomorrow".

0 reply
Bradwash wrote on June 6 2013, 07:51 pm

this seems an awesome tab, it's just a bit of a challenge to read, is there any chance you could put in where each bar is, it can be tough to know which part is which is all, apart from that it seems all good

0 reply
Joshua Garcia wrote on June 6 2013, 09:06 pm

Well thank you, first of all.

Secondly, I guess I can fix up the pre-chorus and the chorus a bit, but I don't know anything about bars, quite frankly. I just put it where I think it looks appropriate.

I think it would be better to use your ears to figure out the timing if you're having trouble with it. Other than the Guitar 1/2/3 divisions (which is easier to follow by looking for "Guitar #" wherever possible), everything seems fine to me. The rest is mostly solo parts, so I can't really do anything about that.

But thanks again. I'll try fixing it up a bit, but do not expect much.

I want to post or [tab]
guest
You may want to rate the tab now too:
select rating
Please do not post tabs as comments. Select "correction" instead!