Oops, an error
Loading. Please wait.

City Of Evil Bass Tab

ver1
ver1

Album

Interactive

More versions @911Tabs.com
696 views 12 this week
no commentswrite comment
1 2 3 4 5
excellent!
x 1
Autoscroll
+/-
esc
set tempo
stop
Contributor
Difficulty
Tuning
advanced
D A D G B E
Hey! There's an official Ultimate Guitar app which is ideal
for learning songs when you're away from computer. Get the app
WARNING: You are trying to view
                                    content from Ultimate-Guitar.com
                                    in an unauthorized application,
                                    which is prohibited.

                                    Please use an official Ultimate
                                    Guitar Tabs application for iPhone,
                                    iPad or Android to access legitimate
                                    chords, guitar, bass, and drum tabs
                                    from Ultimate-Guitar.com database.

                                    Type "ultimate guitar tabs" in Apple
                                    App Store's or Android Market's
                                    search to find the application.
Beast and the Harlot

G|-------------------------------------------------------------------------|
D|-4-------4---4---4---4---4-------4---------------------------------------|
A|-------------------------------------5-----------5---5---5---5-------5---|
D|-------------------------------------------------------------------------|
   1 + 2 + 3 + 1 + 2 + 3 + 1 + 2 + 3 + 1 + 2 + 3 + 1 + 2 + 3 + 1 + 2 + 3 +

G|-------------------------------------------------------------|
D|---------------------------------------------------------2---|
A|-4-----------4---4---4---4-------4---3-----------3---5-------|
D|-------------------------------------------------------------|
   1 + 2 + 3 + 1 + 2 + 3 + 1 + 2 + 3 + 1 + 2 + 3 + 1 + 2 + 3 +

G|-------------------------------------------------------------------------|
D|-3---3-3-3-3-3---3-3-3-3-------------------------------------------------|
A|-------------------------4---4-4-4-4-4---4---3---1---1-1-1-1-1-1-1-1-1-1-|
D|-------------------------------------------------------------------------|
   1 + 2 + 3 + 1 + 2 + 3 + 1 + 2 + 3 + 1 + 2 + 3 + 1 + 2 + 3 + 1 + 2 + 3 +

G|-------------------------------------------------|
D|-------------------------------------------------|
A|-0-----------------------------------------------|
D|-------------------------------------------------|
   1 + 2 + 3 + 1 + 2 + 3 + 1 + 2 + 3 + 1 + 2 + 3 +

0:24
G|-------------------------------------------------------------------|
D|o-----------------------------------------------------------------o|
A|o-----------------------------------------------------------------o|
D|--0----------------------------------------------------------------|
    1 + 2 + 3 + 4 + 1 + 2 + 3 + 4 + 1 + 2 + 3 + 4 + 1 + 2 + 3 + 4 +

G|-----------------------------------------------------------------|
D|-----------------------------------------------------------------|
A|---------------------------------55555555555555555555555555555555|
D|-00000000000000000000000000000000--------------------------------|
   1 + 2 + 3 + 4 + 1 + 2 + 3 + 4 + 1 + 2 + 3 + 4 + 1 + 2 + 3 + 4 +

0:42
G|-----------------------------------------------------------------|
D|-----------------------------------------------------------------|
A|-----------------------------------------------------------------|
D|-00003-00005-00006-00005-00003-5-00003-00005-006-00003-00005-006-|
   1 + 2 + 3 + 4 + 1 + 2 + 3 + 4 + 1 + 2 + 3 + 4 + 1 + 2 + 3 + 4 +

G|-----------------------------------------------------------------|
D|-----------------------------------------------------------------|
A|-----------------------------------------------------------------|
D|-00003-00005-00006-00005-00003-5-00003-00005-006-00003-00003-003-|
   1 + 2 + 3 + 4 + 1 + 2 + 3 + 4 + 1 + 2 + 3 + 4 + 1 + 2 + 3 + 4 +

Verse 0:55
G|-----------------------------------------------------------------|
D|-----------------------------------------------------------------|
A|-----------------------------------------------------------------|
D|-00003-00005-00006-00005-00003-5-00003-00005-006-00003-00005-006-|
   1 + 2 + 3 + 4 + 1 + 2 + 3 + 4 + 1 + 2 + 3 + 4 + 1 + 2 + 3 + 4 +

G|-----------------------------------------------------------------|
D|-----------------------------------------------------------------|
A|-----------------------------------------------------------------|
D|-00003-00005-00006-00005-00003-5-00003-00005-006-00003-00003-003-|
   1 + 2 + 3 + 4 + 1 + 2 + 3 + 4 + 1 + 2 + 3 + 4 + 1 + 2 + 3 + 4 +

G|---------------------------------|
D|---------------------------------|
A|-1-----------1-----------0---1---|
D|-----------------5---6-----------|
   1 + 2 + 3 + 4 + 1 + 2 + 3 + 4 + 

G|-----------------------------------------------------------------|
D|-----------------------------------------------------------------|
A|-----------------------------------------------------------------|
D|-00003-00005-00006-00005-00003-5-00003-00005-006-00003-00005-006-|
   1 + 2 + 3 + 4 + 1 + 2 + 3 + 4 + 1 + 2 + 3 + 4 + 1 + 2 + 3 + 4 +

G|-----------------------------------------------------------------|
D|-----------------------------------------------------------------|
A|-----------------------------------------------------------------|
D|-00003-00005-00006-00005-00003-5-00003-00005-006-00003-00003-003-|
   1 + 2 + 3 + 4 + 1 + 2 + 3 + 4 + 1 + 2 + 3 + 4 + 1 + 2 + 3 + 4 +

G|-------------------------------------------------|
D|-------------------------------------------------|
A|-1-----------1-----------0---1---0---1---2---3---|
D|-----------------5---6---------------------------|
   1 + 2 + 3 + 4 + 1 + 2 + 3 + 4 + 1 + 2 + 3 + 4 + 

Chorus 1:27
G|-----------------------------------------------------------------|
D|---------------------------------------------------------5-3-2---|
A|-----------------3-3--33-3-33-33-1-1--11-1-11-11-1-1--11---------|
D|-3-3--33-3-33-33-------------------------------------------------|
   1 + 2 + 3 + 4 + 1 + 2 + 3 + 4 + 1 + 2 + 3 + 4 + 1 + 2 + 3 + 4 +
   
G|-----------------------------------------------------------------|
D|-----------------------------------------------------------------|
A|-----------------3-3--33-3-33-33-1-1--11-1-11-11-1-1--11-1-1-1-1-|
D|-3-3--33-3-33-33-------------------------------------------------|
   1 + 2 + 3 + 4 + 1 + 2 + 3 + 4 + 1 + 2 + 3 + 4 + 1 + 2 + 3 + 4 +

1:40
G|-----------------------------------------------------------------|
D|-----------------------------------------------------------------|
A|---------------------------------3-3--33-3-33-33-1-1--11-1-11-11-|
D|-5-5--55-5-55-55-3-3--33-5-3-2-3---------------------------------|
   1 + 2 + 3 + 4 + 1 + 2 + 3 + 4 + 1 + 2 + 3 + 4 + 1 + 2 + 3 + 4 +

G|-----------------------------------------------------------------|
D|-3-------2-------0-----------------------------8-7-5---5---------|
A|---1--11---11-11----1-11-3-1-0-1-0-0--00-4-44-4------8---8-7-5-3-|
D|-----------------------------------------------------------------|
   1 + 2 + 3 + 4 + 1 + 2 + 3 + 4 + 1 + 2 + 3 + 4 + 1 + 2 + 3 + 4 +

Interlude 1:52
G|-----------------------------------------------------------------|
D|-----------------------------------------------------------------|
A|-----------------------------------------------------------------|
D|-00003-00005-00006-00005-00003-5-00003-00005-006-00003-00003-003-|
   1 + 2 + 3 + 4 + 1 + 2 + 3 + 4 + 1 + 2 + 3 + 4 + 1 + 2 + 3 + 4 +

G|-------------------------------------------------|
D|-------------------------------------------------|
A|-1-----------1-----------0---1---0---1---2---3---|
D|-----------------5---6---------------------------|
   1 + 2 + 3 + 4 + 1 + 2 + 3 + 4 + 1 + 2 + 3 + 4 + 

Solo 2:03
G|-------------------------------------------------------------------|
D|o-----------------------------------------------------------------o|
A|o-----------------3-3--33-3-33-33-1-11-11-1-11-11-1-11-11-1-11-11-o|
D|--3-3--33-3-33-33--------------------------------------------------|
    1 + 2 + 3 + 4 + 1 + 2 + 3 + 4 + 1 + 2 + 3 + 4 + 1 + 2 + 3 + 4 +

2:15
G|-----------------------------------------------------------------|
D|-----------------------------------------------------------------|
A|---------------------------------3-33-33-3-33-33-1-11-11-1-11-11-|
D|-5-55-55-5-55-55-3-33-33-3-33-33---------------------------------|
   1 + 2 + 3 + 4 + 1 + 2 + 3 + 4 + 1 + 2 + 3 + 4 + 1 + 2 + 3 + 4 +

G|-----------------------------------------------------------------|
D|-----------------------------------------------------------------|
A|-1-11-11-1-11-11-1-11-11-1-11-11-0-00-00-0-00-00-4-44-44-77777777|
D|-----------------------------------------------------------------|
   1 + 2 + 3 + 4 + 1 + 2 + 3 + 4 + 1 + 2 + 3 + 4 + 1 + 2 + 3 + 4 +

Verse 2:28
G|-----------------------------------------------------------------|
D|-----------------------------------------------------------------|
A|-----------------------------------------------------------------|
D|-00003-00005-00006-00005-00003-5-00003-00005-006-00003-00005-006-|
   1 + 2 + 3 + 4 + 1 + 2 + 3 + 4 + 1 + 2 + 3 + 4 + 1 + 2 + 3 + 4 +

G|-----------------------------------------------------------------|
D|-----------------------------------------------------------------|
A|-----------------------------------------------------------------|
D|-00003-00005-00006-00005-00003-5-00003-00005-006-00003-00003-003-|
   1 + 2 + 3 + 4 + 1 + 2 + 3 + 4 + 1 + 2 + 3 + 4 + 1 + 2 + 3 + 4 +

G|---------------------------------|
D|---------------------------------|
A|-1-----------1-----------0---1---|
D|-----------------5---6-----------|
   1 + 2 + 3 + 4 + 1 + 2 + 3 + 4 + 

G|-----------------------------------------------------------------|
D|-----------------------------------------------------------------|
A|-----------------------------------------------------------------|
D|-00003-00005-00006-00005-00003-5-00003-00005-006-00003-00005-006-|
   1 + 2 + 3 + 4 + 1 + 2 + 3 + 4 + 1 + 2 + 3 + 4 + 1 + 2 + 3 + 4 +

G|-----------------------------------------------------------------|
D|-----------------------------------------------------------------|
A|-----------------------------------------------------------------|
D|-00003-00005-00006-00005-00003-5-00003-00005-006-00003-00003-003-|
   1 + 2 + 3 + 4 + 1 + 2 + 3 + 4 + 1 + 2 + 3 + 4 + 1 + 2 + 3 + 4 +

G|-------------------------------------------------|
D|-------------------------------------------------|
A|-1-----------1-----------0---1---0---1---2---3---|
D|-----------------5---6---------------------------|
   1 + 2 + 3 + 4 + 1 + 2 + 3 + 4 + 1 + 2 + 3 + 4 + 

Chorus 3:00
G|-----------------------------------------------------------------|
D|-------------------------------------------------3-------5-3-2---|
A|-----------------3-3--33-3-33-33-1-11-11-1-11-11---11-11---------|
D|-3-3--33-3-33-33-------------------------------------------------|
   1 + 2 + 3 + 4 + 1 + 2 + 3 + 4 + 1 + 2 + 3 + 4 + 1 + 2 + 3 + 4 +
   
G|-----------------------------------------------------------------|
D|-----------------------------------------------------------------|
A|-----------------3-3--33-3-33-33-1-11-11-1-11-11-1-11-11-1-1-1-1-|
D|-3-3--33-3-33-33-------------------------------------------------|
   1 + 2 + 3 + 4 + 1 + 2 + 3 + 4 + 1 + 2 + 3 + 4 + 1 + 2 + 3 + 4 +

G|-----------------------------------------------------------------|
D|-----------------------------------------------------------------|
A|---------------------------------3-33-33-3-33-33-1-11-11-1-11-11-|
D|-5-5--55-5-55-55-3-3--33-5-3-2-3---------------------------------|
   1 + 2 + 3 + 4 + 1 + 2 + 3 + 4 + 1 + 2 + 3 + 4 + 1 + 2 + 3 + 4 +

G|-----------------------------------------------------------------|
D|-3-------2-------0-----------------------------8-7-5---5---------|
A|---1--11---11-11----1-11-3-1-0-1-0-00-00-4-44-4------8---8-7-5-3-|
D|-----------------------------------------------------------------|
   1 + 2 + 3 + 4 + 1 + 2 + 3 + 4 + 1 + 2 + 3 + 4 + 1 + 2 + 3 + 4 +


Interlude 3:25
G|-------------------------------------------------------------------|
D|o-----------------------------------------------------------------o|
A|o-----------------------------------------------------------------o|
D|--0-------------------------------0--------------------------------|
    1 + 2 + 3 + 4 + 1 + 2 + 3 + 4 + 1 + 2 + 3 + 4 + 1 + 2 + 3 + 4 +

G|-------------------------------------------------------------------|
D|o-----------------------------------------------------------------o|
A|o-----------------------------------------------------------------o|
D|--0----------------------------------------------------------------|
    1 + 2 + 3 + 4 + 1 + 2 + 3 + 4 + 1 + 2 + 3 + 4 + 1 + 2 + 3 + 4 +

Bridge 3:50
G|-------------------------------------------------------------------|
D|o-----------------------------------------------------------------o|
A|o-5-3-----------------------------5-3-----------------------------o|x4
D|------3-5-6-5-3-0---3-5-6-5-3-0-------3-5-6-5-3-0---3-5-6-5-3-0----|
    1 + 2 + 3 + 4 + 1 + 2 + 3 + 4 + 1 + 2 + 3 + 4 + 1 + 2 + 3 + 4 +

G|-------------------------------------------------|
D|-------------------------------------------------|
A|-1-----------1-----------0---1---0---1---2---3---|
D|-----------------5---6---------------------------|
   1 + 2 + 3 + 4 + 1 + 2 + 3 + 4 + 1 + 2 + 3 + 4 + 

Chorus 4:19
G|-----------------------------------------------------------------|
D|-------------------------------------------------3-------5-3-2---|
A|-----------------3-3--33-3-33-33-1-11-11-1-11-11---11-11---------|
D|-3-3--33-3-33-33-------------------------------------------------|
   1 + 2 + 3 + 4 + 1 + 2 + 3 + 4 + 1 + 2 + 3 + 4 + 1 + 2 + 3 + 4 +
   
G|-----------------------------------------------------------------|
D|-----------------------------------------------------------------|
A|-----------------3-3--33-3-33-33-1-11-11-1-11-11-1-11-11-1-1-1-1-|
D|-3-3--33-3-33-33-------------------------------------------------|
   1 + 2 + 3 + 4 + 1 + 2 + 3 + 4 + 1 + 2 + 3 + 4 + 1 + 2 + 3 + 4 +

G|-----------------------------------------------------------------|
D|-----------------------------------------------------------------|
A|---------------------------------3-33-33-3-33-33-1-11-11-1-11-11-|
D|-5-5--55-5-55-55-3-3--33-5-3-2-3---------------------------------|
   1 + 2 + 3 + 4 + 1 + 2 + 3 + 4 + 1 + 2 + 3 + 4 + 1 + 2 + 3 + 4 +

G|-----------------------------------------------------------------|
D|-3-------2-------0-----------------------------8-7-5---5---------|
A|---1--11---11-11----1-11-3-1-0-1-0-00-00-4-44-4------8---8-7-5-3-|
D|-----------------------------------------------------------------|
   1 + 2 + 3 + 4 + 1 + 2 + 3 + 4 + 1 + 2 + 3 + 4 + 1 + 2 + 3 + 4 +

Key Change 4:43
G|-----------------------------------------------------------------|
D|-------------------------------------------------7---6-7-9-7-6---|
A|-0-0--00-0-00-00-7-7--77-7-77-77-5-55-55-5-55-55---5-----------9-|
D|-----------------------------------------------------------------|
   1 + 2 + 3 + 4 + 1 + 2 + 3 + 4 + 1 + 2 + 3 + 4 + 1 + 2 + 3 + 4 +
   
G|-----------------------------------------------------------------|
D|-----------------------------------------------------------------|
A|-0-0--00-0-00-00-7-7--77-7-77-77-5-55-55-5-55-55-5-55-55-5-5-5-5-|
D|-----------------------------------------------------------------|
   1 + 2 + 3 + 4 + 1 + 2 + 3 + 4 + 1 + 2 + 3 + 4 + 1 + 2 + 3 + 4 +

G|-----------------------------------------------------------------|
D|-----------------------------------------------------------------|
A|-2-2--22-2-22-22-0-0--00-0-2-0---7-77-77-7-77-77-5-55-55-5-55-55-|
D|-------------------------------6---------------------------------|
   1 + 2 + 3 + 4 + 1 + 2 + 3 + 4 + 1 + 2 + 3 + 4 + 1 + 2 + 3 + 4 +

G|---------------------------------------------------------6-6-6-6-|
D|-7-------6-------4-------------------------------6-6-6-6---------|
A|---5--55---55-55----5-55-7-5-4-5-4-44-44-8-88-88-----------------|
D|-----------------------------------------------------------------|
   1 + 2 + 3 + 4 + 1 + 2 + 3 + 4 + 1 + 2 + 3 + 4 + 1 + 2 + 3 + 4 +

Outro 5:09
G|-------------------------------------------------------------------------|
D|-4-------4---4---4---4---4-------4---------------------------------------|
A|-------------------------------------5-----------5---5---5---5-------5---|
D|-------------------------------------------------------------------------|
   1 + 2 + 3 + 1 + 2 + 3 + 1 + 2 + 3 + 1 + 2 + 3 + 1 + 2 + 3 + 1 + 2 + 3 +

G|-------------------------------------------------------------|
D|---------------------------------------------------------2---|
A|-4-----------4---4---4---4-------4---3-----------3---5-------|
D|-------------------------------------------------------------|
   1 + 2 + 3 + 1 + 2 + 3 + 1 + 2 + 3 + 1 + 2 + 3 + 1 + 2 + 3 +

G|-------------------------------------------------------------------------|
D|-3---3-3-3-3-3---3-3-3-3-------------------------------------------------|
A|-------------------------4---4-4-4-4-4---4---3---1---1-1-1-1-1-1-1-1-1-1-|
D|-------------------------------------------------------------------------|
   1 + 2 + 3 + 1 + 2 + 3 + 1 + 2 + 3 + 1 + 2 + 3 + 1 + 2 + 3 + 1 + 2 + 3 +

G|-------------------------------------------------|
D|-------------------------------------------------|
A|-0-----------------------------------------------|
D|-------------------------------------------------|
   1 + 2 + 3 + 1 + 2 + 3 + 1 + 2 + 3 + 1 + 2 + 3 +

ReTabbed by Dave Vucko

--------------------------------------------------------------------------------------

Burn It Down

G|-------------------------------------------------------------------|
D|o-----------------------------------------------------------------o|
A|o-----------------------------------------------------------------o|x4
D|--0-0-0-------0-0-0-0-0---0-0-0---0-0-0-------0-0-0-0-0---0-0-0----|
    1 e + a 2 e + a 3 e + a 4 e + a 1 e + a 2 e + a 3 e + a 4 e + a

0:10
G|-----------------------------------------------------------------|
D|-----------------------------------------------------------------|
A|-3-33-33-------------------------3-33-33-------------------------|
D|---------5-55-55-3-33-33-5-55-55---------5-55-55-3-33-33-5-55-55-|
   1 + 2 + 3 + 4 + 1 + 2 + 3 + 4 + 1 + 2 + 3 + 4 + 1 + 2 + 3 + 4 +

G|-----------------------------------------------------------------|
D|-----------------------------------------------------------------|
A|-----------------0-00-00-2-22-22-3-33-33-7-77-77-0-00-00---------|
D|-3-33-33-5-55-55-----------------------------------------5-55-55-|
   1 + 2 + 3 + 4 + 1 + 2 + 3 + 4 + 1 + 2 + 3 + 4 + 1 + 2 + 3 + 4 +

Verse 0:21
G|-------------------------------------------------------------------|
D|o-----------------------------------------------------------------o|
A|o-0---0-0-1---0-0-0---0-0-3---0-0-0---0-0-1---0-0-0-0-0-------0-0-o|x3
D|-------------------------------------------------------------------|
    1 e + a 2 e + a 3 e + a 4 e + a 1 e + a 2 e + a 3 e + a 4 e + a

G|-----------------------------------------------------------------|
D|-----------------------------------------------------------------|
A|-0---0-0-1---0-0-0---0-0-3---0-0-0---0-0-1---0-0-0---------------|
D|-----------------------------------------------------5---3---2---|
   1 e + a 2 e + a 3 e + a 4 e + a 1 e + a 2 e + a 3 e + a 4 e + a

Pre Chorus 0:32
G|-----------------------------------------------------------------|
D|-----------------------------------------------------------------|
A|-5---5---5-5-5-5-4-4-4-4-4-4-4---------------------4-4-4-4-5-5---|
D|---------------------------------5-5-5-5-5-5-5-5-----------------|
   1 + 2 + 3 + 4 + 1 + 2 + 3 + 4 + 1 + 2 + 3 + 4 + 1 + 2 + 3 + 4 +

G|-----------------------------------------------------------------|
D|-----------------------------------------------------------------|
A|---------8---------------7---------------10--------------8-------|
D|-0-0-0-0---------0-0-0-0---------0-0-0-0---------0-0-0-0---------|
   1 e + a 2 e + a 3 e + a 4 e + a 1 e + a 2 e + a 3 e + a 4 e + a

G|-----------------------------------------------------------------|
D|-----------------------------------------------------------------|
A|-5---5-5-5-5-5-5-4-4-4-4-4-4-4-4-------------------4-4-4-4-5-5-5-|
D|---------------------------------5-5-5-5-5-5-5-5-----------------|
   1 + 2 + 3 + 4 + 1 + 2 + 3 + 4 + 1 + 2 + 3 + 4 + 1 + 2 + 3 + 4 +

G|-----------------------------------------------------------------|
D|-----------------------------------------------------------------|
A|---------8---------------7---------------10--------------8-------|
D|-0-0-0-0---------0-0-0-0---------0-0-0-0---------0-0-0-0---------|
   1 e + a 2 e + a 3 e + a 4 e + a 1 e + a 2 e + a 3 e + a 4 e + a

Chorus 0:48
G|-----------------------------------------------------------------|
D|-----------------------------------------------------------------|
A|-5---5-----5-5-1-3---3-3---3-1-----1-1---1-1-1-1-3-1-0-1-0-1-1-3-|
D|-----------------------------------------------------------------|
   1 + 2 + 3 + 4 + 1 + 2 + 3 + 4 + 1 + 2 + 3 + 4 + 1 + 2 + 3 + 4 +

G|-----------------------------------------------------------------|
D|-----------------------------------------------------------------|
A|-5---5---5-5-5-5-3-3-3-3---3-1-----1-1-1-1-1-1-1-----------------|
D|-------------------------------------------------000-0-0-000-000-|
   1 + 2 + 3 + 4 + 1 + 2 + 3 + 4 + 1 + 2 + 3 + 4 + 1 + 2 + 3 + 4 +

G|-----------------------------------------------------------------|
D|-----------------------------------------------------------------|
A|-5---5-----5-5-1-3---3-3---3-1-----1-1---1-1-1-1-3-1-0-1-0-1-1-3-|
D|-----------------------------------------------------------------|
   1 + 2 + 3 + 4 + 1 + 2 + 3 + 4 + 1 + 2 + 3 + 4 + 1 + 2 + 3 + 4 +

G|-----------------------------------------------------------------|
D|-----------------------------------------------------------------|
A|-5---5-----5-5---3-3-3-3---3-1-----1-1-1-1-1-1-1-1-1-1-1-1-1-1-1-|
D|-----------------------------------------------------------------|
   1 + 2 + 3 + 4 + 1 + 2 + 3 + 4 + 1 + 2 + 3 + 4 + 1 + 2 + 3 + 4 +

Interlude 1:10
G|-------------------------------------------------------------------|
D|o-----------------------------------------------------------------o|
A|o-----------------------------------------------------------------o|
D|--000-0-0-0---0---0-5-----0-8-----000-0-0-0---0---0-5-----0-8------|
    1 + 2 + 3 + 4 + 1 + 2 + 3 + 4 + 1 + 2 + 3 + 4 + 1 + 2 + 3 + 4 +

rest

1:24
G|-----------------------------------------------------------------------|
D|-----------------------------------------------------------------------|
A|-0---0-3-33-33-------------------------3-33-33-------------------------|
D|---------------5-55-55-3-33-33-5-55-55---------5-55-55-3-33-33-5-55-55-|
   + 4 + 1 + 2 + 3 + 4 + 1 + 2 + 3 + 4 + 1 + 2 + 3 + 4 + 1 + 2 + 3 + 4 +

G|-----------------------------------------------------------------|
D|-----------------------------------------------------------------|
A|-----------------0-00-00-2-22-22-3-33-33-7-77-77-0-00-00---------|
D|-3-33-33-5-55-55-----------------------------------------5-55-55-|
   1 + 2 + 3 + 4 + 1 + 2 + 3 + 4 + 1 + 2 + 3 + 4 + 1 + 2 + 3 + 4 +

Verse 1:36
G|-------------------------------------------------------------------|
D|o-----------------------------------------------------------------o|
A|o-0---0-0-1---0-0-0---0-0-3---0-0-0---0-0-1---0-0-0-0-0-------0-0-o|x3
D|-------------------------------------------------------------------|
    1 e + a 2 e + a 3 e + a 4 e + a 1 e + a 2 e + a 3 e + a 4 e + a

G|-----------------------------------------------------------------|
D|-----------------------------------------------------------------|
A|-0---0-0-1---0-0-0---0-0-3---0-0-0---0-0-1---0-0-0---------------|
D|-----------------------------------------------------5---3---2---|
   1 e + a 2 e + a 3 e + a 4 e + a 1 e + a 2 e + a 3 e + a 4 e + a

Pre Chorus 1:46
G|-----------------------------------------------------------------|
D|-----------------------------------------------------------------|
A|-5---5---5-5-5-5-4-4-4-4-4-4-4---------------------4-4-4-4-5-5---|
D|---------------------------------5-5-5-5-5-5-5-5-----------------|
   1 + 2 + 3 + 4 + 1 + 2 + 3 + 4 + 1 + 2 + 3 + 4 + 1 + 2 + 3 + 4 +

G|-----------------------------------------------------------------|
D|-----------------------------------------------------------------|
A|---------8---------------7---------------10--------------8-------|
D|-0-0-0-0---------0-0-0-0---------0-0-0-0---------0-0-0-0---------|
   1 e + a 2 e + a 3 e + a 4 e + a 1 e + a 2 e + a 3 e + a 4 e + a

G|-----------------------------------------------------------------|
D|-----------------------------------------------------------------|
A|-5---5-5-5-5-5-5-4-4-4-4-4-4-4-4-------------------4-4-4-4-5-5-5-|
D|---------------------------------5-5-5-5-5-5-5-5-----------------|
   1 + 2 + 3 + 4 + 1 + 2 + 3 + 4 + 1 + 2 + 3 + 4 + 1 + 2 + 3 + 4 +

G|-----------------------------------------------------------------|
D|-----------------------------------------------------------------|
A|---------8---------------7---------------10--------------8-------|
D|-0-0-0-0---------0-0-0-0---------0-0-0-0---------0-0-0-0---------|
   1 e + a 2 e + a 3 e + a 4 e + a 1 e + a 2 e + a 3 e + a 4 e + a

Chorus 2:02
G|-----------------------------------------------------------------|
D|-----------------------------------------------------------------|
A|-5---5-----5-5-1-3-3-3-3---3-1-----1-1---1-1-1-1-1-1-1-1-1-1-1-1-|
D|-----------------------------------------------------------------|
   1 + 2 + 3 + 4 + 1 + 2 + 3 + 4 + 1 + 2 + 3 + 4 + 1 + 2 + 3 + 4 +

G|-------------------------------------------------------------------------------------------------|
D|---------------------------------------------5-5-5-5---------------------------------------------|
A|-5-5-5-5-5-5-5-5-7-7-7-7-7-7-8-8-8-8-8-8-8-8---------1-1-1-1-1-1-0-------------------------------|
D|-------------------------------------------------------------------------------------------------|
   1 + 2 + 3 + 4 + 1 + 2 + 3 + 4 + 1 + 2 + 3 + 4 + 1 + 2 + 3 + 4 + 1 + 2 + 3 + 4 + 1 + 2 + 3 + 4 +

G|-----------------------------------------------------------------|
D|-----------------------------------------------------------------|
A|-5---5-----5-5-1-3-3-3-3---3-1-----1-1-1-1-1-1-1-1-1-1-1-1-1-1-1-|
D|-----------------------------------------------------------------|
   1 + 2 + 3 + 4 + 1 + 2 + 3 + 4 + 1 + 2 + 3 + 4 + 1 + 2 + 3 + 4 +

G|-----------------------------------------------------------------|
D|---------------------------------------------5-5-5-5-------------|
A|-5-5-5-5-5-5-5-5-7-7-7-7-7-7-8-8-8-8-8-8-8-8---------1-1-1-1-0---|
D|-----------------------------------------------------------------|
   1 + 2 + 3 + 4 + 1 + 2 + 3 + 4 + 1 + 2 + 3 + 4 + 1 + 2 + 3 + 4 + 

G|-----------------------------------------------------------------|
D|-----------------------------------------------------------------|
A|-5-----------5---3-----3-----1-----------------------------------|
D|-----------------------------------------------------------------|
   1 + 2 + 3 + 4 + 1 + 2 + 3 + 4 + 1 + 2 + 3 + 4 + 1 + 2 + 3 + 4 +

Breakdown 2:33
G|-----------------------------------------------------------------|
D|-----------------------------------------------------------------|
A|-----------------------------------------------------------------|
D|-000-0-0-0-------000-0-0-0-------000-0-0-0-------------/-8-------|
   1 + 2 + 3 + 4 + 1 + 2 + 3 + 4 + 1 + 2 + 3 + 4 + 1 + 2 + 3 + 4 +

G|-------------------------------------------------------------------|
D|o-----------------------------------------------------------------o|
A|o-----------------------------------------------------------------o|
D|--000-0-0-0-------000-0-0-0-------000-0-0-0------------------------|
    1 + 2 + 3 + 4 + 1 + 2 + 3 + 4 + 1 + 2 + 3 + 4 + 1 + 2 + 3 + 4 +

2:49
G|-------------------------------------------------------------------|
D|o-----------------------------------------------------------------o|
A|o-----------------------------------------------------------------o|
D|--000-0-0-0---0---0-5-----0-8-----000-0-0-0---0---0-5-----0-8------|
    1 + 2 + 3 + 4 + 1 + 2 + 3 + 4 + 1 + 2 + 3 + 4 + 1 + 2 + 3 + 4 +

Bridge 3:00
G|-----------------------------------------------------------------|
D|-----------------------------------------------------------------|
A|-----------------------------0-----0-0-0-0-0-0-0-2-2-2---2-2-2---|
D|-3-3-3-3-3-3-3-3-5-5-5-5-5-5-------------------------------------|
   1 + 2 + 3 + 4 + 1 + 2 + 3 + 4 + 1 + 2 + 3 + 4 + 1 + 2 + 3 + 4 +

G|-----------------------------------------------------------------|
D|-----------------------------------------------------------------|
A|-3-3-3-3-3-3-3-3-7-7-7-7-7-7-0-0-0-0-0-0-0-0---------------------|
D|---------------------------------------------5-5-5-5-5-5-5-5-5-5-|
   1 + 2 + 3 + 4 + 1 + 2 + 3 + 4 + 1 + 2 + 3 + 4 + 1 + 2 + 3 + 4 +

G|-----------------------------------------------------------------|
D|-----------------------------------------------------------------|
A|-----------------------------0-----0-0---0-0-0---2-2-2---2-2-2---|
D|-3-3-3-3-3-3-3-3-5-5-5-5-5-5-------------------------------------|
   1 + 2 + 3 + 4 + 1 + 2 + 3 + 4 + 1 + 2 + 3 + 4 + 1 + 2 + 3 + 4 +

G|-----------------------------------------------------------------|
D|-----------------------------------------------------------------|
A|-3---3-3-3-3-3-3-7-7-7-7-7-7-0-----0-0-0-0-0---------------------|
D|---------------------------------------------5-5-5-5-5-5-5-5-5-5-|
   1 + 2 + 3 + 4 + 1 + 2 + 3 + 4 + 1 + 2 + 3 + 4 + 1 + 2 + 3 + 4 +

3:22
G|-----------------------------------------------------------------|
D|-----------------------------------------------------------------|
A|-----------------------------0-----0-0-0-0-0-0-0-2-2-2-2-2-2-2-2-|
D|-3---3-3-3-3-3-3-5-5-5-5-5-5-------------------------------------|
   1 + 2 + 3 + 4 + 1 + 2 + 3 + 4 + 1 + 2 + 3 + 4 + 1 + 2 + 3 + 4 +

G|-----------------------------------------------------------------|
D|-----------------------------------------------------------------|
A|-3-3-3-3-3-3-3-3-7-7-7-7-7-7-0-----0-0-0-0-0---------------------|
D|---------------------------------------------5-5-5-5-5-5-5-5-5-5-|
   1 + 2 + 3 + 4 + 1 + 2 + 3 + 4 + 1 + 2 + 3 + 4 + 1 + 2 + 3 + 4 +

3:33
G|-----------------------------------------------------------------|
D|-----------------------------------------------------------------|
A|-----------------------------0-0-0-0-0-0-0-0-0-0-2-2-2-2-2-2-2-2-|
D|-3-3-3-3-3-3-3-3-5-5-5-5-5-5-------------------------------------|
   1 + 2 + 3 + 4 + 1 + 2 + 3 + 4 + 1 + 2 + 3 + 4 + 1 + 2 + 3 + 4 +

G|---------------------------------|
D|---------------------------------|
A|-3-3-3-3-3-3-3-3-7-7-7-7-7-7-7-7-|
D|---------------------------------|
   1 + 2 + 3 + 4 + 1 + 2 + 3 + 4 + 

Solo 3:41
G|-------------------------------------------------------------------|
D|o-----------------------------------------------------------------o|
A|o-0---0-0-1---0-0-0---0-0-3---0-0-0---0-0-1---0-0-0-0-0-------0-0-o|x3
D|-------------------------------------------------------------------|
    1 e + a 2 e + a 3 e + a 4 e + a 1 e + a 2 e + a 3 e + a 4 e + a

G|-----------------------------------------------------------------|
D|-----------------------------------------------------------------|
A|-0---0-0-1---0-0-0---0-0-3---0-0-0---0-0-1---0-0-0---------------|
D|-----------------------------------------------------5---3---2---|
   1 e + a 2 e + a 3 e + a 4 e + a 1 e + a 2 e + a 3 e + a 4 e + a

3:52
G|-----------------------------------------------------------------|
D|-----------------------------------------------------------------|
A|-5---5---5-5-5-5-4-4-4-4-4-4-4-4-------------------4-4-4-4-5-5---|
D|---------------------------------5-5-5-5-5-5-5-5-----------------|
   1 + 2 + 3 + 4 + 1 + 2 + 3 + 4 + 1 + 2 + 3 + 4 + 1 + 2 + 3 + 4 +

Rest

Chorus 4:00
G|-------------------------------------------------------------------------|
D|-------------------------------------------------------------------------|
A|-1--1--1-5---5-----5-5-1-3-3-3-3---3-1-----1-1-1-1-1-1-1-1-1-1---1-1-1-1-|
D|-------------------------------------------------------------------------|
   Triplet 1 + 2 + 3 + 4 + 1 + 2 + 3 + 4 + 1 + 2 + 3 + 4 + 1 + 2 + 3 + 4 +

G|-------------------------------------------------------------------------------------------------|
D|---------------------------------------------5-5-5-5---------------------------------------------|
A|-5-5-5-5-5-5-5-5-7-7-7-7-7-7-8-8-8-8-8-8-8-8---------1-1-1-1-1-1-0-0-0-0-0-0-0-0-0-0-0-0-0-0-0-0-|
D|-------------------------------------------------------------------------------------------------|
   1 + 2 + 3 + 4 + 1 + 2 + 3 + 4 + 1 + 2 + 3 + 4 + 1 + 2 + 3 + 4 + 1 + 2 + 3 + 4 + 1 + 2 + 3 + 4 +

G|-----------------------------------------------------------------|
D|-----------------------------------------------------------------|
A|-5---5-----5-5-1-3-3-3-3---3-1-----1-1---1-1-1-1-1-1-1---1-1-1-1-|
D|-----------------------------------------------------------------|
   1 + 2 + 3 + 4 + 1 + 2 + 3 + 4 + 1 + 2 + 3 + 4 + 1 + 2 + 3 + 4 +

G|-----------------------------------------------------------------|
D|---------------------------------------------5-5-5-5-------------|
A|-5-5-5-5-5-5-5-5-7-7-7-7-7-7-8-8-8-8-8-8-8-8---------1-1-1-1-0---|
D|-----------------------------------------------------------------|
   1 + 2 + 3 + 4 + 1 + 2 + 3 + 4 + 1 + 2 + 3 + 4 + 1 + 2 + 3 + 4 + 

G|-----------------------------------------------------------------|
D|-----------------------------------------------------------------|
A|-5-----------5---3-----3-----1-----------------------------------|
D|-----------------------------------------------------------------|
   1 + 2 + 3 + 4 + 1 + 2 + 3 + 4 + 1 + 2 + 3 + 4 + 1 + 2 + 3 + 4 +

Outro 4:30
G|-----------------------------------------------------------------|
D|-----------------------------------------------------------------|
A|---------------------------------0-0-0-0-0-0-1-----1-1-1-1-1-1-1-|
D|-5-5-5-5-5-5-3-----3-3-3-3---3-3---------------------------------|
   1 + 2 + 3 + 4 + 1 + 2 + 3 + 4 + 1 + 2 + 3 + 4 + 1 + 2 + 3 + 4 +

G|-----------------------------------------------------------------|
D|-----------------------------------------------------------------|
A|-----------------------------------------------------------------|
D|-5-5-5-5-5-5-3-----3-3-3-3---3-3-0-------------------------------|
   1 + 2 + 3 + 4 + 1 + 2 + 3 + 4 + 1 + 2 + 3 + 4 + 1 + 2 + 3 + 4 +

4:42
G|-----------------------------------------------------------------|
D|-----------------------------------------------------------------|
A|---------------------------------0-0-0-0-0-0-1-----1-1-1-1-1-1-1-|
D|-5-5-5-5-5-5-3-----3-3-3-3---3-3---------------------------------|
   1 + 2 + 3 + 4 + 1 + 2 + 3 + 4 + 1 + 2 + 3 + 4 + 1 + 2 + 3 + 4 +

G|-----------------------------------------------------------------|
D|-----------------------------------------------------------------|
A|-5---5-5---5-3-3-3-3-3-3-3-3-3-3-0-----0-----1-------------------|
D|-----------------------------------------------------------------|
   1 + 2 + 3 + 4 + 1 + 2 + 3 + 4 + 1 + 2 + 3 + 4 + 1 + 2 + 3 + 4 +

ReTabbed by Dave Vucko

--------------------------------------------------------------------------------------

Blinded In Chains

G|---------------------------------------------------------------------------------------|
D|o-------------------------------------------------------------------------------------o|
A|o-------------------------------------------------------------------------------------o|
D|--0-0-0-0-0-0-0---0-0-0-0-0-0-0---0-0-0-0---0-0-0-0-0-0-0---0-0-0-0-0-0-0---0-0-0-0----|
    Tripl Tripl 3 + Tripl Tripl 2 + Tripl 4 + Tripl Tripl 3 + Tripl Tripl 2 + Tripl 4 + 

0:09
G|-----------------------------------------------------------------|
D|-----------------------------------------------------------------|
A|---------------------------------1-1-1---1---1---1---1---1---1---|
D|-0---0---0---0---0---0---0---0-----------------------------------|
   1 + 2 + 3 + 4 + 1 + 2 + 3 + 4 + 1 + 2 + 3 + 4 + 1 + 2 + 3 + 4 +

G|-----------------------------------------------------------------|
D|-----------------------------------------------------------------|
A|---------------------------------3-3-3-3-3-3-3-3-3-3-3-3-3-3-3-3-|
D|-5-5-5---5---5---3---3---3---3-----------------------------------|
   1 + 2 + 3 + 4 + 1 + 2 + 3 + 4 + 1 + 2 + 3 + 4 + 1 + 2 + 3 + 4 +

G|-----------------------------------------------------------------|
D|-----------------------------------------------------------------|
A|---------------------------------1-1-1-1-1-1-1-1-1-1-1-1-1-1-1-1-|
D|-0-0-0-0-0-0-0-0-0-0-0-0-0-0-0-0---------------------------------|
   1 + 2 + 3 + 4 + 1 + 2 + 3 + 4 + 1 + 2 + 3 + 4 + 1 + 2 + 3 + 4 +

G|-----------------------------------------------------------------|
D|-----------------------------------------------------------------|
A|-----5-------5-------3-------3---3-3-3-3-3-3-3-3-3-3-3-3-3-3-3-3-|
D|-5-5---5-5-5---5-3-3---3-3-3---3---------------------------------|
   1 + 2 + 3 + 4 + 1 + 2 + 3 + 4 + 1 + 2 + 3 + 4 + 1 + 2 + 3 + 4 +

Rest

0:34
G|-----------------------------------------------------------------|
D|-----------------------------------------------------------------|
A|-----------------------------------------------------------------|
D|-0-0---0-0-0---0-0-0---0-6-6-6-6-0-0---0-0-0---0-0---------------|
   1 + 2 + 3 + 4 + 1 + 2 + 3 + 4 + 1 + 2 + 3 + 4 + 1 + 2 + 3 + 4 +

G|-----------------------------------------------------------------|
D|-----------------------------------------------------------------|
A|-------------------------1-1-1-1-------------------------1-------|
D|-5-0-0-0-4-0-0-0-5-0-0-0---------5-0-0-0-4-0-0-0-4-1-1-1---4-4-4-|
   1 + 2 + 3 + 4 + 1 + 2 + 3 + 4 + 1 + 2 + 3 + 4 + 1 + 2 + 3 + 4 +

G|-----------------------------------------------------------------|
D|-----------------------------------------------------------------|
A|-------------------------1-1-1-1-------------------------1-------|
D|-5-0-0-0-4-0-0-0-5-0-0-0---------5-0-0-0-4-0-0-0-4---1-1-----4---|
   1 + 2 + 3 + 4 + 1 + 2 + 3 + 4 + 1 + 2 + 3 + 4 + 1 + 2 + 3 + 4 +

Verse 0:49
G|-----------------------------------------------------------------|
D|-----------------------------------------------------------------|
A|-----------------------------------------------------------------|
D|-0-0---0-0-0---0-0-0---0-6-6-6-6-0-0---0-0-0---0-0-0---0-4-4-4-4-|
   1 + 2 + 3 + 4 + 1 + 2 + 3 + 4 + 1 + 2 + 3 + 4 + 1 + 2 + 3 + 4 +

G|-----------------------------------------------------------------|
D|-----------------------------------------------------------------|
A|-----------------------------------------------------------------|
D|-0-0---0-0-0---0-0-0---0-6-6-6-6-0-0---0-0-0---0-0-0---0-444-111-|
   1 + 2 + 3 + 4 + 1 + 2 + 3 + 4 + 1 + 2 + 3 + 4 + 1 + 2 + 3 + 4 +

G|-----------------------------------------------------------------|
D|-----------------------------------------------------------------|
A|-----------------------------------------------------------------|
D|-0-0---0-0-0---0-0-0---0-6-6-6-6-0-0---0-0-0---0-0-0---0-4-4-4-4-|
   1 + 2 + 3 + 4 + 1 + 2 + 3 + 4 + 1 + 2 + 3 + 4 + 1 + 2 + 3 + 4 +

G|-----------------------------------------------------------------|
D|-----------------------------------------------------------------|
A|---------------------------------------------------------111-----|
D|-0-0---0-0-0---0-0-0---0-6-6-6-6-0-0---0-0-0---0-444-111-----444-|
   1 + 2 + 3 + 4 + 1 + 2 + 3 + 4 + 1 + 2 + 3 + 4 + 1 + 2 + 3 + 4 +

Chorus 1:09
G|-----------------------------------------------------------------|
D|-----------------------------------------------------------------|
A|-------------------------------1---1-1---1-1-1-3---3-3-3-3-3-3-3-|
D|-0-6-5-0-3-5---0---6-5-0-3-5-------------------------------------|
   1 + 2 + 3 + 4 + 1 + 2 + 3 + 4 + 1 + 2 + 3 + 4 + 1 + 2 + 3 + 4 +

G|-----------------------------------------------------------------|
D|-----------------------------------------------------------------|
A|-------------------------------1---1-1---1-1-1-3---3-3-7-7-7-7-7-|
D|-0-6-5-0-3-5---0---6-5-0-3-5-------------------------------------|
   1 + 2 + 3 + 4 + 1 + 2 + 3 + 4 + 1 + 2 + 3 + 4 + 1 + 2 + 3 + 4 +

Interlude 1:19
G|-----------------------------------------------------------------|
D|-----------------------------------------------------------------|
A|-5---5---5---5---------------------------------------------------|
D|-----------------2---2---2---2---3-----3---/-8-------------------|
   1 + 2 + 3 + 4 + 1 + 2 + 3 + 4 + 1 + 2 + 3 + 4 + 1 + 2 + 3 + 4 +

G|-----------------------------------------------------------------|
D|-----------------------------------------------------------------|
A|-5-5-5-5-5-5-5-5-----------------0-----0-----1-------------------|
D|-----------------2-2-2-2-2-2-2-2---------------------------------|
   1 + 2 + 3 + 4 + 1 + 2 + 3 + 4 + 1 + 2 + 3 + 4 + 1 + 2 + 3 + 4 +

Verse 1:29
G|-----------------------------------------------------------------|
D|-----------------------------------------------------------------|
A|-----------------------------------------------------------------|
D|-0-0---0-0-0---0-0-0---0-6-6-6-6-0-0---0-0-0---0-0-0---0-4-4-4-4-|
   1 + 2 + 3 + 4 + 1 + 2 + 3 + 4 + 1 + 2 + 3 + 4 + 1 + 2 + 3 + 4 +

G|-----------------------------------------------------------------|
D|-----------------------------------------------------------------|
A|-----------------------------------------------------------------|
D|-0-0---0-0-0---0-0-0---0-6-6-6-6-0-0---0-0-0---0-0-0---0-444-111-|
   1 + 2 + 3 + 4 + 1 + 2 + 3 + 4 + 1 + 2 + 3 + 4 + 1 + 2 + 3 + 4 +

G|-----------------------------------------------------------------|
D|-----------------------------------------------------------------|
A|-----------------------------------------------------------------|
D|-0-0---0-0-0---0-0-0---0-6-6-6-6-0-0---0-0-0---0-0-0---0-4-4-4-4-|
   1 + 2 + 3 + 4 + 1 + 2 + 3 + 4 + 1 + 2 + 3 + 4 + 1 + 2 + 3 + 4 +

G|-----------------------------------------------------------------|
D|-----------------------------------------------------------------|
A|---------------------------------------------------------111-----|
D|-0-0---0-0-0---0-0-0---0-6-6-6-6-0-0---0-0-0---0-444-111-----444-|
   1 + 2 + 3 + 4 + 1 + 2 + 3 + 4 + 1 + 2 + 3 + 4 + 1 + 2 + 3 + 4 +

1:49
G|-----------------------------------------------------------------|
D|-----------------------------------------------------------------|
A|-----------------------------------------------------------------|
D|-0-0---0-0-0---0-0-0---0-6-6-6-6-0-0---0-0-0---0-0-0---0-4-4-4-4-|
   1 + 2 + 3 + 4 + 1 + 2 + 3 + 4 + 1 + 2 + 3 + 4 + 1 + 2 + 3 + 4 +

G|-----------------------------------------------------------------|
D|-----------------------------------------------------------------|
A|-----------------------------------------------------------------|
D|-0-0---0-0-0---0-0-0---0-6-6-6-6-0-0---0-0-0---0-0-0---0-444-111-|
   1 + 2 + 3 + 4 + 1 + 2 + 3 + 4 + 1 + 2 + 3 + 4 + 1 + 2 + 3 + 4 +

Chorus 1:58
G|-------------------------------------------------------------------|
D|o-----------------------------------------------------------------o|
A|o-------------------------------1---1-1---1-1-1-3---3-3-3-3-3-3-3-o|
D|--0-6-5-0-3-5---0---6-5-0-3-5--------------------------------------|
    1 + 2 + 3 + 4 + 1 + 2 + 3 + 4 + 1 + 2 + 3 + 4 + 1 + 2 + 3 + 4 +

2:09
G|-----------------------------------------------------------------|
D|-----------------------------------------------------------------|
A|-----------------------1---1-1-1-0-0-0-0-0-0-0-0-1-0-------0-----|
D|-0-0---3---3---5---5-----------------------------------5-----5-3-|
   1 + 2 + 3 + 4 + 1 + 2 + 3 + 4 + 1 + 2 + 3 + 4 + 1 + 2 + 3 + 4 +

G|-----------------------------------------------------------------|
D|-----------------------------------------------------------------|
A|-------------------------1-1-1-1-0-0-0-0-0-0-0-0-0-0-0-0-0-0-0-0-|
D|-0-0---3---3---5---5---5-----------------------------------------|
   1 + 2 + 3 + 4 + 1 + 2 + 3 + 4 + 1 + 2 + 3 + 4 + 1 + 2 + 3 + 4 +

2:19
G|-------------------------------------------------------------------|
D|o-----------------------------------------------------------------o|
A|o-5---5---5---5---1---1---1---1---0---0---0---0---4---4---4---4---o|
D|-------------------------------------------------------------------|
    1 + 2 + 3 + 4 + 1 + 2 + 3 + 4 + 1 + 2 + 3 + 4 + 1 + 2 + 3 + 4 +

Interlude 2:29
G|------------------------------------------------------------------|
D|o-----------------------------------------------------------------|
A|o-5---5---5---5---------------------------------------------------|
D|------------------2---2---2---2---3-3-3-3---/-8-----8-8-8-8-8-8-8-|
    1 + 2 + 3 + 4 + 1 + 2 + 3 + 4 + 1 + 2 + 3 + 4 + 1 + 2 + 3 + 4 +

G|------------------------------------------------------------------|
D|-----------------------------------------------------------------o|
A|-5-5-5-5-5-5-5-5-----------------0-0-0-0-----1-----0-1-0-1-3-----o|
D|-----------------2-2-2-2-2-2-2-2----------------------------------|
   1 + 2 + 3 + 4 + 1 + 2 + 3 + 4 + 1 + 2 + 3 + 4 + 1 + 2 + 3 + 4 +

2:49
G|---------------------------------------------------------------------------|
D|---------------------------------------------------------------------------|
A|---------------------------------------------------------------------------|
D|-0-0-0-0-0-0-0---0-0-0-0-0-0-0---0-0-0-0-----------------------------------|
   Tripl Tripl 3 + Tripl Tripl 2 + Tripl 4 + 1 + 2 + 3 + 4 + 1 + 2 + 3 + 4 +

Bridge 2:54
G|--------------------------------------------------------------------------------------|
D|o-------------------------------------------------------------------------------------|
A|o-------------------------------------------1-1-1-1-1-1-1---1-1-1-1-1-1-1---1-1-1-1---|
D|--0-0-0-0-0-0-0---0-0-0-0-0-0-0---0-0-0-0---------------------------------------------|
    Tripl Tripl 3 + Tripl Tripl 2 + Tripl 4 + Tripl Tripl 3 + Tripl Tripl 2 + Tripl 4 + 

G|--------------------------------------------------------------------------------------|
D|-------------------------------------------------------------------------------------o|
A|-------------------------------------------------------------------------------------o|
D|-5-5-5-5-5-5-5---5-5-5-3-3-3-3---3-3-3-3---2-2-2-2-2-2-2---2-2-2-2-2-2-2---2-2-2-2----|
   Tripl Tripl 3 + Tripl Tripl 2 + Tripl 4 + Tripl Tripl 3 + Tripl Tripl 2 + Tripl 4 + 

3:13
G|-----------------------------------------------------------------|
D|-----------------------------------------------------------------|
A|---------------------------------1-----------1---5---3---1-------|
D|-0-----------0---0-------0---0-----------------------------------|
   1 + 2 + 3 + 4 + 1 + 2 + 3 + 4 + 1 + 2 + 3 + 4 + 1 + 2 + 3 + 4 +

G|-----------------------------------------------------------------|
D|-----------------------------------------------------------------|
A|-----------------------------------------------------------------|
D|-5---------------3---------------2-------------------------------|
   1 + 2 + 3 + 4 + 1 + 2 + 3 + 4 + 1 + 2 + 3 + 4 + 1 + 2 + 3 + 4 +

3:24
G|------------------------------------------------------------------|
D|o-----------------------------------------------------------------|
A|o---------------------------------1-1-1-1-1-1-1-1-1-1-1-1-1-1-1-1-|
D|--0-0-0-0-0-0-0-0-0-0-0-0-0-0-0-0---------------------------------|
    1 + 2 + 3 + 4 + 1 + 2 + 3 + 4 + 1 + 2 + 3 + 4 + 1 + 2 + 3 + 4 +

G|------------------------------------------------------------------|
D|-----------------------------------------------------------------o|
A|-----5-------5-------3-------3---3-3-3-3-3-3-3-3-3-3-3-3-3-3-3-3-o|
D|-5-5---5-5-5---5-3-3---3-3-3---3----------------------------------|
   1 + 2 + 3 + 4 + 1 + 2 + 3 + 4 + 1 + 2 + 3 + 4 + 1 + 2 + 3 + 4 +

3:43
G|------------------------------------------------------------------|
D|o-----------------------------------------------------------------|
A|o-----------------------------------------------------------------|
D|--0-0-0-0-0-0-0-0-0-0-0-0-0-0-0-0-3-3-3-3-3-3-3-3-4-4-4-4-4-4-4-4-|
    1 + 2 + 3 + 4 + 1 + 2 + 3 + 4 + 1 + 2 + 3 + 4 + 1 + 2 + 3 + 4 +

G|-----------------------------------------------------------------|
D|-----------------------------------------------------------------|
A|---------------------------------1-1-1-1-1-1-1-1-1-1-1-1-1-1-1-1-|
D|-5-5-5-5-5-5-5-5-5-5-5-5-5-5-5-5---------------------------------|
   1 + 2 + 3 + 4 + 1 + 2 + 3 + 4 + 1 + 2 + 3 + 4 + 1 + 2 + 3 + 4 +

G|------------------------------------------------------------------|
D|-----------------------------------------------------------------o|
A|-4-1-1-1-1-1-1-1-4---3---1-1-3-1-----------------0-0-0-0-4-4-4-4-o|
D|---------------------------------3-3-3-3-3-3-3-3------------------|
   1 + 2 + 3 + 4 + 1 + 2 + 3 + 4 + 1 + 2 + 3 + 4 + 1 + 2 + 3 + 4 +

4:14
G|-------------------------------------------------------------------------------------------------|
D|-------------------------------------------------------------------------------------------------|
A|-------------------------------1---1-1---1---1-3---3-3-3-3-3-3-3-1-1-1-1-1-1-1-0-0-0-0-4-4-4-4-4-|
D|-0-r---------------------------------------5-----------------------------------------------------|
   1 + 2 + 3 + 4 + 1 + 2 + 3 + 4 + 1 + 2 + 3 + 4 + 1 + 2 + 3 + 4 + 1 + 2 + 3 + 4 + 1 + 2 + 3 + 4 +

Chorus 4:22
G|-------------------------------------------------------------------|
D|o-----------------------------------------------------------------o|
A|o-------------------------------1---1-1---1---1-3---3-3-3-3-3-3-3-o|
D|--0-6-5-0-3-5---0---6-5-0-3-5---------------5----------------------|
    1 + 2 + 3 + 4 + 1 + 2 + 3 + 4 + 1 + 2 + 3 + 4 + 1 + 2 + 3 + 4 +

4:31
G|-----------------------------------------------------------------|
D|-----------------------------------------------------------------|
A|-----------------------1---1-1-1-0-0-0-0-0-0-0-0-1-0-------0-----|
D|-0-0---3---3---5---5-----------------------------------5-----5-3-|
   1 + 2 + 3 + 4 + 1 + 2 + 3 + 4 + 1 + 2 + 3 + 4 + 1 + 2 + 3 + 4 +

G|-----------------------------------------------------------------|
D|-----------------------------------------------------------------|
A|-----------------------1---1-1-1-0-0-0-0-0-0-0-0-0-0-0-0-0-0-0-0-|
D|-0-0---3---3---5---5---------------------------------------------|
   1 + 2 + 3 + 4 + 1 + 2 + 3 + 4 + 1 + 2 + 3 + 4 + 1 + 2 + 3 + 4 +

4:41
G|-----------------------------------------------------------------------|
D|-7-8-7----7--------7-8-7----7--------7--------7--------------2-5-3-2-5-|
A|-------10---10-8-7-------10---10-8-7---10-8-7---10-8-7-3-0-3-----------|
D|-----------------------------------------------------------------------|
   1 + 2 +  3 +  4 + 1 + 2 +  3 +  4 + 1 +  2 + 3 +  4 + 1 + 2 + 3 + 4 +

G|---------------------------------------------------------|
D|---------------------------------------------------------|
A|-5-----555-----------------------------------------------|
D|-----------------0---------------------------------------|
   1 + 2 + 3 + 4 + 1 + 2 + 3 + 4 + 1 + 2 + 3 + 4 + 1 + 2 + 

4:51 Bass Solo + Outro
G|-------------------------------------------------------------------|
D|o---------------------3---3---------------------------------------o|
A|o-5-----------------5---5---5---5-5---------------5-------4-------o|x3
D|----0-3-5-6-5-3-0-6-----------6-----0-3-5-6-5-3-0---3-3-3---2-2-2--|
    1 + 2 + 3 + 4 + 1 + 2 + 3 + 4 + 1 + 2 + 3 + 4 + 1 + 2 + 3 + 4 +

G|-----------------------------------------------------------------|
D|---------------------3---3---------------------------------------|
A|-5-----------------5---5---5---5-5-------------------------------|
D|---0-3-5-6-5-3-0-6-----------6-----0-3-5-6-5-3-0-3-3-3-3-2-2-2-2-|
   1 + 2 + 3 + 4 + 1 + 2 + 3 + 4 + 1 + 2 + 3 + 4 + 1 + 2 + 3 + 4 +

G|-----------------------------------------------------------------|
D|---------------------3---3---------------------------------------|
A|-5-----------------5---5---5---5-5---------------5-------4-------|
D|---0-3-5-6-5-3-0-6-----------6-----0-3-5-6-5-3-0---3-3-3---2-2-2-|
   1 + 2 + 3 + 4 + 1 + 2 + 3 + 4 + 1 + 2 + 3 + 4 + 1 + 2 + 3 + 4 +

5:23
G|-----------------------------------------------------------------|
D|-----------------------------------------------------------------|
A|-----------------------------------------------------------------|
D|-0---------------------------------------------------------------|
   1 + 2 + 3 + 4 + 1 + 2 + 3 + 4 + 1 + 2 + 3 + 4 + 1 + 2 + 3 + 4 +

G|-----------------------------------------------------------------|
D|-----------------------------------------------------------------|
A|-0---------------------------------------------------------------|
D|-----------------------------------------------------------------|
   1 + 2 + 3 + 4 + 1 + 2 + 3 + 4 + 1 + 2 + 3 + 4 + 1 + 2 + 3 + 4 +

G|-----------------------------------------------------------------|
D|-----------------------------------------------------------------|
A|-1---------------------------------------------------------------|
D|-----------------------------------------------------------------|
   1 + 2 + 3 + 4 + 1 + 2 + 3 + 4 + 1 + 2 + 3 + 4 + 1 + 2 + 3 + 4 +

G|---------------------------------|
D|---------------------------------|
A|-5-5-5-5-5-5-5-5-7-7-7-7-7-7-7-7-|
D|---------------------------------|
   1 + 2 + 3 + 4 + 1 + 2 + 3 + 4 + 

5:45
G|-------------------------------------------------------------------|
D|o---------------------3---3---------------------------------------o|
A|o-5-----------------5---5---5---5-5---------------5-------4-------o|x3
D|----0-3-5-6-5-3-0-6-----------6-----0-3-5-6-5-3-0---3-3-3---2-2-2--|
    1 + 2 + 3 + 4 + 1 + 2 + 3 + 4 + 1 + 2 + 3 + 4 + 1 + 2 + 3 + 4 +

G|-----------------------------------------------------------------|
D|---------------------3---3---------------------------------------|
A|-5-----------------5---5---5---5-5-------------------------------|
D|---0-3-5-6-5-3-0-6-----------6-----0-3-5-6-5-3-0-3-3-3-3-2-2-2-2-|
   1 + 2 + 3 + 4 + 1 + 2 + 3 + 4 + 1 + 2 + 3 + 4 + 1 + 2 + 3 + 4 +

G|-----------------------------------------------------------------|
D|---------------------3---3---------------------------------------|
A|-5-----------------5---5---5---5-5---------------5-------4-------|
D|---0-3-5-6-5-3-0-6-----------6-----0-3-5-6-5-3-0---3-3-3---2-2-2-|
   1 + 2 + 3 + 4 + 1 + 2 + 3 + 4 + 1 + 2 + 3 + 4 + 1 + 2 + 3 + 4 +

G|-------------------------------------------------------------------|
D|o---------------------3---3---------------------------------------o|
A|o-5-----------------5---5---5---5-5-------------------------------o|
D|----0-3-5-6-5-3-0-6-----------6-----0-3-5-6-5-3-0-3-3-3-3-2-2-2-2--|
    1 + 2 + 3 + 4 + 1 + 2 + 3 + 4 + 1 + 2 + 3 + 4 + 1 + 2 + 3 + 4 +

ReTabbed by Dave Vucko

--------------------------------------------------------------------------------------

Bat Country

0:07
G|-----------------------------------------------------------------|
D|-----------------------------------------------------------------|
A|-5---5-5-5-5-5---------------------------------------------------|
D|-----------------6---6-6---6-0-----0-0---0-0-0---5-3-5-6-5-3-0---|
   1 e + a 2 e + a 3 e + a 4 e + a 1 e + a 2 e + a 3 e + a 4 e + a 

G|-----------------------------------------------------------------|
D|-----------------------------------------------------------------|
A|-5---5-5---5-5---------------------------------------------------|
D|-----------------6---6-6---6-0-----0-0---0-0-0---5-3-5-6-5-3-0---|
   1 e + a 2 e + a 3 e + a 4 e + a 1 e + a 2 e + a 3 e + a 4 e + a 

Verse 0:15
G|-------------------------------------------------------------------|
D|o-----------------------------------------------------------------o|
A|o-5---------------------------------------------------------------o|
D|--------------6---------------5---------------3--------------------|
    1 e + a 2 e + a 3 e + a 4 e + a 1 e + a 2 e + a 3 e + a 4 e + a 

G|-----------------------------------------------------------------|
D|-----------------------------------------------------------------|
A|-5-5-5-5-5-5-5-5-------------------------------------------------|
D|-----------------6-6-6-6-6-6-6-6-0-0-0-0-0-0-0-0-0-0-0-0-0-0-0-0-|
   1 e + a 2 e + a 3 e + a 4 e + a 1 e + a 2 e + a 3 e + a 4 e + a 

G|-----------------------------------------------------------------|
D|-----------------------------------------------------------------|
A|-5-5-5-5-5-5-5-5-----------------5-5-5-5-5-5-5-5-5-5-5-5-5-5-5-5-|
D|-----------------6-6-6-6-6-6-6-6---------------------------------|
   1 e + a 2 e + a 3 e + a 4 e + a 1 e + a 2 e + a 3 e + a 4 e + a 

Pre Chorus 0:29
G|-----------------------------------------------------------------|
D|-----------------------------------------------------------------|
A|-5-5-5-5-5-5-5-5---------------------------------4-4-4-4-4-4-4-4-|
D|-----------------6-6-6-6-6-6-6-6-5-5-5-5-5-5-5-5-----------------|
   1 e + a 2 e + a 3 e + a 4 e + a 1 e + a 2 e + a 3 e + a 4 e + a 

G|-----------------------------------------------------------------|
D|-----------------------------------------------------------------|
A|-5-5-5-5-5-5-5-5-7-7-7-7-7-7-7-7---------------------------------|
D|---------------------------------3---3---3---3---2---2---2---2---|
   1 e + a 2 e + a 3 e + a 4 e + a 1 e + a 2 e + a 3 e + a 4 e + a 

Chorus 0:38
G|-------------------------------------------------------------------|
D|o-------------------------------------------------------------2-3-o|
A|o-5---5---5-5---------------------3-3-3---3-3-3---------3---0-----o|
D|------------------5-5---3---0-3-0-----------------3-3--------------|
    1 + 2 + 3 + 4 + 1 + 2 + 3 + 4 + 1 + 2 + 3 + 4 + 1 + 2 + 3 + 4 +

Verse 0:53 
G|-----------------------------------------------------------------|
D|-----------------------------------------------------------------|
A|-5---5-5-5-5-5-5-------------------------------------------------|
D|-----------------6---6-6-6-6-6-6-0-0-0-0-0-0-0-0-0-0-0-0-0-0-0-0-|
   1 e + a 2 e + a 3 e + a 4 e + a 1 e + a 2 e + a 3 e + a 4 e + a 

G|-------------------------------------------------------------------|
D|o-----------------------------------------------------------------o|
A|o-5---5-5-5-5-5-5-----------------5-5-5-5-5-5-5-5-5-5-5-5-5-5-5-5-o|
D|------------------6---6-6-6-6-6-6----------------------------------|
   1 e + a 2 e + a 3 e + a 4 e + a 1 e + a 2 e + a 3 e + a 4 e + a 

G|-----------------------------------------------------------------|
D|-----------------------------------------------------------------|
A|-5---5-5-5-5-5-5-------------------------------------------------|
D|-----------------6---6-6-6-6-6-6-0-0-0-0-0-0-0-0-0-0-0-0-0-0-0-0-|
   1 e + a 2 e + a 3 e + a 4 e + a 1 e + a 2 e + a 3 e + a 4 e + a 

Pre Chorus 1:08
G|-----------------------------------------------------------------|
D|-----------------------------------------------------------------|
A|-5-5-5-5-5-5-5-5---------------------------------4-4-4-4-4-4-4-4-|
D|-----------------6-6-6-6-6-6-6-6-5-5-5-5-5-5-5-5-----------------|
   1 e + a 2 e + a 3 e + a 4 e + a 1 e + a 2 e + a 3 e + a 4 e + a 

G|-----------------------------------------------------------------|
D|-----------------------------------------------------------------|
A|-5-5-5-5-5-5-5-5-7-7-7-7-7-7-7-7---------------------------------|
D|---------------------------------3---3---3---3---2---2---2---2---|
   1 e + a 2 e + a 3 e + a 4 e + a 1 e + a 2 e + a 3 e + a 4 e + a 

Chorus 1:16
G|-------------------------------------------------------------------|
D|o-------------------------------------------------------------2-3-o|
A|o-5---5---5-5---------------------3-3-3---3-3-3---------3---0-----o|
D|------------------5-5---3---0-3-0-----------------3-3--------------|
    1 + 2 + 3 + 4 + 1 + 2 + 3 + 4 + 1 + 2 + 3 + 4 + 1 + 2 + 3 + 4 +

1:31
G|-----------------------------------------------------------------|
D|-------------2-3-5-5-5-5-5-3-5-3---------------------------------|
A|-5-5-5-5-5-----------------------3-3-3-3-3-3-2-3-7-7-7-7-7-7-5-7-|
D|-----------------------------------------------------------------|
   1 + 2 + 3 + 4 + 1 + 2 + 3 + 4 + 1 + 2 + 3 + 4 + 1 + 2 + 3 + 4 +

G|---------------4-------------------------------------------------|
D|-7---------5-7---5-----------5-7-----------------7-5---5---------|
A|---------------------------8-----8-------------------8---8-7-8-7-|
D|-----------------------------------------------------------------|
   1 + 2 + 3 + 4 + 1 + 2 + 3 + 4 + 1 + 2 + 3 + 4 + 1 + 2 + 3 + 4 +

G|-----------------------------------------------------------------|
D|-7-------------7-5-----------5-7---------------------------------|
A|---8-5-----5-8-------------8-----3-3-3-3---3-2-3-7-7-7-7---7-5-7-|
D|-----------------------------------------------------------------|
   1 + 2 + 3 + 4 + 1 + 2 + 3 + 4 + 1 + 2 + 3 + 4 + 1 + 2 + 3 + 4 +

G|---------------4-------------------------------------------------|
D|-7---------5-7---5-----------5-7-----------------7-5---5---------|
A|---------------------------8-----8-------------------8---8-7-8-7-|
D|-----------------------------------------------------------------|
   1 + 2 + 3 + 4 + 1 + 2 + 3 + 4 + 1 + 2 + 3 + 4 + 1 + 2 + 3 + 4 +

Verse 2:02 
G|-------------------------------------------------------------------|
D|o-----------------------------------------------------------------o|
A|o-5---------------------------------------------------------------o|x4
D|--------------6---------------5---------------3--------------------|
   1 e + a 2 e + a 3 e + a 4 e + a 1 e + a 2 e + a 3 e + a 4 e + a 

Interlude
G|-------------------------------------------------------------------|
D|o-----------------------------------------------------------------o|
A|o-5---5---5-------------------------------------------------------o|
D|--------------6-------6---6---5-------5---5---0-r------------------|
    1 e + a 2 e + a 3 e + a 4 e + a 1 e + a 2 e + a 3 e + a 4 e + a 

Solo 2:25
G|-------------------------------------------------------------------|
D|o-----------------------------------------------------------------o|
A|o-5-5-5-5-5-5-5-5-------------------------------------------------o|x4
D|------------------6-6-6-6-6-6-6-6-0-0-0-0-0-0-0-0-0-3-5-6---6-6----|
    1 e + a 2 e + a 3 e + a 4 e + a 1 e + a 2 e + a 3 e + a 4 e + a 

G|-----------------------------------------------------------------|
D|-----------------------------------------------------------------|
A|-5-5-5-5-5-5-5-5---------------------------------4-4-4-4-4-4-4-4-|
D|-----------------6-6-6-6-6-6-6-6-5-5-5-5-5-5-5-5-----------------|
   1 e + a 2 e + a 3 e + a 4 e + a 1 e + a 2 e + a 3 e + a 4 e + a 

G|-----------------------------------------------------------------|
D|-----------------------------------------------------------------|
A|-5-5-5-5-5-5-5-5-7-7-7-7-7-7-7-7---------------------------------|
D|---------------------------------3-3-3-3-3-3-3-3-2-2-2-2-2-2-2-2-|
   1 e + a 2 e + a 3 e + a 4 e + a 1 e + a 2 e + a 3 e + a 4 e + a 

G|-----------------------------------------------------------------|
D|-----------------------------------------------------------------|
A|-----------------------------------------------------------------|
D|-0---------------------------------------------------------------|
   1 e + a 2 e + a 3 e + a 4 e + a 1 e + a 2 e + a 3 e + a 4 e + a 

2:52
G|------------------------------------------------------------------|
D|o-----------------------------------------------------------------|
A|o-----------------------------------------------------------------|
D|--0-0-0-0-0-----------------------5-5-5-5-5-----------------------|
    1 e + a 2 e + a 3 e + a 4 e + a 1 e + a 2 e + a 3 e + a 4 e + a 

G|------------------------------------------------------------------|
D|-----------------------------------------------------------------o|
A|-3-3-3-3-3-----------------------0-0-0-0-0-------4-4-4-4-4-------o|
D|------------------------------------------------------------------|
   1 e + a 2 e + a 3 e + a 4 e + a 1 e + a 2 e + a 3 e + a 4 e + a 

G|-----------------------------------------------------------------|
D|-----------------------------------------------------------------|
A|-----------------0-------------------------------1---0-----------|
D|-0-------0-----------5---3-------5-------2---------------5-------|
   1 e + a 2 e + a 3 e + a 4 e + a 1 e + a 2 e + a 3 e + a 4 e + a 

G|-----------------------------------------------------------------|
D|-----------------------------------------------------------------|
A|-0---0---------------------------1---1---0---0---5---5---4---4---|
D|---------5---5---3---3---2---2-----------------------------------|
   1 e + a 2 e + a 3 e + a 4 e + a 1 e + a 2 e + a 3 e + a 4 e + a 

Verse 3:15
G|-------------------------------------------------------------------|
D|o-----------------------------------------------------------------o|
A|o-5---5-5-5-5-5-5-----------------5-5-5-5-5-5-5-5-5-5-5-5-5-5-5-5-o|x3
D|------------------6---6-6-6-6-6-6----------------------------------|
    1 e + a 2 e + a 3 e + a 4 e + a 1 e + a 2 e + a 3 e + a 4 e + a 

G|-----------------------------------------------------------------|
D|-----------------------------------------------------------------|
A|-5---5-5-5-5-5-5-----------------5-5-5-5-5-5-5-5-5-5-5-5---------|
D|-----------------6---6-6---6-6---------------------------0---2---|
   1 e + a 2 e + a 3 e + a 4 e + a 1 e + a 2 e + a 3 e + a 4 e + a 

Bridge 3:30
G|-----------------------------------------------------------------|
D|-----------------------------------------------------------------|
A|---------------------------------3---3-----3-3---3-3-3-3---3-3---|
D|-3---3-----3-3---3-3-3-3---3-3-----------------------------------|
   1 e + a 2 e + a 3 e + a 4 e + a 1 e + a 2 e + a 3 e + a 4 e + a 

G|-----------------------------------------------------------------|
D|-----------------------------------------------------------------|
A|-----------------------------------------------------------------|
D|-5---5-----5-5---5---5---5-5-0-------------------0-0-0-0-0-0-2---|
   1 e + a 2 e + a 3 e + a 4 e + a 1 e + a 2 e + a 3 e + a 4 e + a 

3:38
G|-----------------------------------------------------------------|
D|-----------------------------------------------------------------|
A|---------------------------------3-3-3-3---3-3---3-3-3-3---3-3---|
D|-3---3-----3-3---3-3-3-3---3-3-----------------------------------|
   1 e + a 2 e + a 3 e + a 4 e + a 1 e + a 2 e + a 3 e + a 4 e + a 

G|-----------------------------------------------------------------|
D|-----------------------------------------------------------------|
A|-1---1-----1-1---1-1-1-1---1-1---1-1-1-1---1-1---1-1-1-1---1-1---|
D|-----------------------------------------------------------------|
   1 e + a 2 e + a 3 e + a 4 e + a 1 e + a 2 e + a 3 e + a 4 e + a 

G|-----------------------------------------------------------------|
D|---------------------------------7-7-7-7-7-7-7-7-7-7-7-7-7-7-7-7-|
A|-0---0-----0-0---0-0-0-0---0-0-----------------------------------|
D|-----------------------------------------------------------------|
   1 e + a 2 e + a 3 e + a 4 e + a 1 e + a 2 e + a 3 e + a 4 e + a  

Chorus 3:50
G|-------------------------------------------------------------------|
D|o-------------------------------------------------------------2-3-o|
A|o-5---5---5-5---------------------3-3-3---3-3-3---------3---0-----o|
D|------------------5-5---3---0-3-0-----------------3-3--------------|
    1 + 2 + 3 + 4 + 1 + 2 + 3 + 4 + 1 + 2 + 3 + 4 + 1 + 2 + 3 + 4 +

4:05
G|-----------------------------------------------------------------|
D|-------------2-3-5-5-5-5-5-3-5-3---------------------------------|
A|-5-5-5-5-5-----------------------3-3-3-3-3-3-2-3-7-7-7-7-7-7-5-7-|
D|-----------------------------------------------------------------|
   1 + 2 + 3 + 4 + 1 + 2 + 3 + 4 + 1 + 2 + 3 + 4 + 1 + 2 + 3 + 4 +

G|---------------4-------------------------------------------------|
D|-7---------5-7---5-----------5-7-----------------7-5---5---------|
A|---------------------------8-----8-------------------8---8-7-8-7-|
D|-----------------------------------------------------------------|
   1 + 2 + 3 + 4 + 1 + 2 + 3 + 4 + 1 + 2 + 3 + 4 + 1 + 2 + 3 + 4 +

G|-----------------------------------------------------------------|
D|-7-------------7-5-----------5-7---------------------------------|
A|---8-5-----5-8-------------8-----3-3-3-3---3-2-3-7-7-7-7---7-5-7-|
D|-----------------------------------------------------------------|
   1 + 2 + 3 + 4 + 1 + 2 + 3 + 4 + 1 + 2 + 3 + 4 + 1 + 2 + 3 + 4 +

G|---------------4-------------------------------------------------|
D|-7---------5-7---5-----------5-7-----------------7-5---5---------|
A|---------------------------8-----8-------------------8---8-7-8-7-|
D|-----------------------------------------------------------------|
   1 + 2 + 3 + 4 + 1 + 2 + 3 + 4 + 1 + 2 + 3 + 4 + 1 + 2 + 3 + 4 +

Outro 4:35
G|-----------------------------------------------------------------|
D|---------------------------------------------------------7-----5-|
A|---------------------------------3-3-3-3-3-3-2-3-7-7-7-7---7-8---|
D|-0-0-0-0-0-0-0-0-5-5-5-5-5-5-5-5---------------------------------|
   1 + 2 + 3 + 4 + 1 + 2 + 3 + 4 + 1 + 2 + 3 + 4 + 1 + 2 + 3 + 4 +

G|-------------5---------------5-5---------------------------------|
D|-7-7-7-7-7-7---7-5-5-5-5-5-5-----3-3-3-3-3-3-3-3-3-2---0-----0-2-|
A|-----------------------------------------------------------3-----|
D|-----------------------------------------------------------------|
   1 + 2 + 3 + 4 + 1 + 2 + 3 + 4 + 1 + 2 + 3 + 4 + 1 + 2 + 3 + 4 +

G|-----------------------------------------------------------------|
D|---------------------------------------------------------7-----5-|
A|---------------------------------3-3-3-3-3-3-2-3-7-7-7-7---7-8---|
D|-0-0-0-0-0-0-0-0-5-5-5-5-5-5-5-5---------------------------------|
   1 + 2 + 3 + 4 + 1 + 2 + 3 + 4 + 1 + 2 + 3 + 4 + 1 + 2 + 3 + 4 +

G|-------------5---------------------------------------------------|
D|-7-7-7-7-7-7---7-5-5-5-5-5-5-5-5-3-------------------------------|
A|-----------------------------------------------------------------|
D|-----------------------------------------------------------------|
   1 + 2 + 3 + 4 + 1 + 2 + 3 + 4 + 1 + 2 + 3 + 4 + 1 + 2 + 3 + 4 +

ReTabbed by Dave Vucko

--------------------------------------------------------------------------------------

Trashed and Scattered

G|-----------------------------------------------------------------|
D|-----------------------------------------------------------------|
A|-5---------------1-----------------------5-------4---7---5-------|
D|---------------------------------3-------------------------------|
   1 + 2 + 3 + 4 + 1 + 2 + 3 + 4 + 1 + 2 + 3 + 4 + 1 + 2 + 3 + 4 +

Verse 0:04
G|-----------------------------------------------------------------|
D|-----------------------------------------------------------------|
A|-5-55-55-5-55-55-5-55-55-5-55-55-3-33-33-3-33-33-3-33-33-3-33-33-|
D|-----------------------------------------------------------------|
   1 + 2 + 3 + 4 + 1 + 2 + 3 + 4 + 1 + 2 + 3 + 4 + 1 + 2 + 3 + 4 +

G|-----------------------------------------------------------------|
D|-----------------------------------------------------------------|
A|-1-11-11-1-11-11-1-11-11-1-11-11-----------------0-00-00-4-44-44-|
D|---------------------------------3-33-33-3-33-33-----------------|
   1 + 2 + 3 + 4 + 1 + 2 + 3 + 4 + 1 + 2 + 3 + 4 + 1 + 2 + 3 + 4 +

G|-----------------------------------------------------------------|
D|-----------------------------------------------------------------|
A|-5-55-55-5-55-55-5-55-55-5-55-55-3-33-33-3-33-33-3-33-33-3-33-33-|
D|-----------------------------------------------------------------|
   1 + 2 + 3 + 4 + 1 + 2 + 3 + 4 + 1 + 2 + 3 + 4 + 1 + 2 + 3 + 4 +

G|-----------------------------------------------------------------|
D|---------------------------------3-3-2-2-----------------2-2-5-5-|
A|-1-11-11-1-11-11-1-11-11-1-11-11---------5-5-3-3-0-0-4-4---------|
D|-----------------------------------------------------------------|
   1 + 2 + 3 + 4 + 1 + 2 + 3 + 4 + 1 + 2 + 3 + 4 + 1 + 2 + 3 + 4 +

0:26
G|-----------------------------------------------------------------|
D|-----------------------------------------------------------------|
A|-5-55-55-5-55-55-5-55-55-5-55-55-3-33-33-3-33-33-3-33-33-3-33-33-|
D|-----------------------------------------------------------------|
   1 + 2 + 3 + 4 + 1 + 2 + 3 + 4 + 1 + 2 + 3 + 4 + 1 + 2 + 3 + 4 +

G|-----------------------------------------------------------------|
D|-----------------------------------------------------------------|
A|-1-11-11-1-11-11-1-11-11-1-11-11-----------------0-00-00-4-44-44-|
D|---------------------------------3-33-33-3-33-33-----------------|
   1 + 2 + 3 + 4 + 1 + 2 + 3 + 4 + 1 + 2 + 3 + 4 + 1 + 2 + 3 + 4 +

G|-----------------------------------------------------------------|
D|-----------------------------------------------------------------|
A|-5-55-55-5-55-55-5-55-55-5-55-55-3-33-33-3-33-33-3-33-33-3-33-33-|
D|-----------------------------------------------------------------|
   1 + 2 + 3 + 4 + 1 + 2 + 3 + 4 + 1 + 2 + 3 + 4 + 1 + 2 + 3 + 4 +

G|-----------------------------------------------------------------|
D|---------------------------------3-3-2-2-----------------2-2-----|
A|-1-11-11-1-11-11-1-11-11-1-11-11---------5-5-3-3-0-0-4-4-----4-4-|
D|-----------------------------------------------------------------|
   1 + 2 + 3 + 4 + 1 + 2 + 3 + 4 + 1 + 2 + 3 + 4 + 1 + 2 + 3 + 4 +


Pre Chorus 0:48
G|-------------------------------------------------------------------|
D|o-----------------------------------------------------------------o|
A|o-----------------------------------------------------5-7-8-8-8-8-o|
D|--0-0-5-6-0-3-5-0---0-3-0-6-0-5-3-0---5-6-0-3-5-0------------------|
    1 + 2 + 3 + 4 + 1 + 2 + 3 + 4 + 1 + 2 + 3 + 4 + 1 + 2 + 3 + 4 +

Chorus 0:59
G|-----------------------------------------------------------------|
D|-----------------------------------------------------------------|
A|-5---5---5-5-5-------------------1-1-----------3---3-3-3-4-0-3-4-|
D|---------------3---3-3---3-3-3-3-------3-------------------------|
   1 + 2 + 3 + 4 + 1 + 2 + 3 + 4 + 1 + 2 + 3 + 4 + 1 + 2 + 3 + 4 +

G|-----------------------------------------------------------------|
D|---------3-2-0-----------------------------------------3---2-----|
A|-5---5---------------------------3-3-3-3---3---1---1-----------3-|
D|---------------3---3-3-3-3-3-3-3---------------------------------|
   1 + 2 + 3 + 4 + 1 + 2 + 3 + 4 + 1 + 2 + 3 + 4 + 1 + 2 + 3 + 4 +

G|-----------------------------------------------------------------|
D|-----------------------------------------------------------------|
A|-5---5---5-5-5-------------------1-1-----------3---3-3-3-4-0-3-4-|
D|---------------3---3-3---3-3-3-3-------3-------------------------|
   1 + 2 + 3 + 4 + 1 + 2 + 3 + 4 + 1 + 2 + 3 + 4 + 1 + 2 + 3 + 4 +

G|-----------------------------------------------------------------|
D|---------3-2-0-----------------------------------------3---2-0---|
A|-5---5---------------------------3-3-3-3---3---1---1-----------3-|
D|---------------3---3-3-3-3-3-3-3---------------------------------|
   1 + 2 + 3 + 4 + 1 + 2 + 3 + 4 + 1 + 2 + 3 + 4 + 1 + 2 + 3 + 4 +

Interlude 1:21
G|-----------------------------------------------------------------|
D|-----------------------------------------------------------------|
A|-----------------------------------------------------------------|
D|-0-0-0-3---0-0-5---0-0-6---0-0-0-6-0-0-5-0-3-5-0-----------------|
   1 + 2 + 3 + 4 + 1 + 2 + 3 + 4 + 1 + 2 + 3 + 4 + 1 + 2 + 3 + 4 +

G|-----------------------------------------------------------------|
D|-----------------------------------------------------------------|
A|-5-----4-----4---3-----1---1-1-1-0-0-0---------------------------|
D|---------------------------------------5---3---0-----0-----------|
   1 + 2 + 3 + 4 + 1 + 2 + 3 + 4 + 1 + 2 + 3 + 4 + 1 + 2 + 3 + 4 +

G|-----------------------------------------------------------------|
D|-----------------------------------------------------------------|
A|-5-----4-----4---3-----1---1-1-1-0-0-0---------------------------|
D|---------------------------------------5---3---0-----------------|
   1 + 2 + 3 + 4 + 1 + 2 + 3 + 4 + 1 + 2 + 3 + 4 + 1 + 2 + 3 + 4 +

Verse 1:38
G|------------------------------------------------------------------|
D|o-----------------------------------------------------------------|
A|o-5-55-55-5-55-55-5-55-55-5-55-55-3-33-33-3-33-33-3-33-33-3-33-33-|
D|------------------------------------------------------------------|
    1 + 2 + 3 + 4 + 1 + 2 + 3 + 4 + 1 + 2 + 3 + 4 + 1 + 2 + 3 + 4 +

G|-----------------------------------------------------------------|
D|-----------------------------------------------------------------|
A|-1-11-11-1-11-11-1-11-11-1-11-11-----------------0-00-00-4-44-44-|
D|---------------------------------3-33-33-3-33-33-----------------|
   1 + 2 + 3 + 4 + 1 + 2 + 3 + 4 + 1 + 2 + 3 + 4 + 1 + 2 + 3 + 4 +

G|-----------------------------------------------------------------|
D|-----------------------------------------------------------------|
A|-5-55-55-5-55-55-5-55-55-5-55-55-3-33-33-3-33-33-3-33-33-3-33-33-|
D|-----------------------------------------------------------------|
   1 + 2 + 3 + 4 + 1 + 2 + 3 + 4 + 1 + 2 + 3 + 4 + 1 + 2 + 3 + 4 +

G|------------------------------------------------------------------|
D|---------------------------------3-3-2-2-----------------2-2-5-5-o|
A|-1-11-11-1-11-11-1-11-11-1-11-11---------5-5-3-3-0-0-4-4---------o|
D|------------------------------------------------------------------|
   1 + 2 + 3 + 4 + 1 + 2 + 3 + 4 + 1 + 2 + 3 + 4 + 1 + 2 + 3 + 4 +

Bridge 2:21
G|-------------------------------------------------------------------|
D|o-----------------------------------------------------------------o|
A|o-5-55-55-5-55-55-0-00-00-0-00-00-3-33-33-3-33-33-----------------o|
D|--------------------------------------------------5-55-55-5-55-55--|
    1 + 2 + 3 + 4 + 1 + 2 + 3 + 4 + 1 + 2 + 3 + 4 + 1 + 2 + 3 + 4 +

G|-----------------------------------------------------------------|
D|-----------------------------------------------------------------|
A|---------------------------------3-33-33-3-33-33-3-33-33-3-33-33-|
D|-3-33-33-3-33-33-3-33-33-3-33-33---------------------------------|
   1 + 2 + 3 + 4 + 1 + 2 + 3 + 4 + 1 + 2 + 3 + 4 + 1 + 2 + 3 + 4 +

G|-----------------------------------------------------------------|
D|-----------------------------------------------------------------|
A|-1-11-11-1-11-11-1-11-11-1-11-11-0-00-00-0-00-00-5555555555555555|
D|-----------------------------------------------------------------|
   1 + 2 + 3 + 4 + 1 + 2 + 3 + 4 + 1 + 2 + 3 + 4 + 1 + 2 + 3 + 4 +

G|-----------------------------------------------------------------|
D|-----------------------------------------------------------------|
A|-8-88-88-8-88-88-8-88-88-8-88-88-3-33-33-3-33-33-3-33-33-3-33-33-|
D|-----------------------------------------------------------------|
   1 + 2 + 3 + 4 + 1 + 2 + 3 + 4 + 1 + 2 + 3 + 4 + 1 + 2 + 3 + 4 +

G|-----------------------------------------------------------------|
D|-----------------------------------------------------------------|
A|-1-11-11-1-11-11-1-11-11-1-11-11-00000000000000004444444444444444|
D|-----------------------------------------------------------------|
   1 + 2 + 3 + 4 + 1 + 2 + 3 + 4 + 1 + 2 + 3 + 4 + 1 + 2 + 3 + 4 +

Breakdown 2:54
G|-----------------------------------------------------------------|
D|-----------------------------------------------------------------|
A|-----------------------------------------------------------------|
D|-00000-----------00000-----------00000-----------00000-/-12-\----|
   1 + 2 + 3 + 4 + 1 + 2 + 3 + 4 + 1 + 2 + 3 + 4 + 1 + 2 + 3 + 4 +

G|-------------------------------------------------------------------|
D|o-----------------------------------------------------------------o|
A|o-----------------------------------------------------5-7-8-8-8-8-o|x4
D|--0-0-5-6-0-3-5-0---0-3-0-6-0-5-3-0---5-6-0-3-5-0------------------|
    1 + 2 + 3 + 4 + 1 + 2 + 3 + 4 + 1 + 2 + 3 + 4 + 1 + 2 + 3 + 4 +

G|-----------------------------------------------------------------|
D|-----------------------------------------------------------------|
A|-5-----4-----4---3-----1---1-1-1-0-0-0---------------------------|
D|---------------------------------------5---3---0-----0-----------|
   1 + 2 + 3 + 4 + 1 + 2 + 3 + 4 + 1 + 2 + 3 + 4 + 1 + 2 + 3 + 4 +

G|-----------------------------------------------------------------|
D|-----------------------------------------------------------------|
A|-5-----4-----4---3-----1---1-1-1-0-0-0---------------------------|
D|---------------------------------------5---3---0-----------------|
   1 + 2 + 3 + 4 + 1 + 2 + 3 + 4 + 1 + 2 + 3 + 4 + 1 + 2 + 3 + 4 +

Chorus 3:33
G|------------------------------------------------------------------|
D|o-----------------------------------------------------------------|
A|o-5---5---5-5-5-------------------1-1-----------3---3-3-3-4-0-3-4-|
D|----------------3---3-3-3-3-3-3-3-------3-------------------------|
    1 + 2 + 3 + 4 + 1 + 2 + 3 + 4 + 1 + 2 + 3 + 4 + 1 + 2 + 3 + 4 +

G|------------------------------------------------------------------|
D|---------3-2-0-----------------------------------------3---2-0---o|
A|-5---5---------------------------3-3-3-3---3---1---1-----------3-o|
D|---------------3---3-3-3-3-3-3-3----------------------------------|
   1 + 2 + 3 + 4 + 1 + 2 + 3 + 4 + 1 + 2 + 3 + 4 + 1 + 2 + 3 + 4 +

Interlude 3:55
G|-------------------------------------------------------------------|
D|o-------------------------------------------------------6---------o|
A|o-55555555555555550000000000000000111111111---------5-8-----------o|x4
D|--------------------------------------------5-3-0------------------|
    1 + 2 + 3 + 4 + 1 + 2 + 3 + 4 + 1 + 2 + 3 + 4 + 1 + 2 + 3 + 4 +

Outro 4:16
G|-----------------------------------------------------------------|
D|-----------------------------------------------------------------|
A|-----------------------------------------------------------------|
D|-00000-----------00000-----------00000-----------00000-/-12-\----|
   1 + 2 + 3 + 4 + 1 + 2 + 3 + 4 + 1 + 2 + 3 + 4 + 1 + 2 + 3 + 4 +

4:22
G|-----------------------------------------------------------------|
D|-----------------------------------------------------------------|
A|-----------------------------------------------------------------|
D|-00000---------------00000---00000---00000-----------00000---0000|
   1 + 2 + 3 + 4 + 1 + 2 + 3 + 4 + 1 + 2 + 3 + 4 + 1 + 2 + 3 + 4 +

G|-----------------------------------------------------------------|
D|-----------------------------------------------------------------|
A|-----------------------------------------------------------------|
D|-0---00000-----------00000---00000---00000-----------00000---0000|
   1 + 2 + 3 + 4 + 1 + 2 + 3 + 4 + 1 + 2 + 3 + 4 + 1 + 2 + 3 + 4 +

4:33
G|-----------------------------------------------------------------|
D|-----------------------------------------------------------------|
A|-----------------55555---55555---333333333-------33333---33333---|
D|-0---00000-------------------------------------------------------|
   1 + 2 + 3 + 4 + 1 + 2 + 3 + 4 + 1 + 2 + 3 + 4 + 1 + 2 + 3 + 4 +

G|-----------------------------------------------------------------|
D|-----------------------------------------------------------------|
A|-111111111-------11111---11111-------------------00000---44444---|
D|---------------------------------333333333-----------------------|
   1 + 2 + 3 + 4 + 1 + 2 + 3 + 4 + 1 + 2 + 3 + 4 + 1 + 2 + 3 + 4 +

G|------------------------------------------------------------------|
D|o-----------------------------------------------------------------|
A|o-555555555-------55555---55555---333333333-------33333---33333---|
D|------------------------------------------------------------------|
    1 + 2 + 3 + 4 + 1 + 2 + 3 + 4 + 1 + 2 + 3 + 4 + 1 + 2 + 3 + 4 +

G|------------------------------------------------------------------|
D|-----------------------------------------------------------------o|
A|-111111111-------11111---11111-------------------00000---44444---o|x3
D|---------------------------------333333333------------------------|
   1 + 2 + 3 + 4 + 1 + 2 + 3 + 4 + 1 + 2 + 3 + 4 + 1 + 2 + 3 + 4 +

5:17
G|-----------------------------------------------------------------|
D|-----------------5-------8---7-------------------7---7-5---5-3---|
A|-8---8---8-8---8-----8-----------3---3-3-3-3---3-----------------|
D|-----------------------------------------------------------------|
   1 + 2 + 3 + 4 + 1 + 2 + 3 + 4 + 1 + 2 + 3 + 4 + 1 + 2 + 3 + 4 +

G|-----------------------------------------------------------------|
D|-----------------3-2-0---------2---------------------------------|
A|-1---1---1-1---1-------3-0-1-3---0---0-0-0-0-0-0-0/4-4-4-4/7-7-7-|
D|-----------------------------------------------------------------|
   1 + 2 + 3 + 4 + 1 + 2 + 3 + 4 + 1 + 2 + 3 + 4 + 1 + 2 + 3 + 4 +

G|-----------------------------------------------------------------|
D|-----------------5---5-8-----7-5-----------------7---7-5---5-3---|
A|-8---8---8-8---8-----------------3---3-3-3-3---3-----------------|
D|-----------------------------------------------------------------|
   1 + 2 + 3 + 4 + 1 + 2 + 3 + 4 + 1 + 2 + 3 + 4 + 1 + 2 + 3 + 4 +

G|-----------------------------------------------------------------|
D|-----------------3-2-0---------2---------------------------------|
A|-1---1---1-1---1-------3-0-1-3---0-------------------------------|
D|-----------------------------------------------------------------|
   1 + 2 + 3 + 4 + 1 + 2 + 3 + 4 + 1 + 2 + 3 + 4 + 1 + 2 + 3 + 4 +

G|-----------------------------------------------------------------|
D|-----------------------------------------------------------------|
A|-----------------------------------------------------------------|
D|-----------------3----------------------------------------------|
   1 + 2 + 3 + 4 + 1 + 2 + 3 + 4 + 1 + 2 + 3 + 4 + 1 + 2 + 3 + 4 +

ReTabbed by Dave Vucko

--------------------------------------------------------------------------------------

Seize the Day

G|-----------------------------------------------------------------------|
D|-----------------------------------------------------------------------|
A|-------------------------------------353-----3---------3---3---3-3-3-0-|
D|-2-2-3-5-----5-5-----5-5---5---5-5-5-----------------------------------|
   + 4 + 1 + 2 + 3 + 4 + 1 + 2 + 3 + 4 + 1 + 2 + 3 + 4 + 1 + 2 + 3 + 4 +

G|-----------------------------------------------------------------|
D|-----------------------------------------------------------------|
A|-----------------------------------------------------------------|
D|-3---3-3-3---3---2---2---2---2---0---0-0-0-------0---0-0-0-0-0-0-|
   1 + 2 + 3 + 4 + 1 + 2 + 3 + 4 + 1 + 2 + 3 + 4 + 1 + 2 + 3 + 4 +

G|-----------------------------------------------------------------|
D|-----------------------------------------------------------------|
A|-------------------------------353-----3-3-------3-3-3---3---3-0-|
D|-5---5---5-------5-5-5-5-5-5-5-----------------------------------|
   1 + 2 + 3 + 4 + 1 + 2 + 3 + 4 + 1 + 2 + 3 + 4 + 1 + 2 + 3 + 4 +

G|---------------------------------|
D|---------------------------------|
A|---------------------------------|
D|-3---3-3-3---3---3---3---3-3-2---|
   1 + 2 + 3 + 4 + 1 + 2 + 3 + 4 +

Verse 0:37
G|-----------------------------------------------------------------|
D|-----------------------------------------------------------------|
A|-------------------------------------------------3-----3---------|
D|-0---0-----------5---------------3---3---------------------3-2-3-|
   1 + 2 + 3 + 4 + 1 + 2 + 3 + 4 + 1 + 2 + 3 + 4 + 1 + 2 + 3 + 4 +

G|-----------------------------------------------------------------|
D|-----------------------------------------------------------------|
A|-----------------------------------------------------------------|
D|-0---0-----------5-----5---------3---3-----------2-----2---------|
   1 + 2 + 3 + 4 + 1 + 2 + 3 + 4 + 1 + 2 + 3 + 4 + 1 + 2 + 3 + 4 +

G|-----------------------------------------------------------------|
D|-----------------------------------------------------------------|
A|-5-----------------------------------------------3-----3---------|
D|-----0-----------5-----5---------3---3---------------------3-2-3-|
   1 + 2 + 3 + 4 + 1 + 2 + 3 + 4 + 1 + 2 + 3 + 4 + 1 + 2 + 3 + 4 +

G|-----------------------------------------------------------------|
D|-----------------------------------------------------------------|
A|-----------------------------------------------------------------|
D|-0---0-----------5-----5---------3---3-----------2-----2---2-2-3-|
   1 + 2 + 3 + 4 + 1 + 2 + 3 + 4 + 1 + 2 + 3 + 4 + 1 + 2 + 3 + 4 +

Pre Chorus 1:04
G|-----------------------------------------------------------------|
D|-----------------------------------------------------------------|
A|-------------------------------353---3-3-3-----3-3---3---3---3-/-|
D|-5-----5-------5-----5-5-5-5-5-----------------------------------|
   1 + 2 + 3 + 4 + 1 + 2 + 3 + 4 + 1 + 2 + 3 + 4 + 1 + 2 + 3 + 4 +

G|-----------------------------------------------------------------|
D|-----------------------------------------------------------------|
A|-8---8-------8---7-------7-------5---5---------5-5-5-5---5-5-5-5-|
D|-----------------------------------------------------------------|
   1 + 2 + 3 + 4 + 1 + 2 + 3 + 4 + 1 + 2 + 3 + 4 + 1 + 2 + 3 + 4 +

G|-----------------------------------------------------------------|
D|-----------------------------------------------------------------|
A|-1---------------------------------------------------------------|
D|-----------------------------------------------------------------|
   1 + 2 + 3 + 4 + 1 + 2 + 3 + 4 + 1 + 2 + 3 + 4 + 1 + 2 + 3 + 4 +

Chorus 1:25
G|-----------------------------------------------------------------|
D|-----------------------------------------------------------------|
A|-------------------------------------------------3-----3-3---3-0-|
D|-0---0---0-------3-----3-3-3-3-4-5-----5-5---5-------------------|
   1 + 2 + 3 + 4 + 1 + 2 + 3 + 4 + 1 + 2 + 3 + 4 + 1 + 2 + 3 + 4 +

G|-----------------------------------------------------------------|
D|-----------------------------------------------------------------|
A|-1---1-1-1---1---3-3---3-3---3-------------------8---8-7---7-5---|
D|---------------------------------0---0---0---0-------------------|
   1 + 2 + 3 + 4 + 1 + 2 + 3 + 4 + 1 + 2 + 3 + 4 + 1 + 2 + 3 + 4 +

Verse 1:39
G|-----------------------------------------------------------------|
D|-----------------------------------------------------------------|
A|-------------------------------------------------3-----3---------|
D|-0---0-----------5-----5---------3---3---------------------3-2-3-|
   1 + 2 + 3 + 4 + 1 + 2 + 3 + 4 + 1 + 2 + 3 + 4 + 1 + 2 + 3 + 4 +

G|-----------------------------------------------------------------|
D|-----------------------------------------------------------------|
A|-----------------------------------------------------------------|
D|-0---0-----------5-----5---------3---3-----------2-----2---------|
   1 + 2 + 3 + 4 + 1 + 2 + 3 + 4 + 1 + 2 + 3 + 4 + 1 + 2 + 3 + 4 +

G|-----------------------------------------------------------------|
D|-----------------------------------------------------------------|
A|-5-----------------------------------------------3-----3---------|
D|-----0-----------5-----5---------3---3---------------------3-2---|
   1 + 2 + 3 + 4 + 1 + 2 + 3 + 4 + 1 + 2 + 3 + 4 + 1 + 2 + 3 + 4 +

G|-----------------------------------------------------------------|
D|-----------------------------------------------------------------|
A|-----------------------------------------------------------------|
D|-0---0-----------5-----5---------3---3-----------2-----2---2-2-3-|
   1 + 2 + 3 + 4 + 1 + 2 + 3 + 4 + 1 + 2 + 3 + 4 + 1 + 2 + 3 + 4 +

Pre Chorus 2:06
G|-----------------------------------------------------------------|
D|-----------------------------------------------------------------|
A|-------------------------------353---3-3-3-----3-3---3---3---3-0-|
D|-5-----5-------5-5-5-5---5-5-5-----------------------------------|
   1 + 2 + 3 + 4 + 1 + 2 + 3 + 4 + 1 + 2 + 3 + 4 + 1 + 2 + 3 + 4 +

G|-----------------------------------------------------------------|
D|-----------------------------------------------------------------|
A|-8---8-8-8---8---7-------7-------5-------5---5---5---5---5-5-5-5-|
D|-------------------------------------0---------------------------|
   1 + 2 + 3 + 4 + 1 + 2 + 3 + 4 + 1 + 2 + 3 + 4 + 1 + 2 + 3 + 4 +

G|-----------------------------------------------------------------|
D|-------------------------------/-12------------------------------|
A|-1---------------------------------------------------------------|
D|-----------------------------------------------------------------|
   1 + 2 + 3 + 4 + 1 + 2 + 3 + 4 + 1 + 2 + 3 + 4 + 1 + 2 + 3 + 4 +

Chorus 2:27
G|-----------------------------------------------------------------|
D|-----------------------------------------------------------------|
A|-------------------------------------------------3-3---3-3---3-0-|
D|-0---0---0-------3-3---3-3---3-4-5---5---5---5-------------------|
   1 + 2 + 3 + 4 + 1 + 2 + 3 + 4 + 1 + 2 + 3 + 4 + 1 + 2 + 3 + 4 +

G|-----------------------------------------------------------------|
D|-----------------------------------------------------------------|
A|-1---1-1-1---1---3-3---3-3---3---5---5---5---5---8---8-7-7-7-5---|
D|-----------------------------------------------------------------|
   1 + 2 + 3 + 4 + 1 + 2 + 3 + 4 + 1 + 2 + 3 + 4 + 1 + 2 + 3 + 4 +

2:40
G|-----------------------------------------------------------------|
D|-----------------------------------------------------------------|
A|-------------------------------------------------3-3---3-3---3---|
D|-0---0---0---0---3-3---3-3---3-4-5-----5-5-----------------------|
   1 + 2 + 3 + 4 + 1 + 2 + 3 + 4 + 1 + 2 + 3 + 4 + 1 + 2 + 3 + 4 +

G|---------------------------------|
D|---------------------------------|
A|-1---1---1---1---3---3---3---3---|
D|---------------------------------|
   1 + 2 + 3 + 4 + 1 + 2 + 3 + 4 +

Solo 2:51
G|-----------------------------------------------------------------|
D|-----------------------------------------------------------------|
A|---------------------------------3---3---3---3-3-3-3-3-3-3-3-----|
D|-3---3-3-3-----3-3-3-3-3-3---3-----------------------------------|
   1 + 2 + 3 + 4 + 1 + 2 + 3 + 4 + 1 + 2 + 3 + 4 + 1 + 2 + 3 + 4 +

G|-----------------------------------------------------------------|
D|-----------------------------------------------------------------|
A|-5---5-5-5-----5-5-5-5-5-5---5-3-1---1-1-1---1---1---1---3-1-0-1-|
D|-----------------------------------------------------------------|
   1 + 2 + 3 + 4 + 1 + 2 + 3 + 4 + 1 + 2 + 3 + 4 + 1 + 2 + 3 + 4 +

G|-----------------------------------------------------------------|
D|-----------------------------------------------------------------|
A|---------------------------------3---3-3-3-3-3-3-3-3-3-3-3-3-3---|
D|-3---3---3-3-3-3-3-3-3---3-3-3-3---------------------------------|
   1 + 2 + 3 + 4 + 1 + 2 + 3 + 4 + 1 + 2 + 3 + 4 + 1 + 2 + 3 + 4 +

G|-----------------------------------------------------------------|
D|-----------------------------------------------------------------|
A|-5-5-----5-5---5---5---5-5-5-5-3-1-1-1---1-1-1-1---1-1-1-1-1-1-1-|
D|-----------------------------------------------------------------|
   1 + 2 + 3 + 4 + 1 + 2 + 3 + 4 + 1 + 2 + 3 + 4 + 1 + 2 + 3 + 4 +

G|-----------------------------------------------------------------|
D|-----------------------------------------------------------------|
A|---------------------------------3-3-3-3-3-3-3-3-3-3-3-3-3---3-3-|
D|-3-3-3-3-3-3-3-3-3-3-3-3-3---3-----------------------------------|
   1 + 2 + 3 + 4 + 1 + 2 + 3 + 4 + 1 + 2 + 3 + 4 + 1 + 2 + 3 + 4 +

G|-----------------------------------------------------------------|
D|-----------------------------------------------------------------|
A|-5-5-5-5-5-5-5-3-5-5-5-5-5-5-5---1---1-1-------1-1---1-1-3-1-0-1-|
D|-----------------------------------------------------------------|
   1 + 2 + 3 + 4 + 1 + 2 + 3 + 4 + 1 + 2 + 3 + 4 + 1 + 2 + 3 + 4 +

Bridge 3:32
G|-----------------------------------------------------------------|
D|-3---3---3-----3-3-3-----5-3-2-3-----------------7---7-5-5-------|
A|---------------------------------3---3-3-3-------------------7-8-|
D|-----------------------------------------------------------------|
   1 + 2 + 3 + 4 + 1 + 2 + 3 + 4 + 1 + 2 + 3 + 4 + 1 + 2 + 3 + 4 +

G|-----------------------------------------------------------------|
D|-----------------------------------------------------------------|
A|-5---5-5-5-----5-5-5-5-5-5-5-5-3-1---1-1-1-----1---1-1-1-1-1-1-1-|
D|-----------------------------------------------------------------|
   1 + 2 + 3 + 4 + 1 + 2 + 3 + 4 + 1 + 2 + 3 + 4 + 1 + 2 + 3 + 4 +

G|-----------------------------------------------------------------|
D|-----------------------------------------------------------------|
A|---------------------------------3---3-3-3---3---3---3---3---3---|
D|-3---3---3-----3-3-3-3-3-3-2-3-----------------------------------|
   1 + 2 + 3 + 4 + 1 + 2 + 3 + 4 + 1 + 2 + 3 + 4 + 1 + 2 + 3 + 4 +

G|-----------------------------------------------------------------|
D|-------------------------------/-12------------------------------|
A|-1---------------------------------------------------------------|
D|-----------------------------------------------------------------|
   1 + 2 + 3 + 4 + 1 + 2 + 3 + 4 + 1 + 2 + 3 + 4 + 1 + 2 + 3 + 4 +

Chorus 3:59
G|-----------------------------------------------------------------|
D|-----------------------------------------------------------------|
A|-------------------------------------------------3-3---3-3---3-\-|
D|-0---0---0-------3-3---3-3---3-4-5---5---5---5-------------------|
   1 + 2 + 3 + 4 + 1 + 2 + 3 + 4 + 1 + 2 + 3 + 4 + 1 + 2 + 3 + 4 +

G|-----------------------------------------------------------------|
D|-----------------------------------------------------------------|
A|-1---1-1-1---1---3-3---3-3---3---5---5---5---5---8---8-7-7-7-5---|
D|-----------------------------------------------------------------|
   1 + 2 + 3 + 4 + 1 + 2 + 3 + 4 + 1 + 2 + 3 + 4 + 1 + 2 + 3 + 4 +

G|-----------------------------------------------------------------|
D|-----------------------------------------------------------------|
A|-------------------------------------------------3-3---3-3---3-\-|
D|-0---0---0-------3-3---3-3---3-4-5---5---5---5-------------------|
   1 + 2 + 3 + 4 + 1 + 2 + 3 + 4 + 1 + 2 + 3 + 4 + 1 + 2 + 3 + 4 +

G|-----------------------------------------------------------------|
D|-----------------------------------------------------------------|
A|-1---1-1-1---1---3-3---3-3---3-------------------8---8-7-7-7-5---|
D|---------------------------------0---0---0---0-------------------|
   1 + 2 + 3 + 4 + 1 + 2 + 3 + 4 + 1 + 2 + 3 + 4 + 1 + 2 + 3 + 4 +

Outro 4:26
G|------------------------------------------------------------------|
D|-----------------------------------------------------------------o|
A|---------------------------------0-0-0-0-0-0-0-0-1-1-1-1-1-1-1-1-o|x4
D|-5-5-5-5-5-5-5-5-3-3-3-3-3-3-3-3----------------------------------|
   1 + 2 + 3 + 4 + 1 + 2 + 3 + 4 + 1 + 2 + 3 + 4 + 1 + 2 + 3 + 4 +

4:54
G|-----------------------------------------------------------------|
D|-----------------------------------------------------------------|
A|---------------------------------0---0-0-0-0-0-0-1-1-1-1-1-1-1-1-|
D|-5-5-5-5-5-5-5-5-3---3-3-3-3-3-3---------------------------------|
   1 + 2 + 3 + 4 + 1 + 2 + 3 + 4 + 1 + 2 + 3 + 4 + 1 + 2 + 3 + 4 +

G|-----------------------------------------------------------------|
D|--------------------------------/7---7-7-7-7-7-7-8-8-8-8-8-8-8-8-|
A|-----------------------------------------------------------------|
D|-5---5-5-5-5-5-5-3---3-3-3-3-3-3---------------------------------|
   1 + 2 + 3 + 4 + 1 + 2 + 3 + 4 + 1 + 2 + 3 + 4 + 1 + 2 + 3 + 4 +

G|-----------------------------------------------------------------|
D|-----------------------------------------------------------------|
A|---------------------------------0---0-0-0-0-0-0-1-1-1-1-1-1-1-1-|
D|-5---5-5-5-5-5-5-3---3-3-3-3-3-3---------------------------------|
   1 + 2 + 3 + 4 + 1 + 2 + 3 + 4 + 1 + 2 + 3 + 4 + 1 + 2 + 3 + 4 +

G|-----------------------------------------------------------------|
D|-----------------------------------------------------------------|
A|---------------------------------0-0-0-0-0-0-0-0-1---------------|
D|-5---5-5-5-5-5-5-3---3-3-3-3-3-3---------------------------------|
   1 + 2 + 3 + 4 + 1 + 2 + 3 + 4 + 1 + 2 + 3 + 4 + 1 + 2 + 3 + 4 +

Re Tabbed by Dave Vucko

--------------------------------------------------------------------------------------

Sidewinder

Intro 0:19
G|-------------------------------------------------------------------|
D|o-----------------------------------------------------------------o|
A|o-----------------------------------------------------------------o|x4
D|--0-------0-0-0-------0-0-0-0---------0-0-0-0-----0---0---0-0------|
    1 e + a 2 e + a 3 e + a 4 e + a 1 e + a 2 e + a 3 e + a 4 e + a

Verse 0:36
G|-----------------------------------------------------------------|
D|-------------------------5-3-3---------------------------8-7-----|
A|-------------------------------1-----------------------------1-0/|
D|-0-0-0-0-0-0-0-0-0-0-0-0---------0-0-0-0-0-0-0-0-0-0-0-0---------|
   1 + 2 + 3 + 4 + 1 + 2 + 3 + 4 + 1 + 2 + 3 + 4 + 1 + 2 + 3 + 4 +

G|-----------------------------------------------------------------|
D|-------------------------5-3-3---------------------------8-7-----|
A|/5-5-5-5-5-5-5-5-5-5-5-5-------1-5-5-5-5-5-5-5-5-5-5-5-5-----1-0-|
D|-----------------------------------------------------------------|
   1 + 2 + 3 + 4 + 1 + 2 + 3 + 4 + 1 + 2 + 3 + 4 + 1 + 2 + 3 + 4 +

Pre Chorus 0:52
G|-3-------3---------------------2-3-----------------------7--9h10--|
D|-------------2-3-2-------5---3-----3---3-3-----------0-2----------|
A|---3---3---3-------1-3-----5---------1-----3-----1-3--------------|
D|---------------------------------------------3--------------------|
   1 + 2 + 3 + 4 + 1 + 2 + 3 + 4 + 1 + 2 + 3 + 4 + 1 + 2 + 3 +  4 +

Chorus 1:00
G|-----------------------------------------------------------------|
D|-----------------------------------------------------------------|
A|-----------------------------3---1-----5---3---1-------------3-3-|
D|-0---------------3-------2-----------------------3-3-3-3-2-2-----|
   1 + 2 + 3 + 4 + 1 + 2 + 3 + 4 + 1 + 2 + 3 + 4 + 1 + 2 + 3 + 4 +

G|-----------------------------------------------------------------|
D|-----------------------------------------------------------------|
A|-----------------------------3-3-1-----5---3---1-----------------|
D|-0---------------3-3-3-3-2-2---------------------3-3-3-3-2-2-2-2-|
   1 + 2 + 3 + 4 + 1 + 2 + 3 + 4 + 1 + 2 + 3 + 4 + 1 + 2 + 3 + 4 +

Interlude 1:15
G|-------------------------------------------------------------------|
D|o-----------------------------------------------------------------o|
A|o-----------------------------------------------------------------o|x4
D|--0-------0-0-0-------0-0-0-0---------0-0-0-0-----0---0---0-0------|
    1 e + a 2 e + a 3 e + a 4 e + a 1 e + a 2 e + a 3 e + a 4 e + a

G|-----------------------------------------------------------------|
D|-------------3---------------------------------------------------|
A|-5-----3-----------0-----1---0-----------------------------------|
D|-----------------------------------------------------------------|
   1 + 2 + 3 + 4 + 1 + 2 + 3 + 4 + 1 + 2 + 3 + 4 + 1 + 2 + 3 + 4 +

Verse  1:35
G|-----------------------------------------------------------------|
D|-------------------------5-3-3---------------------------8-7-----|
A|-------------------------------1-----------------------------1-0/|
D|-0-0-0-0-0-0-0-0-0-0-0-0---------0-0-0-0-0-0-0-0-0-0-0-0---------|
   1 + 2 + 3 + 4 + 1 + 2 + 3 + 4 + 1 + 2 + 3 + 4 + 1 + 2 + 3 + 4 +

G|-----------------------------------------------------------------|
D|-------------------------5-3-3---------------------------8-7-----|
A|/5-5-5-5-5-5-5-5-5-5-5-5-------1-5-5-5-5-5-5-5-5-5-5-5-5-----1-0-|
D|-----------------------------------------------------------------|
   1 + 2 + 3 + 4 + 1 + 2 + 3 + 4 + 1 + 2 + 3 + 4 + 1 + 2 + 3 + 4 +

Pre Chorus 1:50
G|-3-------3---------------------2-3-----------------------7--9h10--|
D|-------------2-3-2-------5---3-----3---3-3-----------0-2----------|
A|---3---3---3-------1-3-----5---------1-----3-----1-3--------------|
D|---------------------------------------------3--------------------|
   1 + 2 + 3 + 4 + 1 + 2 + 3 + 4 + 1 + 2 + 3 + 4 + 1 + 2 + 3 +  4 +

Chorus 1:58
G|-----------------------------------------------------------------|
D|-----------------------------------------------------------------|
A|-----------------------------3---1-----5---3---1-------------3-3-|
D|-0---------------3-------2-----------------------3-3-3-3-2-2-----|
   1 + 2 + 3 + 4 + 1 + 2 + 3 + 4 + 1 + 2 + 3 + 4 + 1 + 2 + 3 + 4 +

G|-----------------------------------------------------------------|
D|-----------------------------------------------------------------|
A|-----------------------------3-3-1-----5---3---1-----------------|
D|-0---------------3-3-3-3-2-2---------------------3-3-3-3-2-2-2-2-|
   1 + 2 + 3 + 4 + 1 + 2 + 3 + 4 + 1 + 2 + 3 + 4 + 1 + 2 + 3 + 4 +

Bridge 2:14
G|-------------------------------------------------------------------|
D|o-----------------------------------------------------------------o|
A|o---------------------------------4-4-4-4-4-4-4-4-----------------o|
D|--3-3-3-3-3-3-3-3-6-6-6-6-5-5-5-5-----------------6-6-6-6-5-5-5-5--|
    1 + 2 + 3 + 4 + 1 + 2 + 3 + 4 + 1 + 2 + 3 + 4 + 1 + 2 + 3 + 4 +

2:29
G|-----------------------------------------------------------------|
D|---------------------------/-9-----------------------------------|
A|-6-------------\-2---------------8-------------------------------|
D|---------------------------------------------0--01---------------|
   1 + 2 + 3 + 4 + 1 + 2 + 3 + 4 + 1 + 2 + 3 + 4 + 1 + 2 + 3 + 4 +

G|-----------------------------------------------------------------|
D|---------------------------/-9-----------------------------------|
A|-6-----------6-\-2---------------8-----------8-\-----------------|
D|-------------------------------------------------1---------------|
   1 + 2 + 3 + 4 + 1 + 2 + 3 + 4 + 1 + 2 + 3 + 4 + 1 + 2 + 3 + 4 +

2:45
G|-----------------------------------------------------------------|
D|-----------------------------------------------------------------|
A|----------------------------/5---1111111---------1111111----/6---|
D|-0000000---------0000000-----------------------------------------|
   1 + 2 + 3 + 4 + 1 + 2 + 3 + 4 + 1 + 2 + 3 + 4 + 1 + 2 + 3 + 4 +

G|-------------------------------------------------|
D|-------------------------------------------------|
A|-3333333---------3333333----/7---5555555---------|
D|-------------------------------------------0-0-0-|
   1 + 2 + 3 + 4 + 1 + 2 + 3 + 4 + 1 + 2 + 3 + 4 + 

2:59
G|-----------------------------------------------------------------|
D|-----------------------------------------------------------------|
A|-5-5-5-5-5-5-5-5-5-5-5-5-5-5-5-5-7-7-7-7-7-7-7-7-7-7-7-7-7-7-7-7-|
D|-----------------------------------------------------------------|
   1 e + a 2 e + a 3 e + a 4 e + a 1 e + a 2 e + a 3 e + a 4 e + a

G|-------------------------------------------------------------------------------------------------|
D|---------------------------------------------6-6-6-6-6-6-----------------------------------------|
A|-8-8-8-8-8-8-8-8-8-8-8-8-8-8-8-8-8-8-8-8-8-8-------------8-8-8-8-4-4-4-4-4-4-4-4-4-4-4-4-4-4-4-4-|
D|-------------------------------------------------------------------------------------------------|
   1 e + a 2 e + a 3 e + a 4 e + a 1 e + a 2 e + a 3 e + a 4 e + a 1 e + a 2 e + a 3 e + a 4 e + a

3:08
G|-----------------------------------------------------------------|
D|-----------------------------------------------------------------|
A|-1-----------3-4-----------------4-4-4-4-4---6-7-2-2-2-2-2-2-2-2-|
D|-----------------6-------8-\-10\---------------------------------|
   1 + 2 + 3 + 4 + 1 + 2 + 3 + 4 + 1 + 2 + 3 + 4 + 1 + 2 + 3 + 4 +

G|-----------------------------------------------------------------|
D|-----------------------------------------------------------------|
A|-6--6--6-6--4--------------------6--6--6-6--4--------------------|
D|---------------4-6--6--6-6--6--6---------------4-6-------6-6-6-6-|
   1 + 2 + 3 + 4 + 1 + 2 + 3 + 4 + 1 + 2 + 3 + 4 + 1 + 2 + 3 + 4 +

G|---------------------------------|
D|---------------------------------|
A|---------------------------------|
D|-7-7-7-7-6-6-6-6-4-4-4-4-2-2-2-2-|
   1 + 2 + 3 + 4 + 1 + 2 + 3 + 4 +

Solo 3:28
G|-----------------------------------------------------------------|
D|-----------------------------------------------------------------|
A|-----------------------------------------------------------------|
D|-0-r-------------0-r-------------4-r-------------4---------444444|
   1 + 2 + 3 + 4 + 1 + 2 + 3 + 4 + 1 + 2 + 3 + 4 + 1 + 2 + 3 + 4 +

G|-----------------------------------------------------------------|
D|-----------------------------------------------------------------|
A|-----------------------------------------------------------------|
D|-0000000000000000000000000000000044444444444444444444444444444444|
   1 + 2 + 3 + 4 + 1 + 2 + 3 + 4 + 1 + 2 + 3 + 4 + 1 + 2 + 3 + 4 +

G|-------------------------------------------------|
D|-------------------------------------------------|
A|-5-------4-------5-------0---0-------------------|
D|-------------------7-8-5---3--5320---0-----------|
   1 + 2 + 3 + 4 + 1 + 2 + 3 + 4 + 1 + 2 + 3 + 4 +

G|---------------------------------------------------------------------------------|
D|---------------------------------------------------------------------------------|
A|---------------------------------------------------------------------------------|
D|-------------------------------------------------------/-12-12-12-12-12-12-12-12-|
   1 + 2 + 3 + 4 + 1 + 2 + 3 + 4 + 1 + 2 + 3 + 4 + 1 + 2 + 3  e  +  a  4  e  +  a

Chorus 3:57
G|-----------------------------------------------------------------|
D|-----------------------------------------------------------------|
A|-----------------------------3-3-1-1-1-5---3-2-1-------------3---|
D|-0-0-0-0---0-0-0-3-3-3-3-2-2---------------------3-3-3-3-2-2---2-|
   1 + 2 + 3 + 4 + 1 + 2 + 3 + 4 + 1 + 2 + 3 + 4 + 1 + 2 + 3 + 4 +

G|-----------------------------------------------------------------|
D|-----------------------------------------------------------------|
A|-----------------------------3---1-1-1-5---3-2-1-----------------|
D|-0-0-0-0---0-0-2-3---3---2-----------------------3-3-3-3-2-2-2-2-|
   1 + 2 + 3 + 4 + 1 + 2 + 3 + 4 + 1 + 2 + 3 + 4 + 1 + 2 + 3 + 4 +

4:12
G|-------------------------------------------------------------------|
D|o-----------------------------------------------------------------o|
A|o---------------------------------4-4-4-4-4-4-4-4-----------------o|
D|--3-3-3-3-3-3-3-3-6-6-6-6-5-5-5-5-----------------6-6-6-6-5-5-5-5--|
    1 + 2 + 3 + 4 + 1 + 2 + 3 + 4 + 1 + 2 + 3 + 4 + 1 + 2 + 3 + 4 +

4:28
G|-----------------------------------------------------------------|
D|---------------------------/-9-----------------------------------|
A|-6-------------\-2---------------8-------------------------------|
D|---------------------------------------------0--01---------------|
   1 + 2 + 3 + 4 + 1 + 2 + 3 + 4 + 1 + 2 + 3 + 4 + 1 + 2 + 3 + 4 +

G|-----------------------------------------------------------------|
D|---------------------------/-9-----------------------------------|
A|-6-----------6-\-2---------------8-----------8-\-----------------|
D|-------------------------------------------------1---------------|
   1 + 2 + 3 + 4 + 1 + 2 + 3 + 4 + 1 + 2 + 3 + 4 + 1 + 2 + 3 + 4 +

Interlude
G|-------------------------------------------------------------------|
D|o-----------------------------------------------------------------o|
A|o-----------------------------------------------------------------o|
D|--0----------------------------------------------------------------|
    1 + 2 + 3 + 4 + 1 + 2 + 3 + 4 + 1 + 2 + 3 + 4 + 1 + 2 + 3 + 4 +

Outro 4:59
G|-----------------------------------------------------------------|
D|-0-0---0-2---3---------------------------------------------------|
A|-----------------3-3-r-3-------5-1-1-r-1-------1-1-1-r-1-3---3---|
D|-----------------------------------------------------------------|
   1 + 2 + 3 + 4 + 1 + 2 + 3 + 4 + 1 + 2 + 3 + 4 + 1 + 2 + 3 + 4 +

G|-----------------------------------------------------------------|
D|-0--2--3-2---0---------------------------------------------------|
A|-----------------3-3-r-3-3---3---1-1-r-1-1-----1-1-1-r-1-3---3---|
D|-----------------------------------------------------------------|
   1 + 2 + 3 + 4 + 1 + 2 + 3 + 4 + 1 + 2 + 3 + 4 + 1 + 2 + 3 + 4 +

G|-----------------------------------------------------------------|
D|-0-0---0-2---3---------------------------------------------------|
A|-----------------3-3-r-3-3---3-3-1-1-r-1-1---1-1-1---0-------3---|
D|-------------------------------------------------------5-3-------|
   1 + 2 + 3 + 4 + 1 + 2 + 3 + 4 + 1 + 2 + 3 + 4 + 1 + 2 + 3 + 4 +

G|-----------------------------------------------------------------|
D|-0-0---0-2---2-3-------------------------------------------------|
A|-----------------3-3-r-3-3---3-3-1-1---1-1-----1-1---1---3---3---|
D|-----------------------------------------------------------------|
   1 + 2 + 3 + 4 + 1 + 2 + 3 + 4 + 1 + 2 + 3 + 4 + 1 + 2 + 3 + 4 +

5:31
G|-----------------------------------------------------------------|
D|-0-0---0-2---3-----------2---3-----------------------------------|
A|-----------------3-3-r-3---------1-1-r-1-1-1-r-1-1-1-r-1-3---3---|
D|-----------------------------------------------------------------|
   1 + 2 + 3 + 4 + 1 + 2 + 3 + 4 + 1 + 2 + 3 + 4 + 1 + 2 + 3 + 4 +

G|-----------------------------------------------------------------|
D|-0-0---0-2---3-2---------------------------------------------2-2-|
A|-----------------3-3-r-3-3-3-r-3-1-1---1---1---1-1---1---3-------|
D|-----------------------------------------------------------------|
   1 + 2 + 3 + 4 + 1 + 2 + 3 + 4 + 1 + 2 + 3 + 4 + 1 + 2 + 3 + 4 +

G|-----------------------------------------------------------------|
D|-0-0---0-2---3-2-------------2-3-----------------3---2-----------|
A|-----------------3-3-r-3-3-------1-1---1-1---1-----------3---1---|
D|-----------------------------------------------------------------|
   1 + 2 + 3 + 4 + 1 + 2 + 3 + 4 + 1 + 2 + 3 + 4 + 1 + 2 + 3 + 4 +

G|---------------------------------------------------------5---5---|
D|-0-0---0-2---3---------------------------------------------------|
A|-----------------3-3-r-3-3-3-r-3-1-1-r-1-1-1-r-1-1---3-----------|
D|-----------------------------------------------------------------|
   1 + 2 + 3 + 4 + 1 + 2 + 3 + 4 + 1 + 2 + 3 + 4 + 1 + 2 + 3 + 4 +

6:01
G|-----------------------------------------------------------------|
D|-0-0---0-2---3-----------2---3-----------------------------------|
A|-----------------3-3-r-3---------1-1-r-1-1-1-r-1-1-1-r-1-3---3---|
D|-----------------------------------------------------------------|
   1 + 2 + 3 + 4 + 1 + 2 + 3 + 4 + 1 + 2 + 3 + 4 + 1 + 2 + 3 + 4 +

G|-----------------------------------------------------------------|
D|-0-0---0-2---3---------------------------------------------------|
A|-----------------3-3-r-3-3-3-r-3-1-1-r-1-1---1---1---1---3---3---|
D|-----------------------------------------------------------------|
   1 + 2 + 3 + 4 + 1 + 2 + 3 + 4 + 1 + 2 + 3 + 4 + 1 + 2 + 3 + 4 +

6:18
G|------------------7---7-9-10---9-10-12--------------------------------|
D|-0---0-------8-10--------------------------10-------------------------|
A|--------------------------------------------------3-------3-5-3-5-3-5-|
D|----------------------------------------------------------------------|
   1 e + a 2 e + a  3 e + a 4  e + a  1  e + a  2 e + a 3 e + a 4 e + a 

G|-----------------------------------------------------------------|
D|-----------------------------------------------------------------|
A|-1---1---r---1---1---1---r---1---1-------1-------3-------3-------|
D|-----------------------------------------------------------------|
   1 e + a 2 e + a 3 e + a 4 e + a 1 e + a 2 e + a 3 e + a 4 e + a

6:25
G|-----------------------------------------------------------------|
D|-------------------------------------------------------------2-3-|
A|-5-5-r-5-5-5-r-5-3-3-r-3-3-3-r-5-1-1-r-1-1-1-r-1-1--3--5---5-----|
D|-----------------------------------------------------------------|
   1 + 2 + 3 + 4 + 1 + 2 + 3 + 4 + 1 + 2 + 3 + 4 + 1 + 2 + 3 + 4 +

G|-----------------------------------------------------------------|
D|-------7---------------------------------3-------3-----3-----0-2-|
A|-5-5-r---5-7-8-7-3-3-r-3-3-3-3-5-1-1-r-1------------1----1-3-----|
D|-----------------------------------------------------------------|
   1 + 2 + 3 + 4 + 1 + 2 + 3 + 4 + 1 + 2 + 3 + 4 + 1 + 2 + 3 + 4 +

G|-----------------------------------------------------------------|
D|-------------------------------------------------3---------------|
A|-5-5-r-5-5-5-5-5-3-3-r-3-3-3-3-3-1-1-r-1-1-1-r-1----1--3-3---1---|
D|-----------------------------------------------------------------|
   1 + 2 + 3 + 4 + 1 + 2 + 3 + 4 + 1 + 2 + 3 + 4 + 1 + 2 + 3 + 4 +

G|-----------------------------------------------------------------|
D|---------------32------------------------------------------------|
A|-5-5-r-5-5-5-5---3-3-r-3-3-3-3-5-1-1-r-1-1-1-1-1-1--0------------|
D|-------------------------------------------------------5-3---2---|
   1 + 2 + 3 + 4 + 1 + 2 + 3 + 4 + 1 + 2 + 3 + 4 + 1 + 2 + 3 + 4 +
Tabbed by Dave Vucko

--------------------------------------------------------------------------------------

The Wicked End

G|-------------------------------------------------------------------|
D|o-6-7-6---6-------7---6---6-------6-7-6---6-------7---6---6-------o|
A|o-------8---8-7-8---8---8---8-7-8-------8---8-7-8---8---8---8-7-8-o|
D|-------------------------------------------------------------------|
    1 + 2 + 3 + 4 + 1 + 2 + 3 + 4 + 1 + 2 + 3 + 4 + 1 + 2 + 3 + 4 +

G|-------------------------------------------------------------------|
D|o-----------------------------------------------------------------o|
A|o-----------------------------------------------------------------o|x4
D|--0-0-----------------0-0---0-0---0-0-----------------0-0-0-0-0-0--|
    1 + 2 + 3 + 4 + 1 + 2 + 3 + 4 + 1 + 2 + 3 + 4 + 1 + 2 + 3 + 4 +

Verse 0:22
G|------------------------------------------------------------------|
D|o-------------------------------------------------3h5-----5h7-----|
A|o---------6-5-----3h5-----1h3-------------6-5---------------------|
D|--0-0-0-0-----0-0-----0-0-----0-0-0-0-0-0-----0-0-----0-0-----0-0-|
    1 + 2 + 3 + 4 + 1 + 2 + 3 + 4 + 1 + 2 + 3 + 4 + 1 + 2 + 3 + 4 +

G|------------------------------------------------------------------|
D|-------------------------------------------------3h5-----5h7-----o|
A|---------6-5-----3h5-----1h3-------------6-5-----------------7---o|
D|-0-0-0-0-----0-0-----0-0-----0-0-0-0-0-0-----0-0-----0-0----------|
   1 + 2 + 3 + 4 + 1 + 2 + 3 + 4 + 1 + 2 + 3 + 4 + 1 + 2 + 3 + 4 +

G|---------------------------------|
D|---------5h7-8---------------2---|
A|-5h7-8-----------0---4---4-------|
D|---------------------------------|
   1 + 2 + 3 + 4 + 1 + 2 + 3 + 4 + 

0:41
G|-----------------------------------------------------------------|
D|-----------------------------5-----------5-3-2-3---5-3-----------|
A|-5---5---8-7-r-------8-----8-------------------------------------|
D|---------------8---8---8-8-----5-5-5-5-5---------------2---2-3-5-|
   1 + 2 + 3 + 4 + 1 + 2 + 3 + 4 + 1 + 2 + 3 + 4 + 1 + 2 + 3 + 4 +

G|-----------------------------------------------------------------|
D|-----------------------------5-----------5-3-2-3---5-3-----------|
A|-5---5---8-7-5-------8-----8-------------------------------------|
D|---------------8---8---8-8-----5-5-5-5-5---------------2---2-3-5-|
   1 + 2 + 3 + 4 + 1 + 2 + 3 + 4 + 1 + 2 + 3 + 4 + 1 + 2 + 3 + 4 +

Chorus 0:57
G|-----------------------------------------------------------------|
D|-------------------------------------------------------------2-3-|
A|-5---5-5-5-5-5-1---1-1-1-1-0-----------------------3-------2-----|
D|-------------------------------5---5-5-5-5-5-5-3-----3-2---------|
   1 + 2 + 3 + 4 + 1 + 2 + 3 + 4 + 1 + 2 + 3 + 4 + 1 + 2 + 3 + 4 +

G|-----------------------------------------------------------------|
D|-----------------------------------------------------------------|
A|-5---5-5-5-5-5-1---1-1-1-1-0-----------------------3-------------|
D|-------------------------------5---5-5-5-5-5-5-3-----3-2---2-3-2-|
   1 + 2 + 3 + 4 + 1 + 2 + 3 + 4 + 1 + 2 + 3 + 4 + 1 + 2 + 3 + 4 +

G|-----------------------------------------------------------------|
D|-----------------1-------1-----------------------7-5-----7-5-----|
A|---------1-------------------------------3-----------8-7-----8-7-|
D|-1-------------------------------3-------------------------------|
   1 + 2 + 3 + 4 + 1 + 2 + 3 + 4 + 1 + 2 + 3 + 4 + 1 + 2 + 3 + 4 +

G|-----------------------9---------|
D|-----------8-7-6-----6-----8-7---|
A|-------------------5-----------7-|
D|-0-------0-----------------------|
   1 + 2 + 3 + 4 + 1 + 2 + 3 + 4 + 

Interlude 1:25
G|-------------------------------------------------------------------|
D|o-----------------------------------------------------------------o|
A|o-----------------------------------------------------------------o|
D|--0-0-----------------0-0---0-0---0-0-----------------0-0-0-0-0-0--|
    1 + 2 + 3 + 4 + 1 + 2 + 3 + 4 + 1 + 2 + 3 + 4 + 1 + 2 + 3 + 4 +

Verse 1:33 
G|------------------------------------------------------------------|
D|o-------------------------------------------------3h5-----5h7-----|
A|o---------6-5-----3h5-----1h3-------------6-5---------------------|
D|--0-0-0-0-----0-0-----0-0-----0-0-0-0-0-0-----0-0-----0-0-----0-0-|
    1 + 2 + 3 + 4 + 1 + 2 + 3 + 4 + 1 + 2 + 3 + 4 + 1 + 2 + 3 + 4 +

G|------------------------------------------------------------------|
D|-------------------------------------------------3h5-----5h7-----o|
A|---------6-5-----3h5-----1h3-------------6-5-----------------7---o|
D|-0-0-0-0-----0-0-----0-0-----0-0-0-0-0-0-----0-0-----0-0----------|
   1 + 2 + 3 + 4 + 1 + 2 + 3 + 4 + 1 + 2 + 3 + 4 + 1 + 2 + 3 + 4 +

G|---------------------------------|
D|---------5h7-8---------------2---|
A|-5h7-8-----------0---4---4-------|
D|---------------------------------|
   1 + 2 + 3 + 4 + 1 + 2 + 3 + 4 + 

1:51
G|-----------------------------------------------------------------|
D|-----------------------------5-----------5-3-2-3---5-3-----------|
A|-5---5---8-7-r-------8-----8-------------------------------------|
D|---------------8---8---8-8-----5-5-5-5-5---------------2---2-3-5-|
   1 + 2 + 3 + 4 + 1 + 2 + 3 + 4 + 1 + 2 + 3 + 4 + 1 + 2 + 3 + 4 +

G|-----------------------------------------------------------------|
D|-----------------------------5-------5---5-3-2-3---5-3-----------|
A|-5---5---8-7-5-------8-----8-------------------------------------|
D|---------------8---8---8-8-----5-5-5---5---------------2---2-3-5-|
   1 + 2 + 3 + 4 + 1 + 2 + 3 + 4 + 1 + 2 + 3 + 4 + 1 + 2 + 3 + 4 +

Chorus 2:07
G|-------------------------------------------------------------------|
D|o-------------------------------------------------------------2-3-o|
A|o-5---5-5-5-5-5-1---1-1-1-1-0-----------------------3-------------o|
D|--------------------------------5---5-5-5-5-5-5-3-----3-2---2------|
    1 + 2 + 3 + 4 + 1 + 2 + 3 + 4 + 1 + 2 + 3 + 4 + 1 + 2 + 3 + 4 +

2:23
G|-------------------------------------------------------------------|
D|o-----------------------------------------------------------------o|
A|o-5-5-5---5-7-8-5---5-5---8-7-------------------------------------o|
D|--------8---------------8-----7-5---5-5-5-5-5-7-8---8-8-7---7-7-7--|
    1 + 2 + 3 + 4 + 1 + 2 + 3 + 4 + 1 + 2 + 3 + 4 + 1 + 2 + 3 + 4 +

G|-----------------------------------------------------------------|
D|-----------------1-------1-----------------------7-5-----7-5-----|
A|---------1-------------------------------3-----------8-7-----8-7-|
D|-1-------------------------------3-------------------------------|
   1 + 2 + 3 + 4 + 1 + 2 + 3 + 4 + 1 + 2 + 3 + 4 + 1 + 2 + 3 + 4 +

Solo 2:47
G|-----------------------------------------------------------------|
D|-----------------------------------------------------------------|
A|------------------------------------------------/8-8-8-8-7-7-7---|
D|-0---0-0-0-0-0-0-2---2-2-2-2-2-2-5---5-5-5-5-5-5---------------8-|
   1 + 2 + 3 + 4 + 1 + 2 + 3 + 4 + 1 + 2 + 3 + 4 + 1 + 2 + 3 + 4 +

G|------------------------------------------------------------------|
D|o-------------------------------------------------------------2-3-|
A|o-5---5-5-5-5-5-1---1-1-1-1-0-----------------------3-------------|
D|--------------------------------5---5-5-5-5-5-5-3-----3-2---2-----|
    1 + 2 + 3 + 4 + 1 + 2 + 3 + 4 + 1 + 2 + 3 + 4 + 1 + 2 + 3 + 4 +

G|------------------------------------------------------------------|
D|-------------------------------------------------------------2---o|
A|-5---5-5-5-5-5-1---1-1-1-1-0-----------------------3-------------o|
D|-------------------------------5---5-5-5-5-5-5-3-----3-2---2---2--|
   1 + 2 + 3 + 4 + 1 + 2 + 3 + 4 + 1 + 2 + 3 + 4 + 1 + 2 + 3 + 4 +

G|-----------------------------------------------------------------|
D|-----------------------------------------------------------------|
A|-----------------------------------------------------------------|
D|-0---------------------------------------------------------------|
   1 + 2 + 3 + 4 + 1 + 2 + 3 + 4 + 1 + 2 + 3 + 4 + 1 + 2 + 3 + 4 +



Break



Bridge 4:37
G|----------------------------------------/-7-------------------------|
D|o---------------------------------------------8---7-----7-----------|
A|o-5-----------7-8-7---5---7---0---1-------------------8---8-5---1---|
D|--------------------------------------------------------------------|
    1 + 2 + 3 + 4 + 1 + 2 + 3 + 4 + 1 + 2 + 3 + 4 + 1 + Tripl 3 + 4 +

G|---------------------6---7---9------------------------------------|
D|-------------5---7-----------------------------------------------o|
A|-0---4---7-----------------------5-5-5-5-7-7-7-7-3-3-3-3-1-1-0-0-o|
D|------------------------------------------------------------------|
   1 + 2 + 3 + 4 + 1 + 2 + 3 + 4 + 1 + 2 + 3 + 4 + 1 + 2 + 3 + 4 +

G|-----------------------------------------------------------------|
D|-----------------------------------------------------------------|
A|---------------------------------5---5---5-5-5-5-5---5-5-5-5-5-5-|
D|-5-------5-------5-5---5-5---5-----------------------------------|
   1 + 2 + 3 + 4 + 1 + 2 + 3 + 4 + 1 + 2 + 3 + 4 + 1 + 2 + 3 + 4 +

G|-----------------------------------------------------------------|
D|-----------------------------------------------------------------|
A|-4---4---4-4-4-4-4---4-4-4-4-4-4-5-5-5-5-5-5-5-5-7-7-7-7-7-7-7-7-|
D|-----------------------------------------------------------------|
   1 + 2 + 3 + 4 + 1 + 2 + 3 + 4 + 1 + 2 + 3 + 4 + 1 + 2 + 3 + 4 +

G|---------------------------------|
D|---------------------------------|
A|-8-8-8-8-8-8-8-8-0-0-0-0-0-0-0-0-|
D|---------------------------------|
   1 + 2 + 3 + 4 + 1 + 2 + 3 + 4 + 

5:29
G|---------------------------------------/-7-------------------------|
D|---------------------------------------------8---7-----7-----------|
A|-5-----------7-8-7---5---7---0---1-------------------8---8-5---1---|
D|-------------------------------------------------------------------|
   1 + 2 + 3 + 4 + 1 + 2 + 3 + 4 + 1 + 2 + 3 + 4 + 1 + Tripl 3 + 4 +

G|---------------------6-------------------------------------------|
D|-------------5---7-----------------------------------------------|
A|-0---4---7---------------8---7---5-5-5-5-7-7-7-7-3-3-3-3-1-1-0-0-|
D|-----------------------------------------------------------------|
   1 + 2 + 3 + 4 + 1 + 2 + 3 + 4 + 1 + 2 + 3 + 4 + 1 + 2 + 3 + 4 +

G|-----------------------------------------------------------------|
D|-----------------------------------------------------------------|
A|-----------------------------------------------------------------|
D|-0---------------------------------------------------------------|
   1 + 2 + 3 + 4 + 1 + 2 + 3 + 4 + 1 + 2 + 3 + 4 + 1 + 2 + 3 + 4 +

G|-----------------------------------------------------------------|
D|-----------------------------------------------------------------|
A|-----------------------------------------------------------------|
D|-0-0-0-0-0-----------------------0-0-0-0-0-----------------------|
   1 + 2 + 3 + 4 + 1 + 2 + 3 + 4 + 1 + 2 + 3 + 4 + 1 + 2 + 3 + 4 +

G|-----------------------------------------------------------------|
D|-----------------------------------------------------------------|
A|-----------------------------------------------------------------|
D|-0-0-0-0-0-----------------------0-0-0-0-0-----------0-0-0-0-0-0-|
   1 + 2 + 3 + 4 + 1 + 2 + 3 + 4 + 1 + 2 + 3 + 4 + 1 + 2 + 3 + 4 +

Verse 5:57
G|-----------------------------------------------------------------|
D|-------------------------------------------------3h5-----5h7-5h7-|
A|---------6-5-----3h5-----1h3-1h3---------6-5---------------------|
D|-0-0-0-0-----0-0-----0-0---------0-0-0-0-----0-0-----0-0---------|
   1 + 2 + 3 + 4 + 1 + 2 + 3 + 4 + 1 + 2 + 3 + 4 + 1 + 2 + 3 + 4 +

G|-----------------------------------------------------------------|
D|-----------------------------------------5h7-8---------------2---|
A|---------6-5-----3h5-----1h3-1h3-5h7-8-----------0---4---4-------|
D|-0-0-0-0-----0-0-----0-0-----------------------------------------|
   1 + 2 + 3 + 4 + 1 + 2 + 3 + 4 + 1 + 2 + 3 + 4 + 1 + 2 + 3 + 4 +

6:05
G|-----------------------------------------------------------------|
D|-----------------------------5-----------5-3-2-3---5-3-----------|
A|-5---5---8-7-r-------8-----8-------------------------------------|
D|---------------8---8---8-8-----5-5-5-5-5---------------2---2-3-5-|
   1 + 2 + 3 + 4 + 1 + 2 + 3 + 4 + 1 + 2 + 3 + 4 + 1 + 2 + 3 + 4 +

G|-----------------------------------------------------------------|
D|-----------------------------5-----------5-3-2-3---5-3-----------|
A|-5---5---8-7-5-------8-----8-------------------------------------|
D|---------------8---8---8-8-----5-5-5-5-5---------------2---2-3-5-|
   1 + 2 + 3 + 4 + 1 + 2 + 3 + 4 + 1 + 2 + 3 + 4 + 1 + 2 + 3 + 4 +

Chorus 6:21
G|-------------------------------------------------------------------|
D|o-------------------------------------------------------------2-3-o|
A|o-5---5-5-5-5-5-1---1-1-1-1-0-----------------------3-------------o|
D|--------------------------------5---5-5-5-5-5-5-3-----3-2---2------|
    1 + 2 + 3 + 4 + 1 + 2 + 3 + 4 + 1 + 2 + 3 + 4 + 1 + 2 + 3 + 4 +

G|-------------------------------------------------------------------|
D|o-----------------------------------------------------------------o|
A|o-5-5-5---5-7-8-5---5-5---8-7-------------------------------------o|
D|--------8---------------8-----7-5---5-5-5-5-5-7-8---8-8-7---7-7-7--|
    1 + 2 + 3 + 4 + 1 + 2 + 3 + 4 + 1 + 2 + 3 + 4 + 1 + 2 + 3 + 4 +

G|-----------------------------------------------------------------|
D|-----------------1-------1-----------------------7-5-----7-5-----|
A|---------1-------------------------------3-----------8-7-----8-7-|
D|-1-------------------------------3-------------------------------|
   1 + 2 + 3 + 4 + 1 + 2 + 3 + 4 + 1 + 2 + 3 + 4 + 1 + 2 + 3 + 4 +

G|-----------------------9-------------------------|
D|-----------8-7-6-----6-----8-7-------------------|
A|-------------------5-----------7-----------------|
D|-0-------0-----------------------0-0---0-0---0-0-|
   1 + 2 + 3 + 4 + 1 + 2 + 3 + 4 + 1 + 2 + 3 + 4 + 
Tabbed by Dave Vucko

--------------------------------------------------------------------------------------

Strength Of The World

1:22
G|-------------------------------------------------------------------|
D|o-----------------------------------------------------------------o|
A|o-----------------------------------------------------------------o|
D|--0-------------------------------5--------------------------------|
    1 + 2 + 3 + 4 + 1 + 2 + 3 + 4 + 1 + 2 + 3 + 4 + 1 + 2 + 3 + 4 +

1:34
G|-------------------------------------------------------------------|
D|o-----------------------------------------------------------------o|
A|o-----------------------------------------------------------------o|
D|--0-0-0-0-0-0-0-0-0-0-0-0-0-0-0-0-5-5-5-5-5-5-5-5-5-5-5-5-5-5-5-5--|
    1 + 2 + 3 + 4 + 1 + 2 + 3 + 4 + 1 + 2 + 3 + 4 + 1 + 2 + 3 + 4 +

1:46
G|--------------------------------------------------------------------------------------------------|
D|o---------------------------------5-5-5-5-5-5-5-5-5-5-5-5-5-5-5-5---------------------------------|
A|o-5-5-5-5-5-5-5-5-5-5-5-5-5-5-5-5-----------------------------------------------------------------|
D|---~-------------------------------~------------------------------0---0-0-0-0-0-0-0-1-0-0-1-0-1-0-|
    1 + 2 + 3 + 4 + 1 + 2 + 3 + 4 + 1 + 2 + 3 + 4 + 1 + 2 + 3 + 4 + 1 + 2 + 3 + 4 + 1 + 2 + 3 + 4 +

G|--------------------------------------------------------------------------------------------------|
D|-------------------------------------------------------------------------------------------------o|
A|-------------------------------------------------------------------------------------------------o|
D|-0-0-0-0-0-0-0-0-0-0-0-0-0-0-0-0-5-5-5-5-5-5-5-5-5-5-5-5-5-5-5-5-0---0-0-0-0-0-0-0-1-0-0-1-0-1-0--|
   1 + 2 + 3 + 4 + 1 + 2 + 3 + 4 + 1 + 2 + 3 + 4 + 1 + 2 + 3 + 4 + 1 + 2 + 3 + 4 + 1 + 2 + 3 + 4 +

2:22
G|-------------------------------------------------------------------|
D|o-----------------------------------------------------------------o|
A|o-----------------------------------------------------------------o|
D|--00000-----------00000-----------3-2-1---3-2-1-------1-1-1-1-1-1--|
    1 + 2 + 3 + 4 + 1 + 2 + 3 + 4 + 1 + 2 + 3 + 4 + 1 + 2 + 3 + 4 +

2:33
G|-------------------------------------------------------------------------------------------------|
D|-3-2-0-----0-2-3-3-2-0-----0-2-3-5-3-2-----2-3-5-5-3-2-----2-3-5-0-------------/-7---------------|
A|-------1---------------1---------------3---------------3-----------------------------------------|
D|-------------------------------------------------------------------------------------------------|
   1 + 2 + 3 + 4 + 1 + 2 + 3 + 4 + 1 + 2 + 3 + 4 + 1 + 2 + 3 + 4 + 1 + 2 + 3 + 4 + 1 + 2 + 3 + 4 +

2:42
G|-----------------------------------------------------------------|
D|-----------------------------------------------------------------|
A|--------------5----5-5---5-5-5-----------------------------------|
D|-0--0--0--0----------------------5---5---5-5-5-----5-5-5-5-5-5-5-|
   1 + 2 + 3 + 4 + 1 + 2 + 3 + 4 + 1 + 2 + 3 + 4 + 1 + 2 + 3 + 4 +

G|-----------------------------------------------------------------|
D|-----------------------------------------------------------------|
A|-3--3--3--3---3----3-3---3-3-3-3-----------------0---0---3-3-3-3-|
D|---------------------------------3---3---3-3-3-3-----------------|
   1 + 2 + 3 + 4 + 1 + 2 + 3 + 4 + 1 + 2 + 3 + 4 + 1 + 2 + 3 + 4 +

2:55
G|-----------------------------------------------------------------|
D|-----------------------------------------------------------------|
A|--------------5----5-5---5-5-5-5---------------------------------|
D|-0--0--0--0----------------------5---5---5-5-5---5-5-5---5-5-5-5-|
   1 + 2 + 3 + 4 + 1 + 2 + 3 + 4 + 1 + 2 + 3 + 4 + 1 + 2 + 3 + 4 +

G|-----------------------------------------------------------------|
D|-----------------------------------------------------------------|
A|-3--3--3--3---3----3-3---3-3-3-------------------0-0-0-0-3-3-3-3-|
D|---------------------------------3---3---3-3-3-3-----------------|
   1 + 2 + 3 + 4 + 1 + 2 + 3 + 4 + 1 + 2 + 3 + 4 + 1 + 2 + 3 + 4 +

3:06
G|-----------------------------------------------------------------|
D|-----------------------------------------------------------------|
A|-5-----5-5---5-0-3---3-3---------1-----1-1---1-----1-1-1-1-1-1-1-|
D|--~----------------------3-----3-~-------------------------------|
   1 + 2 + 3 + 4 + 1 + 2 + 3 + 4 + 1 + 2 + 3 + 4 + 1 + 2 + 3 + 4 +

G|-----------------------------------------------------------------|
D|-----------------------------------------------------------------|
A|---------------------------------3-----3-3---r---1---------------|
D|-5~------5---5-5-3-------3-----3-~-------------------------------|
   1 + 2 + 3 + 4 + 1 + 2 + 3 + 4 + 1 + 2 + 3 + 4 + 1 + 2 + 3 + 4 +

3:19
G|-------------------------------------------------------------------------------------------------|
D|-------------------------------------------------------------------------------------------------|
A|-----------------------------------------------------------------1---------------3---------------|
D|-0-------------------------------5---------------------------------------------------------------|
   1 + 2 + 3 + 4 + 1 + 2 + 3 + 4 + 1 + 2 + 3 + 4 + 1 + 2 + 3 + 4 + 1 + 2 + 3 + 4 + 1 + 2 + 3 + 4 +

3:28
G|-------------------------------------------------------------------------------------------------|
D|-------------------------------------------------------------------------------------------------|
A|-------------------------------------------------------------------------------------------------|
D|-0-0-0-0-0-0-0-0-0-0-0-0-0-0-0-0-5-5-5-5-5-5-5-5-5-5-5-5-5-5-5-5-0---0-0-0-0-0-0-0-1-0-0-1-0-1-0-|
   1 + 2 + 3 + 4 + 1 + 2 + 3 + 4 + 1 + 2 + 3 + 4 + 1 + 2 + 3 + 4 + 1 + 2 + 3 + 4 + 1 + 2 + 3 + 4 +

G|-------------------------------------------------------------------------------------------------|
D|---------------------------------5-5-5-5-5-5-5-5-5-5-5-5-5-5-5-5---------------------------------|
A|-------------------------------------------------------------------------------------------------|
D|-0-0-0-0-0-0-0-0-0-0-0-0-0-0-0-0--~------------------------------0---0-0-0-0-0-0-0-1-0-0-1-0-1-0-|
   1 + 2 + 3 + 4 + 1 + 2 + 3 + 4 + 1 + 2 + 3 + 4 + 1 + 2 + 3 + 4 + 1 + 2 + 3 + 4 + 1 + 2 + 3 + 4 +

3:46
G|-------------------------------------------------------------------|
D|o-----------------------------------------------------------------o|
A|o-----------------------------------------------------------------o|
D|--00000-----------00000-----------3-2-1---3-2-1-------1-1-1-1-1-1--|
    1 + 2 + 3 + 4 + 1 + 2 + 3 + 4 + 1 + 2 + 3 + 4 + 1 + 2 + 3 + 4 +

3:58
G|-------------------------------------------------------------------|
D|o-----7-----------------------------------------------------------o|
A|o------8--------7-------7-8-7-5---------5-------7-------8---7-5---o|
D|--0-0-------5-7-----5-8---------7-5-7-8-----5-7-----5-8---------7--|
    1 + 2 + 3 + 4 + 1 + 2 + 3 + 4 + 1 + 2 + 3 + 4 + 1 + 2 + 3 + 4 +

4:11
G|-------------------------------------------------------------------------------------------------|
D|-3-2-0-----0-2-3-3-2-0-----0-2-3-5-3-2-----2-3-5-5-3-2-----2-3-5-0-------------/-7---------------|
A|-------1---------------1---------------3---------------3-----------------------------------------|
D|-------------------------------------------------------------------------------------------------|
   1 + 2 + 3 + 4 + 1 + 2 + 3 + 4 + 1 + 2 + 3 + 4 + 1 + 2 + 3 + 4 + 1 + 2 + 3 + 4 + 1 + 2 + 3 + 4 +

4:20
G|-----------------------------------------------------------------|
D|-----------------------------------------------------------------|
A|--------------5----5-5---5-5-5-----------------------------------|
D|-0--0--0--0----------------------5---5---5-5-5---5-5-5-5-5-5-5-5-|
   1 + 2 + 3 + 4 + 1 + 2 + 3 + 4 + 1 + 2 + 3 + 4 + 1 + 2 + 3 + 4 +

G|-----------------------------------------------------------------|
D|-----------------------------------------------------------------|
A|-3--3--3--3---3----3-3---3-3-3-------------------0---0-0-3-3-3-3-|
D|---------------------------------3---3---3-3-3-3-----------------|
   1 + 2 + 3 + 4 + 1 + 2 + 3 + 4 + 1 + 2 + 3 + 4 + 1 + 2 + 3 + 4 +

4:31
G|-----------------------------------------------------------------|
D|-----------------------------------------------------------------|
A|--------------5----5-5---5-5-5-----------------------------------|
D|-0--0--0--0----------------------5---5---5-5-5-5-5-5-5-5-5-5-5-5-|
   1 + 2 + 3 + 4 + 1 + 2 + 3 + 4 + 1 + 2 + 3 + 4 + 1 + 2 + 3 + 4 +

G|-----------------------------------------------------------------|
D|-----------------------------------------------------------------|
A|-3--3--3--3---3----3-3---3-3-3-------------------0-0-0-0-3-3-3-3-|
D|---------------------------------3---3---3-3-3-3-----------------|
   1 + 2 + 3 + 4 + 1 + 2 + 3 + 4 + 1 + 2 + 3 + 4 + 1 + 2 + 3 + 4 +

4:44
G|-----------------------------------------------------------------|
D|-----------------------------------------------------------------|
A|-5-----5-5-------3-----3---------1-----1-1---1-----1-1-1-1-1-1---|
D|--~----------------------3-----3-~-------------------------------|
   1 + 2 + 3 + 4 + 1 + 2 + 3 + 4 + 1 + 2 + 3 + 4 + 1 + 2 + 3 + 4 +

G|-----------------------------------------------------------------|
D|-----------------------------------------------------------------|
A|---------------------------------3-----3-3---r---1---------------|
D|-5~----5-5-----5-3---3-3-3-3---3---------------------------------|
   1 + 2 + 3 + 4 + 1 + 2 + 3 + 4 + 1 + 2 + 3 + 4 + 1 + 2 + 3 + 4 +

4:56
G|-----------------------------------------------------------------|
D|-----------------------------------------------------------------|
A|-----------------------------------------------------------------|
D|-0-------------------------------5-------------------------------|
   1 + 2 + 3 + 4 + 1 + 2 + 3 + 4 + 1 + 2 + 3 + 4 + 1 + 2 + 3 + 4 +

G|-----------------------------------------------------------------|
D|---------------------------------1---1-----------3---3-----------|
A|-1---1-----------3---3-------------------------------------------|
D|--~--~-----------------------------------------------------------|
   1 + 2 + 3 + 4 + 1 + 2 + 3 + 4 + 1 + 2 + 3 + 4 + 1 + 2 + 3 + 4 +

G|-----------------------------------------------------------------|
D|-5---5---5-5-5---5---5-5-5-5-5---5---5-5-5-5-5---5-5-3-3-1-1-0-0-|
A|-----------------------------------------------------------------|
D|---~-------------------------------~-----------------------------|
   1 + 2 + 3 + 4 + 1 + 2 + 3 + 4 + 1 + 2 + 3 + 4 + 1 + 2 + 3 + 4 +

5:14
G|-----------------------------------------------------------------|
D|-----------------------------------------------------------------|
A|-----------------------------------------------------------------|
D|-1~--1---1-1-1---3---3---3-3-3---5---5---5-5-5-5-5-5-5---5-5-5-5-|
   1 + 2 + 3 + 4 + 1 + 2 + 3 + 4 + 1 + 2 + 3 + 4 + 1 + 2 + 3 + 4 +

G|-----------------------------------------------------------------|
D|-1~--1---1-1-1---3---3---3-3-3---5---5---5-5-5-5-5-5-5---5-5-5-5-|
A|-----------------------------------------------------------------|
D|-----------------------------------------------------------------|
   1 + 2 + 3 + 4 + 1 + 2 + 3 + 4 + 1 + 2 + 3 + 4 + 1 + 2 + 3 + 4 +

5:25
G|-----------------------------------------------------/-5---4-----|
D|-------------------------------------------------------------5-4-|
A|-----------------------------------------------------------------|
D|-2---------------------------------------------------------------|
   1 + 2 + 3 + 4 + 1 + 2 + 3 + 4 + 1 + 2 + 3 + 4 + 1 + 2 + 3 + 4 +

G|-----------------------------------------------------------------|
D|-2-------------------------5-4h5-2-------------------------------|
A|-----------------------------------------------------------------|
D|-----------------------------------------------------------------|
   1 + 2 + 3 + 4 + 1 + 2 + 3 + 4 + 1 + 2 + 3 + 4 + 1 + 2 + 3 + 4 +

G|-----------------------------------------------------------------|
D|-2-------------------------------2-------------------------------|
A|---------------------------------------------------------7---\---|
D|-----------------------------------------------------------------|
   1 + 2 + 3 + 4 + 1 + 2 + 3 + 4 + 1 + 2 + 3 + 4 + 1 + 2 + 3 + 4 +

5:43
G|------------------------------------------------------------------|
D|o-----------------------------------------------------------------|
A|o-5-----------------------8---7-5-3-------------------3---5---7-7-|
D|------------------------------------------------------------------|
    1 + 2 + 3 + 4 + 1 + 2 + 3 + 4 + 1 + 2 + 3 + 4 + 1 + 2 + 3 + 4 +

G|------------------------------------------------------------------|
D|-----------------------------------------------------------------o|
A|-8---------------1---------------1-/-3-----1---0-0---------------o|
D|------------------------------------------------------------------|
   1 + 2 + 3 + 4 + 1 + 2 + 3 + 4 + 1 + 2 + 3 + 4 + 1 + 2 + 3 + 4 +

6:07
G|-----------------------------------------------------------------|
D|---------------------------------5-5-5---5---5---5-5-5---5---5-3-|
A|-5---5---5-5-5---5-5-5---5---5-----------------------------------|
D|-----------------------------------------------------------------|
   1 + 2 + 3 + 4 + 1 + 2 + 3 + 4 + 1 + 2 + 3 + 4 + 1 + 2 + 3 + 4 +

G|-----------------------------------------------------------------|
D|-----------------------------------------------------------------|
A|-5---5---5-5-5---5-5-5-5-5---5-----------------------------------|
D|---------------------------------5-5-5---5---5---5-5-5---5---5---|
   1 + 2 + 3 + 4 + 1 + 2 + 3 + 4 + 1 + 2 + 3 + 4 + 1 + 2 + 3 + 4 +

G|-------------------------------------------------------------------------------------------------|
D|-------------------------------------------------------------------------------------------------|
A|-1---1-1-1-1-1-1-3---3---3-3-3-3-5---5-5-5-5-5-5---5-5-5-5---5-3-1---1-1-1---1---3---3---3---3---|
D|-------------------------------------------------------------------------------------------------|
   1 + 2 + 3 + 4 + 1 + 2 + 3 + 4 + 1 + 2 + 3 + 4 + 1 + 2 + 3 + 4 + 1 + 2 + 3 + 4 + 1 + 2 + 3 + 4 +

6:30
G|-----------------------------------------------------------------|
D|-------------------------3---------------------------------------|
A|-5-----5-5-------3-----3---------1-----1-1---1-----1-1-1-1-1-1---|
D|--~--------------------------------------------------------------|
   1 + 2 + 3 + 4 + 1 + 2 + 3 + 4 + 1 + 2 + 3 + 4 + 1 + 2 + 3 + 4 +

G|-----------------------------------------------------------------|
D|-----------------------------------------------------------------|
A|---------------------------------3-----3-3---r---1---------------|
D|-5~----5-5-------3-----3-3---3-----------------------------------|
   1 + 2 + 3 + 4 + 1 + 2 + 3 + 4 + 1 + 2 + 3 + 4 + 1 + 2 + 3 + 4 +

6:43
G|-----------------------------------------------------------------|
D|-----------------------------------------------------------------|
A|-----------------------------------------------------------------|
D|-0-0-0---0-0-0---0-0-0---0-0-0---5-5-5---5-5-5---5-5-5---5-5-5---|
   1 + 2 + 3 + 4 + 1 + 2 + 3 + 4 + 1 + 2 + 3 + 4 + 1 + 2 + 3 + 4 +

G|-----------------------------------------------------------------|
D|---------------------------------1---1---1-1-1---3---3---3-3-3---|
A|-1---1---1-1-1---3---3---3-3-3-----------------------------------|
D|-----------------------------------------------------------------|
   1 + 2 + 3 + 4 + 1 + 2 + 3 + 4 + 1 + 2 + 3 + 4 + 1 + 2 + 3 + 4 +

G|---------------------------------|
D|---------------------------------|
A|-3-333-333-333-333-333-333-333---|
D|---------------------------------|
   1 + 2 + 3 + 4 + 1 + 2 + 3 + 4 +

6:58
G|-----------------------------------------------------------------|
D|-----------------------------------------------------------------|
A|-----------------------------------------------------------------|
D|-0-0-0---0-0-0---0-0-0---0-0-0---5-5-5---5-5-5---5-5-5---5-5-5---|
   1 + 2 + 3 + 4 + 1 + 2 + 3 + 4 + 1 + 2 + 3 + 4 + 1 + 2 + 3 + 4 +

G|-----------------------------------------------------------------|
D|---------------------------------1---1---1-1-1---3---3---3-3-3---|
A|-1---1---1-1-1---3---3---3-3-3-----------------------------------|
D|-----------------------------------------------------------------|
   1 + 2 + 3 + 4 + 1 + 2 + 3 + 4 + 1 + 2 + 3 + 4 + 1 + 2 + 3 + 4 +

G|-----------------------------------------------------------------|
D|-5---5---5-5-5---5---5-5-5-5-5---5---5-5-5-5-5---5-5-3-3-1-1-0-0-|
A|-----------------------------------------------------------------|
D|---~-------------------------------------------------------------|
   1 + 2 + 3 + 4 + 1 + 2 + 3 + 4 + 1 + 2 + 3 + 4 + 1 + 2 + 3 + 4 +

7:17
G|-----------------------------------------------------------------|
D|-----------------------------------------------------------------|
A|-----------------------------------------------------------------|
D|-1~--1---1---1---3---3---3-3-3---5---5-5-5-5-5---5-5-5-5-5-5-5-5-|
   1 + 2 + 3 + 4 + 1 + 2 + 3 + 4 + 1 + 2 + 3 + 4 + 1 + 2 + 3 + 4 +

G|-----------------------------------------------------------------|
D|-1~--1-1-1-1-1---3---3---3---3---5---5-5-5-5-5-5-5-5-5-5-5-5-5-5-|
A|-----------------------------------------------------------------|
D|-----------------------------------------------------------------|
   1 + 2 + 3 + 4 + 1 + 2 + 3 + 4 + 1 + 2 + 3 + 4 + 1 + 2 + 3 + 4 +

7:29
G|-----------------------------------------------------------------|
D|-----------------------------------------------------------------|
A|--------------5----5-5---5-5-5-----------------------------------|
D|-0--0--0--0----------------------5---5---5-5-5-----5-5-5-5-5-5-5-|
   1 + 2 + 3 + 4 + 1 + 2 + 3 + 4 + 1 + 2 + 3 + 4 + 1 + 2 + 3 + 4 +

G|-----------------------------------------------------------------|
D|-----------------------------------------------------------------|
A|-3--3--3--3---3----3-3---3-3-3-3-----------------0---0---3-3-3-3-|
D|---------------------------------3---3---3-3-3-3-----------------|
   1 + 2 + 3 + 4 + 1 + 2 + 3 + 4 + 1 + 2 + 3 + 4 + 1 + 2 + 3 + 4 +

G|-----------------------------------------------------------------|
D|-----------------------------------------------------------------|
A|--------------5----5-5---5-5-5-5---------------------------------|
D|-0--0--0--0----------------------5---5---5-5-5---5-5-5---5-5-5-5-|
   1 + 2 + 3 + 4 + 1 + 2 + 3 + 4 + 1 + 2 + 3 + 4 + 1 + 2 + 3 + 4 +

G|-----------------------------------------------------------------|
D|-----------------------------------------------------------------|
A|-3--3--3--3---3----3-3---3-3-3-------------------0-0-0-0-3-3-3-3-|
D|---------------------------------3---3---3-3-3-3-----------------|
   1 + 2 + 3 + 4 + 1 + 2 + 3 + 4 + 1 + 2 + 3 + 4 + 1 + 2 + 3 + 4 +

7:53
G|-----------------------------------------------------------------|
D|-----------------------------------------------------------------|
A|-5-------5---5-5-3-----3---------1-----1-1-1-1-----1-1-1-1-1-1-1-|
D|--~----------------------3---------------------------------------|
   1 + 2 + 3 + 4 + 1 + 2 + 3 + 4 + 1 + 2 + 3 + 4 + 1 + 2 + 3 + 4 +

G|-----------------------------------------------------------------|
D|-----------------------------------------------------------------|
A|---------------------------------3-----3-3---r---1-----1-1-1-1---|
D|-5~----5-5-5-----3-----3-3-3-------------------------------------|
   1 + 2 + 3 + 4 + 1 + 2 + 3 + 4 + 1 + 2 + 3 + 4 + 1 + 2 + 3 + 4 +

8:05
G|-----------------------------------------------------------------|
D|-----------------------------------------------------------------|
A|-5---5---5---5---3---3-----------1---1-1-1-1-1---1---1-1-1-1-1---|
D|--~----------------------3---3-----------------------------------|
   1 + 2 + 3 + 4 + 1 + 2 + 3 + 4 + 1 + 2 + 3 + 4 + 1 + 2 + 3 + 4 +

G|---------------------------------|
D|---------------------------------|
A|---------------------------------|
D|-5~--5-5-5-5-5---3---3-3-3-3-3---|
   1 + 2 + 3 + 4 + 1 + 2 + 3 + 4 +

8:14
G|-------------------------------------------------------------------|
D|o-----------------------------------------------------------------o|
A|o-3---3---3---3---3---3---3---3---1---1---1---1---1---1---1---1---o| x3
D|-------------------------------------------------------------------|
    1 + 2 + 3 + 4 + 1 + 2 + 3 + 4 + 1 + 2 + 3 + 4 + 1 + 2 + 3 + 4 +

G|-------------------------------------------------------------------|
D|o-----------------------------------------------------------------o|
A|o-----------------------------------------------------------------o| x4
D|--1---1---1---1---3---3---3---3---5---5---5---5---5---5---5---5----|
    1 + 2 + 3 + 4 + 1 + 2 + 3 + 4 + 1 + 2 + 3 + 4 + 1 + 2 + 3 + 4 +

8:55
G|-----------------------------------------------------------------|
D|-----------------------------------------------------------------|
A|-----------------------------------------------------------------|
D|-1-------1-------3-------3-------5-------5-------5-------5-------|
   1 + 2 + 3 + 4 + 1 + 2 + 3 + 4 + 1 + 2 + 3 + 4 + 1 + 2 + 3 + 4 +

G|-----------------------------------------------------------------|
D|---------/---8---7---5---3-3-5-7-5-------------------------------|
A|-----------------------------------------------------------------|
D|-1---------------------------------------------------------------|
   1 + 2 + 3 + 4 + 1 + 2 + 3 + 4 + 1 + 2 + 3 + 4 + 1 + 2 + 3 + 4 +

Tabbed by Dave Vucko

--------------------------------------------------------------------------------------

Betrayed

G|-------------------------------------------------------------------|
D|---------------------3---3/7\3-------2---5320------------3-2-------|
A|-----6---5---5-----3---3-------5---2---2-----4---------3-------5-3-|
D|-5-8---8---8-----3---------------2-----------------0-2-------3-----|

G|-------------------------------------------------------------------|
D|---------------------3---3/7\3-------2---5320------------3-2-------|
A|-----6---5---5-----3---3-------5---2---2-----4---------3-------5-3-|
D|-8-5---8---8-----3---------------2-----------------0-2-------3-----|

0:14
G|-----------------------------------------------------------------|
D|---------------------3-----------------------------------2-------|
A|---------------1---11--110-115-----------------------3-----3-----|
D|-0-----2---3---------------------5-----3---2-2-----22--22----2---|

0:21
G|-----------------------------------------------------------------|
D|---------------------3---7-5-3-----------------------------3-2---|
A|-----------------------------------------------------3---3-----3-|
D|-0-----2---3-3-----33--33--------5-----3---2-2-----22--2---------|

0:28
G|-----------------------------------------------------------------|
D|-----------------------------------------------------------------|
A|-5-8-r-3---3-3-1---3-1-0-----------5---------------3-------------|
D|-------------------------3-3-3-3-5---5-3---3-3-2-----2-0-0-0-0-0-|

G|---------------------------------------------------------------------|
D|---------------------------------------------------------------------|
A|-5-8-r-3---3-3-1---3-1-0-----------5---------------3-----------------|
D|-------------------------3---3---5---5-3---3-3-2-----2-0/12-12-12-12-|

0:43
G|-----------------------------------------------------------------|
D|-5-0-5-7--h8---/-7-\-3-3-------/-5-\-2-2---7---7-0---2---3---4---|
A|-----------------------------------------------------------------|
D|-----------------------------------------------------------------|

0:50
G|-----------------------------------------------------------------|
D|-5-0-5-7--h8---5/7-\-3-3-----5-7/5-\-2-2---7---7-0---2---3---4---|
A|-----------------------------------------------------------------|
D|-----------------------------------------------------------------|

0:58
G|-------------------------------------------------------------------|
D|-5-0-5-7---8---8-10-12-7-3-3---5-7/5-\-2-2---7---7-0---2---3---4---|
A|-------------------------------------------------------------------|
D|-----------------------------------------------------0---0---0---0-|
   1 2 3 4 1 2 3 4  1  2 3 4 1 2 3 4 1 2 3 4 1 2 3 4 1 2 3 4 1 2 3 4 

1:06
G|-----------------------------------------------------------------|
D|-5-0-5-7--h8---5/7-\-3-3-------/-5-\-2-2---7---7-0---2---3---4---|
A|-----------------------------------------------------------------|
D|-----------------------------------------------------------------|

1:12
G|-------------------------------------------------------------------|
D|-7-------------12-11-----------------------------------------------|
A|-------------------------------------------------------------------|
D|-----------7-8-----------------0-0-----------------------------0-0-|
   1 2 3 4 1 2 3 4  1  2 3 4 1 2 3 4 1 2 3 4 1 2 3 4 1 2 3 4 1 2 3 4 

1:20
G|-----------------------------------------------------------------|
D|-----------------------------------------------------------------|
A|-----------------------------------------------------------------|
D|-----------------------------0-0-----------------------------0-0-|

G|------------------------------------------------------------------|
D|------------------------------------------------------------------|
A|------------------------------------------------------------------|
D|---------2-------3-------7---------------7-/-19---7---------------|

1:34
G|-----------7---------------------------------7---------------------|
D|---------7---7-------3---3-3h5p3-----------7---7-------3--/7-5-3---|
A|-5-----8-------8-3-----3-----------5-----8-------8-3-3---3---------|
D|-------------------------------------------------------------------|

1:41
G|-----------7---------------------------------7---------------------|
D|---------7---7-------3---3-3h5p3-----------7---7-------------------|
A|-5-----8-------8-3-3---3-----------5-----8-------8-3-3-3-3-5-5-5-5-|
D|-------------------------------------------------------------------|

1:49
G|-----------------------------------------------------------------|
D|-5-0-5-7--h8---5/7-\-3-3-------/-5-\-2-2---7---7-0---2---3---4---|
A|-----------------------------------------------------------------|
D|-----------------------------------------------------------------|

G|-----------------------------------------------------------------|
D|-5-0-5-7--h8---5/7-\-3-3-----5-7/5-\-2-2---7---7-0-0-2-2-3-3-4-4-|
A|-----------------------------------------------------------------|
D|-----------------------------------------------------------------|

2:04
G|-----------------------------------------------------------------|
D|-----------------------3/7\3-------------5320--------------------|
A|-------------4h5-------------5---------------4-------------------|
D|-5---5---5-------3---3-----------2-2-2-----------0-0-2-2-3-3-4-4-|

2:11
G|-------------------------------------------------|
D|-----------------------3/7\3-------------5320----|
A|-------------4h5-----------------------------4---|
D|-5-5-5---5-0-----3---3-----------2-2-2-----------|

G|------------------------------------------------------------------|
D|------------------------------------------------------------------|
A|------------------------------------------------------------------|
D|-0-------2-------3-------7-------------/-19-----------------------|

2:22
G|-----------------------------------------------------------------|
D|---------------------3-----------------------------------5-2-----|
A|---------------1---11--115-110h1---------------------3-----------|
D|-0-----2---3---------------------5-----3---2-2-----22--2-----2---|

2:30
G|-----------------------------------------------------------------|
D|---------------------3--/7-5-3-----------------------------3-2---|
A|-----------------------------------------------------3---3-----3-|
D|-0-----2---3-3-----33--3---------5-----3---2-2-----22--2---------|

2:37
G|-----------------------------------------------------------------|
D|-----------------------------------------------------------------|
A|-5-8-r-3---3-3-1---3-1-0-----------5---------------3-------------|
D|-------------------------3-3-3-3-5---5-3---3-3-2-----2-0-0-0-0-0-|

G|---------------------------------------------------------------------|
D|---------------------------------------------------------------------|
A|-5-8-r-3---3-3-1---3-1-0-----------5---------------3-----------------|
D|-------------------------3---3---5---5-3---3-3-2-----2-0/12-12-12-12-|

2:52 2x speed
G|-----------------------------------------------------------------|
D|-----------------3-3-3-3-------------------------5-5-5-5---------|
A|---------0-0-0-0---------3-3-3-3---------3-3-3-3---------5-5-5-5-|
D|-0-0-0-0-------------------------3-3-3-3-------------------------|

G|-----------------------------------------------------------------|
D|-----------------7-7-7-7-------------------------8-8-8-8---------|
A|---------5-5-5-5---------7-7-7-7---------5-5-5-5---------8-8-8-8-|
D|-5-5-5-5-------------------------5-5-5-5-------------------------|

2:59
G|-----------------7-7-7-7-----------------0-0-0-0-9-9-9-9-5-5-5-5-|
D|-------------------------8-8-8-8-3-3-3-3-------------------------|
A|---------8-8-8-8-------------------------------------------------|
D|-7-7-7-7---------------------------------------------------------|

G|-----------------------------------------------------------------|
D|-----------------------------------------------------------------|
A|---------------------------------5---5---5---5---5---5---5---5---|
D|-0---0---0---0---0---0---0---0-----------------------------------|

3:06 Reg Tempo x4
G|-------------------------------------------------------------------|
D|o-----------------------------------------------------------------o|
A|o---------------------------------3-3-3-3-3-3---------------------o|
D|--5-5-5-5-5-5-5-5-3-3-3-3-3-3-3-3-------------0-2-3-0-0-0-0-0-0-0--|

3:36
G|-----------------------------------------------------------------|
D|-----------------------------------------------------------------|
A|-1-1-1-1-1-1-1-1-1-1-1-1-1-1-1-1-3-3-3-3-3-3-3-3-5-5---0---0-0-0-|
D|-----------------------------------------------------------------|

3:44
G|-----------------------------------------------------------------|
D|-----------------------------------------------------------------|
A|-5-------------0-5---5-------/-9-3---------------3---3-------3---|
D|-----------------------------------------------5-----------5---5-|
   1 2 3 4 1 2 3 4 1 2 3 4 1 2 3 4 1 2 3 4 1 2 3 4 1 2 3 4 1 2 3 4 

3:51
G|-------------------------------3-5-----5-5-------5-5-5-4-4-4-2---|
D|-----------------------------------------------------------------|
A|-5-------------0-5---5-----3-5-----------------------------------|
D|-----------------------------------------------------------------|
   1 2 3 4 1 2 3 4 1 2 3 4 1 2 3 4 1 2 3 4 1 2 3 4 1 2 3 4 1 2 3 4 

3:58
G|-----------------------------------------------------------------|
D|-----------------------------3-----------------------------------|
A|-1-------------1-3-------------3-5---------------9---9-7---7-5---|
D|-----------------------------------------------------------------|
   1 2 3 4 1 2 3 4 1 2 3 4 1 2 3 4 1 2 3 4 1 2 3 4 1 2 3 4 1 2 3 4 

4:06
G|-----------------------------------------------------------------|
D|-------------------------3---3-5---------------------------------|
A|-1---------------3---------3-----5---------------5-----7---7-9---|
D|-----------------------------------------------------------------|
   1 2 3 4 1 2 3 4 1 2 3 4 1 2 3 4 1 2 3 4 1 2 3 4 1 2 3 4 1 2 3 4 

4:13
G|-----------------------------------------------------------------------------|
D|-8-----------8-9-10------------10----10h12------------10h12-12-10-10h12-12---|
A|-----------8----------------10----10---------------------------------------3-|
D|-----------------------------------------------------------------------------|
   1 2 3 4 1 2 3 4 1  2 3 4 1 2  3  4  1  2 3 4 1 2 3 4 1  2  3  4  1  2  3  4 

G|---------------------------------|
D|---------------------------------|
A|-1-1-1-1-1-1-1-1-3-3-3-3-3-3-3-3-|
D|---------------------------------|

4:24
G|-------------------------------------------------------------------|
D|o-----------------------------------------------------------------o|
A|o-5-----------5---------------------------------------------------o|
D|----6-5-3-0-3---6-5-3-0-3-----8-\-3-3-3-3-3-3-3-3-3-3-3-3-3-3-3-3--|

4:39
G|-----------------------------------------------------------------|
D|-----------------------------------------------------------------|
A|---------------------------------1-1-1-1-1-1-1-1-1-1-1-1-1-1-1-1-|
D|-1-1-1-1-1-1-1-1-1-1-1-1-1-1-1-1---------------------------------|

G|-----------------------------------------------------------------|
D|-----------------------------------------------------------------|
A|-----------------------------------------------1-1-1-1-1-1-1-1-1-|
D|-3-3-3-3-3-3-3-3-3-3-3-3-3-3-3-3-1-1-1-1-1-1-1-------------------|

4:53
G|-----------------------------------------------------------------|
D|-----------------------------------------------------------------|
A|-0--00-0-0--00-0-0--00-0-0--00-0-1--11-1-1--11-1-1--11-1-1--11-1-|
D|-----------------------------------------------------------------|

G|-------------------------------------------------------------|
D|-------------------------------------------------------------|
A|-3--33-3-3--33-3-3--33-3-3--33-3-5~--------------------0-/3\-|
D|--------------------------------------6~---5~---3~---3-------|

5:08
G|-----------------------------------------------------------------|
D|-----------------------------------------------------------------|
A|-----------------------------------------------------------------|
D|-0-0-0-0-0-0-0-0-0-0-0-0-0-0-0-0-1-1-1-1-1-1-1-1-1-1-1-1-1-1-1-1-|

G|-----------------------------------------------------------------|
D|-----------------------------------------111-------------111-----|
A|---------555-------------555-------------------------------------|
D|-0-0-0-0-----0-0-0-0-0-0-----0-0-1-1-1-1-----1-1-1-1-1-1-----1-1-|

5:23
G|-----------------------------------------------------------------|
D|-----------------------------------------------------------------|
A|-----------------------------------------------------------------|
D|-3-------------------------------3-------------------------------|

5:30
G|-----------------------------------------------------------------------|
D|-----------------------------------------------------------------------|
A|-----------------------------------------------------------------------|
D|-3-----3---3-----3-----3---3---/-15-----15---15-----15-----15---15-----|

5:38
G|-----------------------------------------------------------------|
D|-----------------------------------------------------------------|
A|-5-----------5-------------------5-----------5-------------------|
D|---6-5-3-0-3---6-5-3-0-3-6---8-----6-5-3-0-3---6-5-3-0-3-1-1-1-1-|

5;46
G|-----------------------------------------------------------------|
D|---------------------3-----------------------------------2-------|
A|---------------1---11--115-110h1---------------------3-----3-----|
D|-0---0-2---3---------------------5-----3---2-2-----22--2-----2---|

5:53
G|-----------------------------------------------------------------|
D|---------------------3--/7-5-3-----------------------------3-2---|
A|-----------------------------------------------------3---3-----3-|
D|-0-----2---3-3-----33--3---------5---5-3---3-2-----22--2---------|

6:00 x4
G|-------------------------------------------------------------------|
D|o-----------------------------------------------------------------o|
A|o-5-8-r-3---3-3-1---3-1-0-----------5---------------3-------------o|
D|--------------------------3-3-3-3-5---5-3---3-3-2-----2-0-0-0-0-0--|

6:29
G|-----------------------------------------------------------------|
D|-----------------------------------------------------------------|
A|-5-----------5-------------------5-----------5-------------------|
D|---6-5-3-0-3---6-5-3-0-3-6---8-----6-5-3-0-3---6-5-3-0-3-8-8-8-8-|

G|-----------------------------------------------------------------|
D|-----------------------------------------------------------------|
A|-5-----------5-------------------5-----------5-------------------|
D|---6-5-3-0-3---6-5-3-0-3-8-8-8-8---6-5-3-0-3---6-5-3-0-3-8-8-8-8-|
Tabbed by Dave Vucko

--------------------------------------------------------------------------------------

M.I.A. (Missing In Action)

(G|----10----14-10----------------------------------------15-14----18-15----|)
(D|-12----12-------12----12----14-15-12----14----15-14----------15-------14-|)
(A|-------------------13----13----------15----15-------15-------------------|)
(D|-------------------------------------------------------------------------|)

G|--10-------7-------9---------R--------|  |---------|
D|o-12-------8-------10--------R-------o|x6|-12------|
A|o------------------------------------o|  |---------|
D|--------------------------------------|  |---------|

1:04
G|------------------------------------------------------------------|
D|o-----------------------------------------------------------------|
A|o-5---5---7-8---1---1-1---3-5---3---333-333-333-333-333---3-4---5-|
D|------------------------------------------------------------------|
    1 + 2 + 3 + 4 + 1 + 2 + 3 + 4 + 1 + 2 + 3 + 4 + 1 + 2 + 3 + 4 +

G|------------------------------------------------------------------|
D|-----------------------------------------------------------------o|
A|---5-5---7-8---1---1-1---3-5---1-3-3---------1-----1-1-1-1-1-1-1-o|
D|---------------------------------------3---3----------------------|
   1 + 2 + 3 + 4 + 1 + 2 + 3 + 4 + 1 + 2 + 3 + 4 + 1 + 2 + 3 + 4 +

1:27
G|------------------------------------------------------------------|
D|o-------------------------------------------/-8---7-5-0-------5---|
A|o---------------------------------------------------------5-8-----|
D|--0-0-------------------------0-0-----------------------8-------5-|
    1 + 2 + 3 + 4 + 1 + 2 + 3 + 4 + 1 + 2 + 3 + 4 + 1 + 2 + 3 + 4 +

G|------------------------------------------------------------------|
D|-----------------------------------------------------10----------o|
A|---------------------------------3-3-------/-8---7-8-------8-7-8-o|
D|------------------------------------------------------------------|
   1 + 2 + 3 + 4 + 1 + 2 + 3 + 4 + 1 + 2 + 3 + 4 + 1 + 2 + 3 + 4 +

1:50
G|-----------------------------------------------------------------|  
D|-----------------------------------------------------------------| 
A|-----------------------------------------------------------------|
D|-6-5-0-3-----0-0-0-0-0-0-0-0-0-0-6-5-0-3-----0-0-0-0-0-0-0-0-0-0-|
   1 + 2 + 3 + 4 + 1 + 2 + 3 + 4 + 1 + 2 + 3 + 4 + 1 + 2 + 3 + 4 +

1:56
G|-----------------------------------------------------------------|  
D|-----------------------------------------------------------------| 
A|-1---1---1-1-1-------------------0---0---0---0-1-----0-1-1-1-1-1-|
D|---------------3---3-3---3-3-3-3-----------3-------3-------------|
   1 + 2 + 3 + 4 + 1 + 2 + 3 + 4 + 1 + 2 + 3 + 4 + 1 + 2 + 3 + 4 +

G|-----------------------------------------------------------------|  
D|-----------------------------------------------------------------| 
A|-----------------------------------------------------------------|
D|-6-5-0-3-----0-0-0-0-0-0-0-0-0-0-6-5-0-3-----0-0-0-0-0-0-0-0-0-0-|
   1 + 2 + 3 + 4 + 1 + 2 + 3 + 4 + 1 + 2 + 3 + 4 + 1 + 2 + 3 + 4 +

2:08
G|-----------------------------------------------------------------|  
D|-----------------------------------------------------------------| 
A|-1---1---1-1-1-------------------0---0---0---0-1-----0-1-1-------|
D|---------------3---3-3---3-3-3-3-----------3-------3-------------|
   1 + 2 + 3 + 4 + 1 + 2 + 3 + 4 + 1 + 2 + 3 + 4 + 1 + 2 + 3 + 4 +

2:13
G|-----------------------------------------------------------------|  
D|-----------------------------------------------------------------| 
A|-5---5---5-5-5-1---1-1---1-1-0-1-3---3---------------------------|
D|-----------------------------------------2-2-2-3---3-3---5-3-2-3-|
   1 + 2 + 3 + 4 + 1 + 2 + 3 + 4 + 1 + 2 + 3 + 4 + 1 + 2 + 3 + 4 +

2:19
G|-----------------------------------------------------------------|  
D|-----------------------------------------------------5-7-5-------| 
A|---------------0---0-1---1-1-1---3-3-3---3-3-3---3-3-------8-7-3-|
D|-5-5-----5-5-3---------------------------------5-----------------|
   1 + 2 + 3 + 4 + 1 + 2 + 3 + 4 + 1 + 2 + 3 + 4 + 1 + 2 + 3 + 4 +

2:25
G|-----------------------------------------------------------------|  
D|-----------------------------------------------------------------| 
A|-5---5---5-8-5-1---1-1---1-1-0-1-3---3---------------------------|
D|-----------------------------------------2-2-2-3---3-3---5-3-2-3-|
   1 + 2 + 3 + 4 + 1 + 2 + 3 + 4 + 1 + 2 + 3 + 4 + 1 + 2 + 3 + 4 +

2:31
G|-----------------------------------------------------------------------|  
D|-----------------------------------------------------------------------| 
A|---------------0---0-1---1-1-1---3-3-3---3-3-3---10-----15-15-15-15-15-|
D|-5-5-----5-5-3---------------------------------------------------------|
   1 + 2 + 3 + 4 + 1 + 2 + 3 + 4 + 1 + 2 + 3 + 4 + 1 + 2 + 3 + 4 +

2:37
G|------------------------------------------------------------------|
D|o-----------------------------------------------------------------|
A|o-5---5---7-8---1---1-1---3-5---3---333-333-333-333-333---3-4---5-|
D|------------------------------------------------------------------|
    1 + 2 + 3 + 4 + 1 + 2 + 3 + 4 + 1 + 2 + 3 + 4 + 1 + 2 + 3 + 4 +

G|------------------------------------------------------------------|
D|-----------------------------------------------------------------o|
A|---5-5---7-8---1---1-1---3-5---1-3-3---------1-----1-1-1-1-1-1-1-o|
D|---------------------------------------3---3----------------------|
   1 + 2 + 3 + 4 + 1 + 2 + 3 + 4 + 1 + 2 + 3 + 4 + 1 + 2 + 3 + 4 +

3:00
G|-----------------------------------------------------------------|  
D|-----------------------------------------------------------------| 
A|-----------------------------------------------------------------|
D|-6-5-0-3-----0-0-0-0-0-0-0-0-0-0-6-5-0-3-----0-0-0-0-0-0-0-0-0-0-|
   1 + 2 + 3 + 4 + 1 + 2 + 3 + 4 + 1 + 2 + 3 + 4 + 1 + 2 + 3 + 4 +

G|-----------------------------------------------------------------|  
D|-----------------------------------------------------------------| 
A|-1---1---1-1-1-------------------0---0---0---0-1-----0-1-1-1-1-1-|
D|---------------3---3-3---3-3-3-3-----------3-------3-------------|
   1 + 2 + 3 + 4 + 1 + 2 + 3 + 4 + 1 + 2 + 3 + 4 + 1 + 2 + 3 + 4 +

G|-----------------------------------------------------------------|  
D|-----------------------------------------------------------------| 
A|-----------------------------------------------------------------|
D|-6-5-0-3-----0-0-0-0-0-0-0-0-0-0-6-5-0-3-----0-0-0-0-0-0-0-0-0-0-|
   1 + 2 + 3 + 4 + 1 + 2 + 3 + 4 + 1 + 2 + 3 + 4 + 1 + 2 + 3 + 4 +

G|-----------------------------------------------------------------|  
D|-----------------------------------------------------------------| 
A|-1---1---1-1-1-------------------0---0---0---0-1-----0-1-1-------|
D|---------------3---3-3---3-3-3-3-----------3-------3-------------|
   1 + 2 + 3 + 4 + 1 + 2 + 3 + 4 + 1 + 2 + 3 + 4 + 1 + 2 + 3 + 4 +

3:23
G|-----------------------------------------------------------------|  
D|-------------------------------------------------3---3---5-3-2-3-| 
A|-5---5---5-5-5-1---1-1---1-1-0-1-3---3---3-3-3-------------------|
D|-----------------------------------------------------------------|
   1 + 2 + 3 + 4 + 1 + 2 + 3 + 4 + 1 + 2 + 3 + 4 + 1 + 2 + 3 + 4 +

G|-----------------------------------------------------------------|  
D|-----------------------------------------------------5-7-5-------| 
A|---------------0---0-1---1-1-1---3-3-3---3-3-3---3-3-------8-7-3-|
D|-5-5-----5-5-3---------------------------------5-----------------|
   1 + 2 + 3 + 4 + 1 + 2 + 3 + 4 + 1 + 2 + 3 + 4 + 1 + 2 + 3 + 4 + 

3:35
G|-----------------------------------------------------------------|  
D|---------------------------------------------2---3---3---5-3-2-3-| 
A|-5---5---5-8-5-1---1-1---1-1-0-1-3---3---3-----------------------|
D|-----------------------------------------------------------------|
   1 + 2 + 3 + 4 + 1 + 2 + 3 + 4 + 1 + 2 + 3 + 4 + 1 + 2 + 3 + 4 +

G|--------------------------------------------------------------------------|  
D|--------------------------------------------------------------------------| 
A|---------------0---0-1---1-1-1-3-3-3-3-3-3-3-3-10-15-15-15-15-15-15-15-15-|
D|-5-5-----5-5-3------------------------------------------------------------|

3:46
G|--------------------------------------------------|  
D|o-------------------------------------------------| 
A|o-------------------------1-----1-----1---0---1---|
D|--0-----0---0-0-------0---------------------------|
    1 + 2 + 3 + 1 + 2 + 3 + 1 + 2 + 3 + 1 + 2 + 3 + 

G|--------------------------------------------------|  
D|-------------------------------------------------o| 
A|-3-----3---3-3---3---3---------------0---0---0---o|
D|-------------------------3-----3---3--------------|
   1 + 2 + 3 + 1 + 2 + 3 + 1 + 2 + 3 + 1 + 2 + 3 + 

4:05
G|--------------------------------------------------|  
D|o-------------------------------------------------| 
A|o-------------------------------------------------|
D|--12\-0-0-0-0-12\-0-0-0-0-12\-0-0-0-0-12\-0-0-0-0-|
    1 + 2 + 3 + 1 + 2 + 3 + 1 + 2 + 3 + 1 + 2 + 3 + 

G|-------------------------------------------------|  
D|-------------------------------------------------| 
A|-------------------------------------------------|
D|-----0-0-0-0-----0-0-0-0-----0-0-0-0-0---2---3---|
   1 + 2 + 3 + 1 + 2 + 3 + 1 + 2 + 3 + 1 + 2 + 3 + 

G|--------------------------------------------------|  
D|-------------------------------------------------o| 
A|-------------------------------------------------o|
D|-8---8-8-8-8-8---8-8-8-8-8---8-8-8-8-8---8-8-8----|
   1 + 2 + 3 + 1 + 2 + 3 + 1 + 2 + 3 + 1 + 2 + 3 + 

4:30
G|-------------------------------------------------|  
D|-------------0-----------------------------------| 
A|---------0-------0-------------------------------|
D|-0-----0-------------0---2-----2---2-2---2---2---|
   1 + 2 + 3 + 1 + 2 + 3 + 1 + 2 + 3 + 1 + 2 + 3 + 

G|-------------------------------------------------|  
D|-------------------------------------------------| 
A|-------------------------------------0---0---0---|
D|-3-----3---3-3---3---3---3-----3---3-------------|
   1 + 2 + 3 + 1 + 2 + 3 + 1 + 2 + 3 + 1 + 2 + 3 + 

4:40 x4
G|------------------------------------------------------------------|  
D|o-----------------------------------------------------------------| 
A|o-5-555-555-555-555-555-555-555-551-111-111-111-111-111-111-111-11|
D|------------------------------------------------------------------|
    1 + 2 + 3 + 4 + 1 + 2 + 3 + 4 + 1 + 2 + 3 + 4 + 1 + 2 + 3 + 4 +

G|------------------------------------------------------------------|  
D|-----------------------------------------------------------------o| 
A|-3-333-333-333-333-333-333-333-330-0-0-4---4-4-7---7-7-4---4-7---o|
D|------------------------------------------------------------------|
   1 + 2 + 3 + 4 + 1 + 2 + 3 + 4 + 1 + 2 + 3 + 4 + 1 + 2 + 3 + 4 +

5:26
G|------------------------------------------------------------------|  
D|o-----------------------------------------------------------------| 
A|o-5-5-5---------------------------1-1-1---------------------------|
D|------------------------------------------------------------------|
    1 + 2 + 3 + 4 + 1 + 2 + 3 + 4 + 1 + 2 + 3 + 4 + 1 + 2 + 3 + 4 +

G|------------------------------------------------------------------|  
D|-----------------------------------------------------------------o| 
A|-3-3-3---------3-----------------0-0-0-4---4-4-7---7-7-4---4-7---o|
D|-------------5----------------------------------------------------|
   1 + 2 + 3 + 4 + 1 + 2 + 3 + 4 + 1 + 2 + 3 + 4 + 1 + 2 + 3 + 4 +

5:48
G|------------------------------------------------------------------|  
D|o-----------------------------------------------------------------| 
A|o-5---5---5-------5-5---5-5-------1---1---1-------1-1---1-1-------|
D|------------------------------------------------------------------|
    1 + 2 + 3 + 4 + 1 + 2 + 3 + 4 + 1 + 2 + 3 + 4 + 1 + 2 + 3 + 4 +

G|-----------------------------------------------------------------|  
D|-----------------------------------------------------------------| 
A|-3---3---3-------3-3---3-3---------------------------------------|
D|---------------------------------3---3---3-------3-3---3-3-------|
   1 + 2 + 3 + 4 + 1 + 2 + 3 + 4 + 1 + 2 + 3 + 4 + 1 + 2 + 3 + 4 +

G|-----------------------------------------------------------------|  
D|-----------------------------------------------------------------| 
A|-----------------------------------------------------------------|
D|-5---5---5-------5-5---5-5-------7---7---7-------8-8---8-8-------|
   1 + 2 + 3 + 4 + 1 + 2 + 3 + 4 + 1 + 2 + 3 + 4 + 1 + 2 + 3 + 4 +

G|------------------------------------------------------------------|  
D|---------------------------------5-------5-------5-7-5-3-5-3-2-3-o| 
A|-3---3---3-3-3---3-3-3---3-3-3-----3-3-----3-3-------------------o|
D|------------------------------------------------------------------|
   1 + 2 + 3 + 4 + 1 + 2 + 3 + 4 + 1 + 2 + 3 + 4 + 1 + 2 + 3 + 4 +


6:35
G|-------------------------------------------------|  
D|-------------------------------------------------| 
A|-------------------------1-----------1---0---1---|
D|-0-------------------0-0-------------------------|
   1 + 2 + 3 + 1 + 2 + 3 + 1 + 2 + 3 + 1 + 2 + 3 + 

G|-------------------------------------------------|  
D|-------------------------------------------------| 
A|-3-----3---3-3-------3---------------0---0---0---|
D|-------------------------3-----3---3-------------|
   1 + 2 + 3 + 1 + 2 + 3 + 1 + 2 + 3 + 1 + 2 + 3 + 

G|-------------------------------------------------|  
D|-------------------------------------------------| 
A|-------------------------1-----------1---0---1---|
D|-0-------------------0-0-------------------------|
   1 + 2 + 3 + 1 + 2 + 3 + 1 + 2 + 3 + 1 + 2 + 3 + 

G|-------------------------------------------------|-----|
D|-------------------------------------------------|-----|
A|-3-----3---3-3---3---3---------------0---0---0---|-----|
D|-------------------------3-----3---3-------------|-0---|
   1 + 2 + 3 + 1 + 2 + 3 + 1 + 2 + 3 + 1 + 2 + 3 + 

7:03
G|-10-------7-------9---------R--------|  
D|-12-------8-------10--------R--------| 
A|-------------------------------------|
D|-(0)-----(0)------(0)------(0)-------|

7:13
G|--10-------7-------9---------R--------|  
D|o-12-------8-------10--------R-------o|x3
A|o------------------------------------o|
D|--------------------------------------|

7:44
G|-10-------R-------10-------(12)-------10-------(10)-------9--------(9)-------|  
D|-8--------R-------12-------(12)-------11-------(11)-------10-------(10)------| 
A|-----------------------------------------------------------------------------|
D|-----------------------------------------------------------------------------|

8:05
G|--10-------7-------9---------R--------|  
D|o-12-------8-------10--------R-------o|x4
A|o------------------------------------o|
D|--------------------------------------|

Tabbed by Dave Vucko
comments
We did not receive enough feedback on this tab! Please rate:
print report bad tab
1 2 3 4 5
I want to post or [tab]
guest
You may want to rate the tab now too:
select rating
Please do not post tabs as comments. Select "correction" instead!