Oops, an error
Loading. Please wait.

City Of Evil Tab

58,724 views 51 this week
47 commentsread comments
1 2 3 4 5
worth learning
x 46
add to favorites launch autoscroll
font size
0
reset
Autoscroll
+/-
esc
set tempo
stop
Contributor
WARNING: You are trying to view
                                    content from Ultimate-Guitar.com
                                    in an unauthorized application,
                                    which is prohibited.

                                    Please use an official Ultimate
                                    Guitar Tabs application for iPhone,
                                    iPad or Android to access legitimate
                                    chords, guitar, bass, and drum tabs
                                    from Ultimate-Guitar.com database.

                                    Type "ultimate guitar tabs" in Apple
                                    App Store's or Android Market's
                                    search to find the application.
Beast And The Harlot
Gtr I
|------------------------||----------------------|
|------------------------||----------------------|
|------------------------||--7----7--7--7--7---7-|
|--4---4--4--4--4--4---4-||--7----7--7--7--7---7-|
|--4---4--4--4--4--4---4-||--5----5--5--5--5---5-|
|--4---4--4--4--4--4---4-||----------------------|
|
| Gtr II
|  ~~              ~~        ~~            ~~
|------------------------||----------------------|
|--7---7--6--7--9-10---5-||--6----6--5--6--8--/6-|
|------------------------||----------------------|
|------------------------||----------------------|
|------------------------||----------------------|
|------------------------||----------------------|
|
| Gtr IV
|------------------------||----------------------|
|-19--19-18-19-21-22--17-||-18---18-17-18-20--18-|
|------------------------||----------------------|
|-16--16-15-16-18-19--14-||-15---15-14-15-17--15-|
|------------------------||----------------------|
|------------------------||----------------------|


  Db5                    C5
                        6/8
|----------------------|------------------|
|----------------------|------------------|
|--6----6--6--6--6---6-|--5------5--5--5--|
|--6----6--6--6--6---6-|--5------5--5--5--|
|--4----4--4--4--4---4-|--3------3--3--3--|
|----------------------|------------------|
|
|  ~~            ~~       ~~
|----------------------|------------------|
|--6----6--5--6--8--/6-|--6---6--5--6--8--|
|----------------------|------------------|
|----------------------|------------------|
|----------------------|------------------|
|----------------------|------------------|
|
|----------------------|------------------|
|-18---18-17-18-20--18-|-18--18-17-18-20--|
|----------------------|------------------|
|-15---15-14-15-17--15-|-15--15-14-15-17--|
|----------------------|------------------|
|----------------------|------------------|


  F5                            Db5
|-----------------------------|--------------------------|
|-----------------------------|--------------------------|
|-----------------------------|---6-6-6---6---6--6--6--6-|
|--3-3-3--3---3--3-3-3--3---3-|---6-6-6---6---6--6--6--6-|
|--3-3-3--3---3--3-3-3--3---3-|---4-4-4---4---4--4--4--4-|
|--3-3-3--3---3--3-3-3--3---3-|--------------------------|
|
|  ~~            ~~               ~~~
|-----------------------------|--------------------------|
|-/9-----(9)\---/9-----(9)\---|-/11-----(11)\----9-11-13-|
|-----------------------------|--------------------------|
|-----------------------------|--------------------------|
|-----------------------------|--------------------------|
|-----------------------------|--------------------------|
|
|-16------------16------------|--18-------------16-18-20-|
|-----------------------------|--------------------------|
|-13------------13------------|--15-------------13-15-17-|
|-----------------------------|--------------------------|
|-----------------------------|--------------------------|
|-----------------------------|--------------------------|


  Bb5
|---------------------------------|
|---------------------------------|
|---3-3-3---3---3---3-3-3---3---3-|
|---3-3-3---3---3---3-3-3---3---3-|
|---1-1-1---1---1---1-1-1---1---1-|
|---------------------------------|
|
|   ~~~             ~~~
|---------------------------------|
|-/14-----(14)\---/14-----(14)\---|
|---------------------------------|
|---------------------------------|
|---------------------------------|
|---------------------------------|
|
|--21--------------21-------------|
|---------------------------------|
|--18--------------18-------------|
|---------------------------------|
|---------------------------------|
|---------------------------------|


  A5
|-----------------|----------------||
|-----------------|----------------||
|--2--------------|--(2)-----------||
|--2--------------|--(2)-----------||
|--0--------------|--(0)-----------||
|-----------------|----------------||
|
|            ~~~~~~~~~~~~~~~~~~~~
|-----------------|----------------||
|-16b17====(16)---|-(16)---(16)r---||
|-----------------|----------------||
|-----------------|----------------||
|-----------------|----------------||
|-----------------|----------------||
|
|-21--------------|-(21)-----------||
|-----------------|----------------||
|-18--------------|-(18)-----------||
|-----------------|----------------||
|-----------------|----------------||
|-----------------|----------------||


  Faster Q=155
  D5
 4/4
  Gtr I
|----------|------------|------------|--------|
|----------|------------|------------|--------|
|----------|------------|------------|--------|
|-0--------|-(0)--------|-(0)--------|-(0)----|
|-0--------|-(0)--------|-(0)--------|-(0)----|
|-0--------|-(0)--------|-(0)--------|-(0)----|
|
| Gtr II
|----------|------------|------------|--------|
|----------|------------|------------|--------|
|----------|------------|------------|--------|
|-0--------|-(0)--------|-(0)--------|-(0)----|
|-0--------|-(0)--------|-(0)--------|-(0)----|
|-0--------|-(0)--------|-(0)--------|-(0)----|


  D5
  Gtr I
|--------------------------------|-----------------------------|
|--------------------------------|-----------------------------|
|--------------------------------|-----------------------------|
|--0-----------------------------|--(0)------------------------|
|--0-----------------------------|--(0)------------------------|
|--0-----------------------------|--(0)------------------------|
|
| Gtr II
|  PM----|    PM----|    PM----|        PM----|    PM----|
|--------------------------------|-----------------------------|
|--------------------------------|-----------------------------|
|--------------------------------|-----------------------------|
|--0-0-0-0-15-0-0-0-0-17-0-0-0-0-|--18--0-0-0-0-17-0-0-0-0-15--|
|--------------------------------|-----------------------------|
|--------------------------------|-----------------------------|
|
| Gtr III
|-22-----------------------------|-(22)------------------------|
|--------------------------------|-----------------------------|
|--------------------------------|-----------------------------|
|--------------------------------|-----------------------------|
|--------------------------------|-----------------------------|
|--------------------------------|-----------------------------|


|----------------------------------|-------------------------------|
|----------------------------------|-------------------------------|
|----------------------------------|-------------------------------|
|--(0)-----------------------------|--(0)--------------------------|
|--(0)-----------------------------|--(0)--------------------------|
|--(0)-----------------------------|--(0)--------------------------|
|
|   PM-----|    PM----|    PM----|        PM----|    PM----|
|----------------------------------|-------------------------------|
|----------------------------------|-------------------------------|
|----------------------------------|-------------------------------|
|---0--0-0-0-15-0-0-0-0-17-0-0-0-0-|--18--0-0-0-0-17-0-0-0-0-15----|
|----------------------------------|-------------------------------|
|----------------------------------|-------------------------------|
|
|-(22)-----------------------------|-(22)--------------------------|
|----------------------------------|-------------------------------|
|----------------------------------|-------------------------------|
|----------------------------------|-------------------------------|
|----------------------------------|-------------------------------|
|----------------------------------|-------------------------------|


  D5
|----------------------------------|----------------------------|
|----------------------------------|----------------------------|
|----------------------------------|----------------------------|
|--(0)-----------------------------|-(0)------------------------|
|--(0)-----------------------------|-(0)------------------------|
|--(0)-----------------------------|-(0)------------------------|
|
|   PM-----|    PM----|    PM----|       PM----|    PM----|
|----------------------------------|----------------------------|
|----------------------------------|----------------------------|
|----------------------------------|----------------------------|
|---0--0-0-0-15-0-0-0-0-17-0-0-0-0-|-18--0-0-0-0-17-0-0-0-0-15--|
|----------------------------------|----------------------------|
|----------------------------------|----------------------------|
|
|-(22)-----------------------------|----------------------------|
|----------------------------------|----------------------------|
|----------------------------------|----------------------------|
|----------------------------------|----------------------------|
|----------------------------------|----------------------------|
|----------------------------------|----------------------------|


|---------------------------------|------------------------------------------||
|---------------------------------|------------------------------------------||
|---------------------------------|------------------------------------------||
|-(0)-----------------------------|-(0)--------------------------------------||
|-(0)-----------------------------|-(0)--------------------------------------||
|-(0)-----------------------------|-(0)--------------------------------------||
|
|  PM-----|    PM----|    PM----|       PM----|
|---------------------------------|-------------------------10s13-10----13---||
|---------------------------------|----------------------10----------13------||
|---------------------------------|-------------12-10-13---------------------||
|--0--0-0-0-15-0-0-0-0-17-0-0-0-0-|-18--0-0-0-0------------------------------||
|---------------------------------|------------------------------------------||
|---------------------------------|------------------------------------------||
|
|---------------------------------|------------------------------------------||
|---------------------------------|------------------------------------------||
|---------------------------------|------------------------------------------||
|---------------------------------|------------------------------------------||
|---------------------------------|------------------------------------------||
|---------------------------------|------------------------------------------||


 Pre-Verse
  N.C.         F5           G5          Ab5          G5        F5G5
   PM--------|      PM----|   PM----|        PM----|   PM----|
|-------------------------------------|----------------------------|
|-------------------------------------|----------------------------|
|-------------------------------------|----------------------------|
|----------------3----------5---------|---6----------5---------3-5-|
|----------------3----------5---------|---6----------5---------3-5-|
|--0-----0-0-0---3--0-0-0-0-5-0-0-0-0-|---6--0-0-0-0-5-0-0-0-0-3-5-|
|
|-10----------------------------------|----------------------------|
|-------------------------------------|----------------------------|
|-------------------------------------|----------------------------|
|-------------------------------------|----------------------------|
|-------------------------------------|----------------------------|
|-------------------------------------|----------------------------|
|
|-20b22========(20)-------------------|-(20)-----------------------|
|-------------------------------------|----------------------------|
|-------------------------------------|----------------------------|
|-------------------------------------|----------------------------|
|-------------------------------------|----------------------------|
|-------------------------------------|----------------------------|


             F5        G5    Ab5             F5        G5    Ab5
    PM-----|   PM----|   PM|       PM------|   PM----|   PM|
|------------------------------|----------------------------------|
|------------------------------|----------------------------------|
|------------------------------|----------------------------------|
|------------3---------5-----6-|-------------3---------5-----6----|
|------------3---------5-----6-|-------------3---------5-----6----|
|---0--0-0-0-3-0-0-0-0-5-0-0-6-|---0---0-0-0-3-0-0-0-0-5-0-0-6----|
|
|------------------------------|----------------------------------|
|------------------------------|----------------------------------|
|------------------------------|----------------------------------|
|------------------------------|----------------------------------|
|------------------------------|----------------------------------|
|------------------------------|----------------------------------|
|
|-(20)-------------------------|-(20)r----------------------------|
|------------------------------|----------------------------------|
|------------------------------|----------------------------------|
|------------------------------|----------------------------------|
|------------------------------|----------------------------------|
|------------------------------|----------------------------------|


  N.C.    F5        G5          Ab5       G5        F5G5
  Gtr I
  PM----|   PM----|   PM----|     PM----|   PM----|
|-----------------------------|-------------------------|
|-----------------------------|-------------------------|
|-----------------------------|-------------------------|
|---------3---------5---------|-6---------5---------3-5-|
|---------3---------5---------|-6---------5---------3-5-|
|-0-0-0-0-3-0-0-0-0-5-0-0-0-0-|-6-0-0-0-0-5-0-0-0-0-3-5-|


          F5        G5    Ab5         F5
  PM----|   PM----|   PM|     PM----|   PM----|   PM|
|---------------------------|------------------------------||
|---------------------------|------------------------------||
|---------------------------|------------------------------||
|---------3---------5-----6-|---------3---------3-----3----||
|---------3---------5-----6-|---------3---------3-----3----||
|-0-0-0-0-3-0-0-0-0-5-0-0-6-|-0-0-0-0-3-0-0-0-0-3-0-0-3----||


   Verse
                                                          $
    N.C.    F5        G5          Ab5       G5        F5G5
    Gtrs I, II
    PM----|   PM----|   PM----|     PM----|   PM----|
||------------------------------|-------------------------|
||o-----------------------------|-------------------------|
||------------------------------|-------------------------|
||----------3---------5---------|-6---------5---------3-5-|
||o---------3---------5---------|-6---------5---------3-5-|
||--0-0-0-0-3-0-0-0-0-5-0-0-0-0-|-6-0-0-0-0-5-0-0-0-0-3-5-|


  N.C.    F5        G5    Ab5         F5        G5    Ab5
  PM----|   PM----|   PM|     PM----|   PM----|   PM|
|---------------------------|------------------------------|
|---------------------------|------------------------------|
|---------------------------|------------------------------|
|---------3---------5-----6-|---------3---------5-----6----|
|---------3---------5-----6-|---------3---------5-----6----|
|-0-0-0-0-3-0-0-0-0-5-0-0-6-|-0-0-0-0-3-0-0-0-0-5-0-0-6----|


  N.C.    F5        G5          Ab5       G5        F5G5
  PM----|   PM----|   PM----|     PM----|   PM----|
|-----------------------------|-------------------------|
|-----------------------------|-------------------------|
|-----------------------------|-------------------------|
|---------3---------5---------|-6---------5---------3-5-|
|---------3---------5---------|-6---------5---------3-5-|
|-0-0-0-0-3-0-0-0-0-5-0-0-0-0-|-6-0-0-0-0-5-0-0-0-0-3-5-|


  N.C.    F5        G5    Ab5         F5
  PM----|   PM----|   PM|     PM----|   PM----|   PM|
|---------------------------|------------------------------|
|---------------------------|------------------------------|
|---------------------------|------------------------------|
|---------3---------5-----6-|---------3---------3-----3----|
|---------3---------5-----6-|---------3---------3-----3----|
|-0-0-0-0-3-0-0-0-0-5-0-0-6-|-0-0-0-0-3-0-0-0-0-3-0-0-3----|


  Bb5         G5 Ab5A5 Bb5    A5 Bb5B5 C5
|-----------|--------------||---------------||
|-----------|-------------o||---------------||
|-----------|--------------||---------------||
|-8------8S=|=5--6--7--8---||-7--8--9--10\--||
|-8------8S=|=5--6--7--8--o||-7--8--9--10\--||
|-8------8S=|=5--6--7--8---||-7--8--9--10\--||


   Chorus
    $$
    F5
    Gtr I
||------------------------------------|
||o-----------------------------------|
||------------------------------------|
||---3--3-3-(3)-3--3--3--3-3-(3)-3--3-|
||o--3--3-3-(3)-3--3--3--3-3-(3)-3--3-|
||---3--3-3-(3)-3--3--3--3-3-(3)-3--3-|
|
|   Gtr II
||----------------13---------------13-|
||o---------13---------------13-------|
||-----14---------------14------------|
||--15---------------15---------------|
||o-----------------------------------|
||------------------------------------|


  C5
|-----------------------------------------|
|-----------------------------------------|
|-----------------------------------------|
|-10-10-10-(10)-10-10-10-10-10-(10)-10-10-|
|-10-10-10-(10)-10-10-10-10-10-(10)-10-10-|
|-10-10-10-(10)-10-10-10-10-10-(10)-10-10-|
|
|------------------12------------------12-|
|-----------13------------------13--------|
|----12------------------12---------------|
|-14------------------14------------------|
|-----------------------------------------|
|-----------------------------------------|


  Bb5
|-----------------------------------|------------------------------------||
|-----------------------------------|-----------------------------------o||
|-----------------------------------|------------------------------------||
|--8--8-8-(8)-8--8--8--8-8-(8)-8--8-|--8--8-8-(8)-8--8--8--8-8-(8)-8--8--||
|--8--8-8-(8)-8--8--8--8-8-(8)-8--8-|--8--8-8-(8)-8--8--8--8-8-(8)-8--8-o||
|--8--8-8-(8)-8--8--8--8-8-(8)-8--8-|--8--8-8-(8)-8--8--8--8-8-(8)-8--8--||
|
|---------------10---------------10-|---------------10-10------12--------||
|---------11---------------11-------|---------11----------11---------13-o||
|----10---------------10------------|----10------------------------------||
|-12---------------12---------------|-12---------------------------------||
|-----------------------------------|-----------------------------------o||
|-----------------------------------|------------------------------------||


  G5                                  F5
|-----------------------------------|-----------------------------------|
|-----------------------------------|-----------------------------------|
|-----------------------------------|-----------------------------------|
|--5--5-5-(5)-5--5--5--5-5-(5)-5--5-|--3--3-3-(3)-3--3--3--3-3-(3)-3--3-|
|--5--5-5-(5)-5--5--5--5-5-(5)-5--5-|--3--3-3-(3)-3--3--3--3-3-(3)-3--3-|
|--5--5-5-(5)-5--5--5--5-5-(5)-5--5-|--3--3-3-(3)-3--3--3--3-3-(3)-3--3-|
|
|---------------15---------------15-|---------------13---------------13-|
|---------15---------------15-------|---------13---------------13-------|
|----15---------------15------------|----14---------------14------------|
|-17---------------17---------------|-15---------------15---------------|
|-----------------------------------|-----------------------------------|
|-----------------------------------|-----------------------------------|


  C5                                        Bb5
|-----------------------------------------|-----------------------------------|
|-----------------------------------------|-----------------------------------|
|-----------------------------------------|-----------------------------------|
|-10-10-10-(10)-10-10-10-10-10-(10)-10-10-|--8--8-8-(8)-8--8--8--8-8-(8)-8--8-|
|-10-10-10-(10)-10-10-10-10-10-(10)-10-10-|--8--8-8-(8)-8--8--8--8-8-(8)-8--8-|
|-10-10-10-(10)-10-10-10-10-10-(10)-10-10-|--8--8-8-(8)-8--8--8--8-8-(8)-8--8-|
|
|------------------12------------------12-|---------------10---------------10-|
|-----------13------------------13--------|---------11---------------11-------|
|----12------------------12---------------|----10---------------10------------|
|-14------------------14------------------|-12---------------12---------------|
|-----------------------------------------|-----------------------------------|
|-----------------------------------------|-----------------------------------|


  F5 Bb5       E5 Bb5         D5 Bb5       C5 Bb5A5 Bb5
|---------------------------|--------------------------|
|---------------------------|--------------------------|
|-10------------9-----------|--------------------------|
|-10--8-(8)--8--9--8-(8)--8-|-12--8-(8)--8-10--8--7--8-|
|--8--8-(8)--8--7--8-(8)--8-|-12--8-(8)--8-10--8--7--8-|
|-----8-(8)--8-----8-(8)--8-|-12--8-(8)--8-10--8--7--8-|
|
|-13-----------12-----------|-10-----------------------|
|----11-----11----11-----11-|----11-----11-13-11-10-11-|
|-------10-----------10-----|-------10-----------------|
|---------------------------|--------------------------|
|---------------------------|--------------------------|
|---------------------------|--------------------------|


                                                 To Coda
                                                 To Coda
  A5           Db6
|----------------------------|-----------------------------||
|----------------------------|-----------------------------||
|----------------------------|-----------------------------||
|--7--7-(7)--7-11-11-(11)-11-|-11-11-(11)-11-11-11-(11)-11-||
|--7--7-(7)--7-12-12-(12)-12-|-12-12-(12)-12-12-12-(12)-12-||
|--7--7-(7)--7-11-11-(11)-11-|-11-11-(11)-11-11-11-(11)-11-||
|
|-12-----------10------------|--9--------------------------||
|----10-----10----10------10-|----10------10-11-10---------||
|--------9-------------9-----|---------9-------------9-----||
|----------------------------|--------------------------11-||
|----------------------------|-----------------------------||
|----------------------------|-----------------------------||


 Bridge
  N.C.     F5        G5              Ab5        G5        F5G5
  Gtr I
   PM----|   PM----|     PM------|      PM----|   PM----|
|----------------------------------|--------------------------|
|----------------------------------|--------------------------|
|----------------------------------|--------------------------|
|----------3---------5-------------|--6---------5---------3-5-|
|----------3---------5-------------|--6---------5---------3-5-|
|--0-0-0-0-3-0-0-0-0-5---0---0-0-0-|--6-0-0-0-0-5-0-0-0-0-3-5-|
|
| Gtrs II, III                       Gtr II
|-10-------------------(10)\-------|-13-----------------------|
|----------------------------------|--------------------------|
|--7--------------------(7)\-------|--------------------------|
|----------------------------------|--------------------------|
|----------------------------------|--------------------------|
|----------------------------------|--------------------------|


  N.C.     F5        G5    Ab5            F5
   PM----|   PM----|   PM|      PM----|        PM----|   PM|
|----------------------------|------------------------------------|
|----------------------------|------------------------------------|
|----------------------------|------------------------------------|
|----------3---------5-----6-|--------------3----------3-----3----|
|----------3---------5-----6-|--------------3----------3-----3----|
|--0-0-0-0-3-0-0-0-0-5-0-0-6-|--0-0-0---0---3--0-0-0-0-3-0-0-3----|
|
|-16-------------------------|-16-----/16-(16)--------------------|
|----------------------------|------------------------------------|
|----------------------------|------------------------------------|
|----------------------------|------------------------------------|
|----------------------------|------------------------------------|
|----------------------------|------------------------------------|


  Bb5                               G5     Ab5    A5     Bb5
|---------------------------------|-----------------------------|
|---------------------------------|-----------------------------|
|---------------------------------|-----------------------------|
|--8----------------------8S======|==5------6------7------8-----|
|--8----------------------8S======|==5------6------7------8-----|
|--8----------------------8S======|==5------6------7------8-----|
|
|-13-10----10---------------------|-----------------------------|
|-------13----13b15=====(13)r(13)-|--8------9-----10-----11-----|
|---------------------------------|-10b12--11b13--12b14--13b15--|
|---------------------------------|-----------------------------|
|---------------------------------|-----------------------------|
|---------------------------------|-----------------------------|


  A5          Bb5         B5          C5
|--------------------------------------------------||
|--------------------------------------------------||
|--------------------------------------------------||
|--7-----------8-----------9----------10\----------||
|--7-----------8-----------9----------10\----------||
|--7-----------8-----------9----------10\----------||
|
|-----------------------------------------12-13-15-||
|-13-12-11-10-14-13-12-11-15-14-13-14s15-----------||
|--------------------------------------------------||
|--------------------------------------------------||
|--------------------------------------------------||
|--------------------------------------------------||


 Guitar Solo
  F5
|----------------------------------------------|
|----------------------------------------------|
|----------------------------------------------|
|--3-3-3--(3)-3--3-----3-----3--3-(3)--3--3----|
|--3-3-3--(3)-3--3-----3-----3--3-(3)--3--3----|
|--3-3-3--(3)-3--3-----3-----3--3-(3)--3--3----|
|
|-17-----(17)---17-------17--------------------|
|------------------18-17----17-18-17-----17----|
|-------------------------------------17----17-|
|----------------------------------------------|
|----------------------------------------------|
|----------------------------------------------|


  C5
|---------------------------------------------------|
|---------------------------------------------------|
|---------------------------------------------------|
|-10----10-10-(10)-10-10---10---10-10-(10)-10-10----|
|-10----10-10-(10)-10-10---10---10-10-(10)-10-10----|
|-10----10-10-(10)-10-10---10---10-10-(10)-10-10----|
|
|-20-17---------------------------------------------|
|-------20-17S==3---1----1--------------------------|
|----------------------2----------------------------|
|---------------------------------------5---6--7-8--|
|---------------------------5-6--7--8---------------|
|---------------------------------------------------|


  Bb5
|---------------------------------|
|---------------------------------|
|---------------------------------|
|-8-8-8-(8)-8-8---8-8-8-(8)-8-8---|
|-8-8-8-(8)-8-8---8-8-8-(8)-8-8---|
|-8-8-8-(8)-8-8---8-8-8-(8)-8-8---|
|
|---------------------------------|
|---------------------------------|
|-7-----(7)S====5-9-----(9)---7-9-|
|---------------------------------|
|---------------------------------|
|---------------------------------|


|---------------------------------------------|
|---------------------------------------------|
|---------------------------------------------|
|--8-8-8--(8)-8-8-----8-----8--8-(8)--8--8----|
|--8-8-8--(8)-8-8-----8-----8--8-(8)--8--8----|
|--8-8-8--(8)-8-8-----8-----8--8-(8)--8--8----|
|
|------------------------------------------12-|
|-----------------------10-13-10-----10-13----|
|-10-----(10)---9-10-13----------13-----------|
|---------------------------------------------|
|---------------------------------------------|
|---------------------------------------------|


  F5
  Gtr I
|-----------------------------------------------|
|-----------------------------------------------|
|-----------------------------------------------|
|---3-3-3--(3)-3---3-----3---3---3--(3)-3---3---|
|---3-3-3--(3)-3---3-----3---3---3--(3)-3---3---|
|---3-3-3--(3)-3---3-----3---3---3--(3)-3---3---|
|
| Gtr II
|-/13-----(13)---(13)\-/13-(13)\---/15----(15)\-|
|-----------------------------------------------|
|-----------------------------------------------|
|-----------------------------------------------|
|-----------------------------------------------|
|-----------------------------------------------|
|
| Gtr III
|-/17-----(17)---(17)\-/17-(17)\---/18----(18)\-|
|-----------------------------------------------|
|-----------------------------------------------|
|-----------------------------------------------|
|-----------------------------------------------|
|-----------------------------------------------|


  C5
|-------------------------------------------------|
|-------------------------------------------------|
|-------------------------------------------------|
|--10-10-10-(10)-10--10----10-10-10-(10)-10--10---|
|--10-10-10-(10)-10--10----10-10-10-(10)-10--10---|
|--10-10-10-(10)-10--10----10-10-10-(10)-10--10---|
|
|-/12-------(12)----(12)\-------------------------|
|-------------------------/13-------(13)----(13)\-|
|-------------------------------------------------|
|-------------------------------------------------|
|-------------------------------------------------|
|-------------------------------------------------|
|
|-/15-------(15)----(15)\-------------------------|
|-------------------------/17-------(17)----(17)\-|
|-------------------------------------------------|
|-------------------------------------------------|
|-------------------------------------------------|
|-------------------------------------------------|


  Bb5
|-------------------------------------------------|
|-------------------------------------------------|
|-------------------------------------------------|
|--8-----8-8--(8)-8---8----8------8-8--(8)-8---8--|
|--8-----8-8--(8)-8---8----8------8-8--(8)-8---8--|
|--8-----8-8--(8)-8---8----8------8-8--(8)-8---8--|
|
|-------------------------------------------------|
|-13b15======(13)r==(13)-(13)b15======(13)r==(13)-|
|-------------------------------------------------|
|-------------------------------------------------|
|-------------------------------------------------|
|-------------------------------------------------|
|
|-12b13======(12)r==(12)-(12)b13======(12)r==(12)-|
|-------------------------------------------------|
|-------------------------------------------------|
|-------------------------------------------------|
|-------------------------------------------------|
|-------------------------------------------------|


|-------------------------------|
|-------------------------------|
|-------------------------------|
|--8--8-8-(8)-8-8-8-8-8-(8)-8-8-|
|--8--8-8-(8)-8-8-8-8-8-(8)-8-8-|
|--8--8-8-(8)-8-8-8-8-8-(8)-8-8-|
|
|  ~~~
|-------------------------------|
|-------------------------------|
|-[5]---------------------------|
|-------------------------------|
|-------------------------------|
|-------------------------------|
|
|  ~~~
|-------------------------------|
|-[5]---------------------------|
|-------------------------------|
|-------------------------------|
|-------------------------------|
|-------------------------------|


  G5
  Gtr I
|-----------------------------------------------------|
|-----------------------------------------------------|
|-----------------------------------------------------|
|-5---5-5-(5)-5-5---5-------5---5---(5)---5---5-------|
|-5---5-5-(5)-5-5---5-------5---5---(5)---5---5-------|
|-5---5-5-(5)-5-5---5-------5---5---(5)---5---5-------|
|
| Gtr II
| PM---------------------------------------------------
|-----------------------------------------------------|
|-----------------------------------------------------|
|-------------------8-7-6-5-8-7-6-5-------------------|
|----------5--6-7-8------------------8--7-6-5-8-7-6-5-|
|-5-6-7-8---------------------------------------------|
|-----------------------------------------------------|


  F5
|-----------------------------------------------------------|
|-----------------------------------------------------------|
|-----------------------------------------------------------|
|-3---3--3-(3)-3-3-----3--------3---3---(3)---3----3--------|
|-3---3--3-(3)-3-3-----3--------3---3---(3)---3----3--------|
|-3---3--3-(3)-3-3-----3--------3---3---(3)---3----3--------|
|
|--------------------------------------------------------|
|-----------------------------------------------------------|
|-----------------------------------------------------------|
|---------------------10-9-8-7-10-9-8-7---------------------|
|-----------7--8-9-10-------------------10--9-8-7-10-9-8-7--|
|-7-8-9-10--------------------------------------------------|
|-----------------------------------------------------------|


  C5
|-------------------------------------------------------------|
|-------------------------------------------------------------|
|-------------------------------------------------------------|
|-10----10-10-(10)-10-10----10---10-10-(10)----10----10-------|
|-10----10-10-(10)-10-10----10---10-10-(10)----10----10-------|
|-10----10-10-(10)-10-10----10---10-10-(10)----10----10-------|
|
|-------------------------------------------------------------|
|---------------------------------------10--11----13-10-11-13-|
|---------------------------12-9-10-12------------------------|
|--------------10--11-12-13-----------------------------------|
|-10-11-12-13-------------------------------------------------|
|-------------------------------------------------------------|


  Bb5
|----------------------------------------------------------|
|----------------------------------------------------------|
|----------------------------------------------------------|
|--8--------8----8----(8)----8-----8--------8-8-8-(8)-8-8--|
|--8--------8----8----(8)----8-----8--------8-8-8-(8)-8-8--|
|--8--------8----8----(8)----8-----8--------8-8-8-(8)-8-8--|
|
|                                           ~~
|-10-12-13-12-10-------------------------------------------|
|------------------13-10--11---13-11-10--------------------|
|---------------------------------------12-10--------------|
|----------------------------------------------------------|
|----------------------------------------------------------|
|----------------------------------------------------------|


  Bb5
  Gtr I
|---------------------------------------------------|
|---------------------------------------------------|
|---------------------------------------------------|
|--8-----8--8-(8)--8--8-----8-----8--8-(8)--8--8----|
|--8-----8--8-(8)--8--8-----8-----8--8-(8)--8--8----|
|--8-----8--8-(8)--8--8-----8-----8--8-(8)--8--8----|
|
| Gtr II
|-13-12-11-10---------------------------------------|
|-------------14--13-12-11-10-----------------------|
|-----------------------------13-12-11-10-----------|
|------------------------------------------14-13-12-|
|---------------------------------------------------|
|---------------------------------------------------|
|
| Gtr III
|-22-21-20-19---------------------------------------|
|-------------23--22-21-20--------------------------|
|--------------------------23-22-21-20--------------|
|--------------------------------------24--23-22-21-|
|---------------------------------------------------|
|---------------------------------------------------|


|---------------------------------------------------|
|---------------------------------------------------|
|---------------------------------------------------|
|--8-----8--8-(8)--8--8-----8-----8--8-(8)--8--8----|
|--8-----8--8-(8)--8--8-----8-----8--8-(8)--8--8----|
|--8-----8--8-(8)--8--8-----8-----8--8-(8)--8--8----|
|
|-12-11-10------------------------------------------|
|----------14-13--12-11-10--------------------------|
|--------------------------13-12-11-10--------------|
|--------------------------------------14--13-12-11-|
|---------------------------------------------------|
|---------------------------------------------------|
|
|-21-20-19-18---------------------------------------|
|-------------22--21-20-19--------------------------|
|--------------------------22-21-20-19--------------|
|--------------------------------------23--22-21-20-|
|---------------------------------------------------|
|---------------------------------------------------|


  A5
|---------------------------------------------------|
|---------------------------------------------------|
|---------------------------------------------------|
|--7-----7--7-(7)--7--7-----7-----7--7-(7)--7--7----|
|--7-----7--7-(7)--7--7-----7-----7--7-(7)--7--7----|
|--7-----7--7-(7)--7--7-----7-----7--7-(7)--7--7----|
|
|-11-10---------------------------------------------|
|-------14-13-12--11-10-----------------------------|
|-----------------------13-12-11-10-----------------|
|-----------------------------------14-13--12-11-10-|
|---------------------------------------------------|
|---------------------------------------------------|
|
|-20-19-18-17---------------------------------------|
|-------------21--20-19-18--------------------------|
|--------------------------21-20-19-18--------------|
|--------------------------------------22--21-20-19-|
|---------------------------------------------------|
|---------------------------------------------------|


  Db6                       Dbb5
|-----------------------------------------------------||
|-----------------------------------------------------||
|-----------------------------------------------------||
|-11----11-11-(11)-11-11----11----11-11-(11)-11-11----||
|-12----12-12-(12)-12-12----10----10-10-(10)-10-10----||
|-11----11-11-(11)-11-11----11----11-11-(11)-11-11----||
|
|-10--------------------------------------------------||
|----14-13-12--11--10---------------------------------||
|---------------------13-12-11-10---------------------||
|---------------------------------14-13--12--11-10--9-||
|-----------------------------------------------------||
|-----------------------------------------------------||
|
|-19-18-17-16-----------------------------------------||
|--------------20--19-18-17---------------------------||
|---------------------------20-19-18-17---------------||
|----------------------------------------21--20-19-18-||
|-----------------------------------------------------||
|-----------------------------------------------------||


 Verse
                                                      D.S. al Coda
  N.C.         F5           G5          Ab5           G5        F5G5
   PM--------|   PM-------|   PM----|         PM----|   PM----|
|-------------------------------------|-----------------------------||
|-------------------------------------|-----------------------------||
|-------------------------------------|-----------------------------||
|--------------3------------5---------|---6-----------5---------3-5-||
|--------------3------------5---------|---6-----------5---------3-5-||
|--0-----0-0-0-3-0-0---0--0-5-0-0-0-0-|---6---0-0-0-0-5-0-0-0-0-3-5-||
|
|                      ~~~~~~~~~~~~~~~~~~~~~~~
|-------------------------------------|-----------------------------||
|-13b15==============(13)-------------|-(13)r-----------------------||
|-------------------------------------|-----------------------------||
|-------------------------------------|-----------------------------||
|-------------------------------------|-----------------------------||
|-------------------------------------|-----------------------------||
|
|                      ~~~~~~~~~~~~~~~~~~~~~~~
|-12b13==============(12)-------------|-(12)r-----------------------||
|-------------------------------------|-----------------------------||
|-------------------------------------|-----------------------------||
|-------------------------------------|-----------------------------||
|-------------------------------------|-----------------------------||
|-------------------------------------|-----------------------------||


 Interlude
  &
  D5
  Gtr I
|-----------|------------------|-----------------|--------|
|-----------|------------------|-----------------|--------|
|-----------|------------------|-----------------|--------|
|--0--------|--(0)-------------|---0-------------|-(0)----|
|--0--------|--(0)-------------|---0-------------|-(0)----|
|--0--------|--(0)-------------|---0-------------|-(0)----|
|
| Gtr II
|-----------|------------------|-----------------|--------|
|-----------|------------------|-----------------|--------|
|-----------|------------------|-----------------|--------|
|-12--------|-(12)----(12)\----|-/12--------(12)s|=11-----|
|-----------|------------------|-----------------|--------|
|-----------|------------------|-----------------|--------|


  D5
|-----------------|-------------------|-------------|-----------||
|-----------------|-------------------|-------------|-----------||
|-----------------|-------------------|-------------|-----------||
|--0--------------|--(0)--------------|---0---------|--(0)------||
|--0--------------|--(0)--------------|---0---------|--(0)------||
|--0--------------|--(0)--------------|---0---------|--(0)------||
|
|         \0.5                \0.5                      \0.5
|-----------------|-------------------|-------------|-----------||
|-----------------|-------------------|-------------|-----------||
|-----------------|-------------------|-------------|-----------||
|-12----(12)------|-(12)----(12)------|-(12)--------|-(12)------||
|-----------------|-------------------|-------------|-----------||
|-----------------|-------------------|-------------|-----------||


  N.C.    F5        G5          Ab5         G5        F5G5
  PM----|   PM----|   PM----|       PM----|   PM----|
|-----------------------------|---------------------------|
|-----------------------------|---------------------------|
|-----------------------------|---------------------------|
|---------3---------5---------|--6----------5---------3-5-|
|---------3---------5---------|--6----------5---------3-5-|
|-0-0-0-0-3-0-0-0-0-5-0-0-0-0-|--6--0-0-0-0-5-0-0-0-0-3-5-|
|
|                                \4
|-----------------------------|---------------------------|
|-----------------------------|---------------------------|
|-----------------------------|---------------------------|
|-0---------------------------|-(0)-----------------------|
|-0---------------------------|-(0)-----------------------|
|-0---------------------------|-(0)-----------------------|


  N.C.      F5        G5          Ab5         G5        F5G5
   PM-----|   PM----|   PM----|       PM----|   PM----|
|-------------------------------|------------------------------|
|-------------------------------|------------------------------|
|-------------------------------|------------------------------|
|-----------3---------5---------|--6----------5---------3-5----|
|-----------3---------5---------|--6----------5---------3-5----|
|--0--0-0-0-3-0-0-0-0-5-0-0-0-0-|--6--0-0-0-0-5-0-0-0-0-3-5----|
|
|-------------------------------|------------------------------|
|-------------------------------|------------------------------|
|-------------------------------|------------------------------|
|-(0)---------------------------|-(0)--------------------------|
|-(0)---------------------------|-(0)--------------------------|
|-(0)---------------------------|-(0)--------------------------|


  N.C.    F5        G5          Ab5         G5        F5G5
  PM----|   PM----|   PM----|       PM----|   PM----|
|-----------------------------|---------------------------|
|-----------------------------|---------------------------|
|-----------------------------|---------------------------|
|---------3---------5---------|--6----------5---------3-5-|
|---------3---------5---------|--6----------5---------3-5-|
|-0-0-0-0-3-0-0-0-0-5-0-0-0-0-|--6--0-0-0-0-5-0-0-0-0-3-5-|
|
|-----------------------------|---------------------------|
|-----------------------------|---------------------------|
|-----------------------------|---------------------------|
|-0---------------------------|-(0)-----------------------|
|-0---------------------------|-(0)-----------------------|
|-0---------------------------|-(0)-----------------------|


  N.C.    F5        G5          Ab5        G5        F5G5
  PM----|   PM----|   PM----|      PM----|   PM----|
|-----------------------------|-----------------------------||
|-----------------------------|-----------------------------||
|-----------------------------|-----------------------------||
|---------3---------5---------|-6----------5---------3-5----||
|---------3---------5---------|-6----------5---------3-5----||
|-0-0-0-0-3-0-0-0-0-5-0-0-0-0-|-6--0-0-0-0-5-0-0-0-0-3-5----||
|
|-----------------------------|-----------------------------||
|-----------------------------|-----------------------------||
|-----------------------------|-----------------------------||
|-7---------------------------|-x\--------------------------||
|-7---------------------------|-x\--------------------------||
|-7---------------------------|-x\--------------------------||


   Breakdown
    D5C5F5G5AbG5F5D5    F5G5AbG5F5D5   D5C5F5G5AbG5F5D5    F5G5AbG5F5D5
    Gtrs I, II
||------------------|----------------|-----------------|------------------||
||o-----------------|----------------|-----------------|-----------------o||
||--7-5-------------|----------------|-7-5-------------|------------------||
||--7-5-3-5-6-5-3-0-|-0-3-5-6-5-3-0--|-7-5-3-5-6-5-3-0-|-0-3-5-6-5-3-0----||
||o-5-3-3-5-6-5-3-0-|-0-3-5-6-5-3-0--|-5-3-3-5-6-5-3-0-|-0-3-5-6-5-3-0---o||
||------3-5-6-5-3-0-|-0-3-5-6-5-3-0--|-----3-5-6-5-3-0-|-0-3-5-6-5-3-0----||


    D5 C5 F5 G5 Ab5G5 F5 D5      F5 G5 Ab5G5 F5 D5
    Gtrs I, II
||--------------------------|-----------------------|
||o-------------------------|-----------------------|
||---7--5-------------------|-----------------------|
||---7--5--3--5--6--5--3--0-|--0--3--5--6--5--3--0--|
||o--5--3--3--5--6--5--3--0-|--0--3--5--6--5--3--0--|
||---------3--5--6--5--3--0-|--0--3--5--6--5--3--0--|
|
|   Gtr III
||--10----------------------|-----------------------|
||o----13-------------------|-----------------------|
||--------10-12-13-12-10----|----10-12-13-12-10-----|
||-----------------------12-|-12----------------12--|
||o-------------------------|-----------------------|
||--------------------------|-----------------------|


  D5 C5 F5 G5 Ab5G5 F5 D5      F5 G5 Ab5G5 F5 D5
|-------------------------|-------------------------||
|-------------------------|------------------------o||
|--7--5-------------------|-------------------------||
|--7--5--3--5--6--5--3--0-|--0--3--5--6--5--3--0----||
|--5--3--3--5--6--5--3--0-|--0--3--5--6--5--3--0---o||
|--------3--5--6--5--3--0-|--0--3--5--6--5--3--0----||
|
|-10----------------------|-------------------------||
|----13-------------------|------------------------o||
|-------10-12-13-12-10----|----10-12-13-12-10-------||
|----------------------12-|-12----------------12----||
|-------------------------|------------------------o||
|-------------------------|-------------------------||


                        D.S.S. al Dbl. Coda
  Bb5          G5 Ab5A5  Bb5   A5  Bb5 B5  C5
|------------|---------------|------------------||
|------------|---------------|------------------||
|------------|---------------|------------------||
|--8------8S=|=5--6---7---8--|--7---8---9--10\--||
|--8------8S=|=5--6---7---8--|--7---8---9--10\--||
|--8------8S=|=5--6---7---8--|--7---8---9--10\--||
|
|------------|---------------|------------------||
|-11---------|-8--9--10--11--|-10--11--12--13---||
|------------|---------------|------------------||
|------------|---------------|------------------||
|------------|---------------|------------------||
|------------|---------------|------------------||


   Chorus
    &&
    A5                                  E5
    Gtr I
||------------------------------------|-----------------------------------|
||o-----------------------------------|-----------------------------------|
||------------------------------------|--9--9-9-(9)-9--9--9--9-9-(9)-9--9-|
||---7--7-7-(7)-7--7--7--7-7-(7)-7--7-|--9--9-9-(9)-9--9--9--9-9-(9)-9--9-|
||o--7--7-7-(7)-7--7--7--7-7-(7)-7--7-|--7--7-7-(7)-7--7--7--7-7-(7)-7--7-|
||---7--7-7-(7)-7--7--7--7-7-(7)-7--7-|-----------------------------------|
|
|   Gtr II
||----------------17---------------17-|---------------16---------------16-|
||o---------17---------------17-------|---------17---------------17-------|
||-----18---------------18------------|----16---------------16------------|
||--19---------------19---------------|-18---------------18---------------|
||o-----------------------------------|-----------------------------------|
||------------------------------------|-----------------------------------|


  D5
|-----------------------------------|------------------------------------||
|-----------------------------------|-----------------------------------o||
|--7--7-7-(7)-7--7--7--7-7-(7)-7--7-|--7--7-7-(7)-7--7--7--7-7-(7)-7--7--||
|--7--7-7-(7)-7--7--7--7-7-(7)-7--7-|--7--7-7-(7)-7--7--7--7-7-(7)-7--7--||
|--5--5-5-(5)-5--5--5--5-5-(5)-5--5-|--5--5-5-(5)-5--5--5--5-5-(5)-5--5-o||
|-----------------------------------|------------------------------------||
|
|---------------14---------------14-|---------------14-14------16--------||
|---------15---------------15-------|---------15----------15---------17-o||
|----14---------------14------------|----14------------------------------||
|-16---------------16---------------|-16---------------------------------||
|-----------------------------------|-----------------------------------o||
|-----------------------------------|------------------------------------||


  B5                                  A5
|-----------------------------------|-----------------------------------|
|-----------------------------------|-----------------------------------|
|-----------------------------------|-----------------------------------|
|--9--9-9-(9)-9--9--9--9-9-(9)-9--9-|--7--7-7-(7)-7--7--7--7-7-(7)-7--7-|
|--9--9-9-(9)-9--9--9--9-9-(9)-9--9-|--7--7-7-(7)-7--7--7--7-7-(7)-7--7-|
|--9--9-9-(9)-9--9--9--9-9-(9)-9--9-|--7--7-7-(7)-7--7--7--7-7-(7)-7--7-|
|
|---------------19---------------19-|---------------17---------------17-|
|---------19---------------19-------|---------17---------------17-------|
|----19---------------19------------|----18---------------18------------|
|-21---------------21---------------|-19---------------19---------------|
|-----------------------------------|-----------------------------------|
|-----------------------------------|-----------------------------------|


  E5                                  D5
|-----------------------------------|-----------------------------------|
|-----------------------------------|-----------------------------------|
|--9--9-9-(9)-9--9--9--9-9-(9)-9--9-|--7--7-7-(7)-7--7--7--7-7-(7)-7--7-|
|--9--9-9-(9)-9--9--9--9-9-(9)-9--9-|--7--7-7-(7)-7--7--7--7-7-(7)-7--7-|
|--7--7-7-(7)-7--7--7--7-7-(7)-7--7-|--5--5-5-(5)-5--5--5--5-5-(5)-5--5-|
|-----------------------------------|-----------------------------------|
|
|---------------16---------------16-|---------------14---------------14-|
|---------17---------------17-------|---------15---------------15-------|
|----16---------------16------------|----14---------------14------------|
|-18---------------18---------------|-16---------------16---------------|
|-----------------------------------|-----------------------------------|
|-----------------------------------|-----------------------------------|


  A5 D5        G#5D5          F#5D5        E5 D5 C#5D5
|---------------------------|--------------------------|
|---------------------------|--------------------------|
|-14--7-(7)--7-13--7-(7)--7-|-11--7-(7)--7--9--7--6--7-|
|-14--7-(7)--7-13--7-(7)--7-|-11--7-(7)--7--9--7--6--7-|
|-12--5-(5)--5-11--5-(5)--5-|--9--5-(5)--5--7--5--4--5-|
|---------------------------|--------------------------|
|
|-17-----------16-----------|-14-----------------------|
|----15-----15----15-----15-|----15-----15-17-15-14-15-|
|-------14-----------14-----|-------14-----------------|
|---------------------------|--------------------------|
|---------------------------|--------------------------|
|---------------------------|--------------------------|


  C#5          F6
|----------------------------|------------------------------||
|----------------------------|------------------------------||
|--6--6-(6)--6-10-10-(10)-10-|-10-10-(10)-10-10-10-(10)-10--||
|--6--6-(6)--6-11-11-(11)-11-|-11-11-(11)-11-11-11-(11)-11--||
|--4--4-(4)--4--8--8--(8)--8-|--8--8--(8)--8--8--8--(8)--8--||
|----------------------------|------------------------------||
|
|-16-----------14------------|-13---------------------------||
|----14-----14----14------14-|----14------14-15-14----------||
|-------13------------13-----|--------13------------13------||
|----------------------------|--------------------------15--||
|----------------------------|------------------------------||
|----------------------------|------------------------------||


 Outro
  Moderately Slow Rock Q.=55
  F#5                       D5
 9/8
  Gtr I
|------------------------||----------------------|
|------------------------||----------------------|
|------------------------||--7----7--7--7--7---7-|
|--4---4--4--4--4--4---4-||--7----7--7--7--7---7-|
|--4---4--4--4--4--4---4-||--5----5--5--5--5---5-|
|--4---4--4--4--4--4---4-||----------------------|
|
| Gtr II
|  ~~              ~~        ~~            ~~
|------------------------||----------------------|
|--7---7--6--7--9-10---5-||--6----6--5--6--8--/6-|
|------------------------||----------------------|
|------------------------||----------------------|
|------------------------||----------------------|
|------------------------||----------------------|
|
| Gtr IV
|------------------------||----------------------|
|-19--19-18-19-21-22--17-||-18---18-17-18-20--18-|
|------------------------||----------------------|
|-16--16-15-16-18-19--14-||-15---15-14-15-17--15-|
|------------------------||----------------------|
|------------------------||----------------------|


  Db5                    C5
                        6/8
|----------------------|------------------|
|----------------------|------------------|
|--6----6--6--6--6---6-|--5------5--5--5--|
|--6----6--6--6--6---6-|--5------5--5--5--|
|--4----4--4--4--4---4-|--3------3--3--3--|
|----------------------|------------------|
|
|  ~~            ~~       ~~
|----------------------|------------------|
|--6----6--5--6--8--/6-|--6---6--5--6--8--|
|----------------------|------------------|
|----------------------|------------------|
|----------------------|------------------|
|----------------------|------------------|
|
|----------------------|------------------|
|-18---18-17-18-20--18-|-18--18-17-18-20--|
|----------------------|------------------|
|-15---15-14-15-17--15-|-15--15-14-15-17--|
|----------------------|------------------|
|----------------------|------------------|


  F5                            Db5
|-----------------------------|--------------------------|
|-----------------------------|--------------------------|
|-----------------------------|---6-6-6---6---6--6--6--6-|
|--3-3-3--3---3--3-3-3--3---3-|---6-6-6---6---6--6--6--6-|
|--3-3-3--3---3--3-3-3--3---3-|---4-4-4---4---4--4--4--4-|
|--3-3-3--3---3--3-3-3--3---3-|--------------------------|
|
|  ~~            ~~               ~~~
|-----------------------------|--------------------------|
|-/9-----(9)\---/9-----(9)\---|-/11-----(11)\----9-11-13-|
|-----------------------------|--------------------------|
|-----------------------------|--------------------------|
|-----------------------------|--------------------------|
|-----------------------------|--------------------------|
|
|-16------------16------------|--18-------------16-18-20-|
|-----------------------------|--------------------------|
|-13------------13------------|--15-------------13-15-17-|
|-----------------------------|--------------------------|
|-----------------------------|--------------------------|
|-----------------------------|--------------------------|


  Bb5
|---------------------------------|
|---------------------------------|
|---3-3-3---3---3---3-3-3---3---3-|
|---3-3-3---3---3---3-3-3---3---3-|
|---1-1-1---1---1---1-1-1---1---1-|
|---------------------------------|
|
|   ~~~             ~~~
|---------------------------------|
|-/14-----(14)\---/14-----(14)\---|
|---------------------------------|
|---------------------------------|
|---------------------------------|
|---------------------------------|
|
|--21--------------21-------------|
|---------------------------------|
|--18--------------18-------------|
|---------------------------------|
|---------------------------------|
|---------------------------------|


  A5
|-----------------|------------|----------|--------*|
|-----------------|------------|----------|--------*|
|--2--------------|--(2)-------|-(2)------|-(2)----*|
|--2--------------|--(2)-------|-(2)------|-(2)----*|
|--0--------------|--(0)-------|-(0)------|-(0)----*|
|-----------------|------------|----------|--------*|
|
|                     >
|            ~~~~~~~~~~~~~
|-----------------|------------|----------|--------*|
|-16b17====(16)---|-(16)r------|----------|--------*|
|-----------------|------------|----------|--------*|
|-----------------|------------|----------|--------*|
|-----------------|------------|----------|--------*|
|-----------------|------------|----------|--------*|
|
|-21--------------|-(21)-------|----------|--------*|
|-----------------|------------|----------|--------*|
|-18--------------|-(18)-------|----------|--------*|
|-----------------|------------|----------|--------*|
|-----------------|------------|----------|--------*|
|-----------------|------------|----------|--------*|

****************************************************************************
Burn It Down

Gtr III
    PM--------------------------------------------|
                                                      4x
||-------------------------|--------------------------||
||o------------------------|-------------------------o||
||-------------------------|--------------------------||
||-------------------------|--------------------------||
||o-0-0-0--0-0-0-0-0-0-0-0-|-0-0-0--0-0-0-0-0-0-0-0--o||
||--0-0-0--0-0-0-0-0-0-0-0-|-0-0-0--0-0-0-0-0-0-0-0---||


   Lead Harmony
    $
    C5           G5             F5           G5
   4/4
    Gtr I
||--12--------12-10--------10-|-12--------12-13-10-----13--||
||o-------13-----------12-----|-------13-----------12-----o||
||-----12-----------12--------|----14----------------------||
||----------------------------|----------------------------||
||o---------------------------|---------------------------o||
||----------------------------|----------------------------||
|
|   Gtr II
||---8---------8--7---------7-|--8---------8-10--7-----10--||
||o-------10------------8-----|-------10------------8-----o||
||------9------------9--------|----10----------------------||
||----------------------------|----------------------------||
||o---------------------------|---------------------------o||
||----------------------------|----------------------------||
|
|   Gtr III
||----------------------------|----------------------------||
||o---------------------------|---------------------------o||
||---5--5-(5)--5--------------|----------------------------||
||---5--5-(5)--5--5--5-(5)--5-|--3--3-(3)--3--5--5-(5)--5--||
||o--3--3-(3)--3--5--5-(5)--5-|--3--3-(3)--3--5--5-(5)--5-o||
||----------------5--5-(5)--5-|--3--3-(3)--3--5--5-(5)--5--||


  F5           G5             A5           G/B
|--------------10----13--10-|-12--------12-13--------17--|
|-13--------13----12--------|-------13--------12-15------|
|-------14------------------|----14----------------------|
|----14---------------------|----------------------------|
|---------------------------|----------------------------|
|---------------------------|----------------------------|
|
|--------------------10-----|--------------10--------13--|
|-10--------10-12--------12-|-13--------13-------12------|
|-------10--------12--------|-------14--------12---------|
|----10---------------------|----14----------------------|
|---------------------------|----------------------------|
|---------------------------|----------------------------|
|
|---------------------------|----------------------------|
|---------------------------|----------------------------|
|---------------------------|---------------4--4-(4)--4--|
|--3--3-(3)--3--5--5-(5)--5-|--7--7-(7)--7--5--5-(5)--5--|
|--3--3-(3)--3--5--5-(5)--5-|--7--7-(7)--7--2--2-(2)--2--|
|--3--3-(3)--3--5--5-(5)--5-|--7--7-(7)--7---------------|


  C5           E5              A5           G5
|-15--------15--------15-----|---------------------------|
|-------17-----17---------17-|-13--------13-12--------12-|
|----17-----------17---------|-------14-----------12-----|
|----------------------------|----14-----------14--------|
|----------------------------|---------------------------|
|----------------------------|---------------------------|
|
|-12--------12-15-12-/19--15-|-17------------------------|
|-------13-------------------|-----------17-15--------15-|
|----12----------------------|-------17-----------16-----|
|----------------------------|----19-----------17--------|
|----------------------------|---------------------------|
|----------------------------|---------------------------|
|
|----------------------------|---------------------------|
|----------------------------|---------------------------|
|--5--5-(5)--5--9--9--(9)--9-|---------------------------|
|--5--5-(5)--5--9--9--(9)--9-|--7--7-(7)--7--5--5-(5)--5-|
|--3--3-(3)--3--7--7--(7)--7-|--7--7-(7)--7--5--5-(5)--5-|
|----------------------------|--7--7-(7)--7--5--5-(5)--5-|


 Verse
  A5     Bb5   A5    C5      A5    Bb5       A5
   ~~
|--------------------------|-------------------------|
|--------------------------|-------------------------|
|-14-----------------------|-------------------------|
|--------------------------|-------------------------|
|--------------------------|-------------------------|
|--------------------------|-------------------------|
|
|  ~~
|--------------------------|-------------------------|
|--------------------------|-------------------------|
|-17-----------------------|-------------------------|
|--------------------------|-------------------------|
|--------------------------|-------------------------|
|--------------------------|-------------------------|
|
| Gtr III
|    PM|   PM|   PM|   PM|     PM|   PM----|   PM|
|--------------------------|-------------------------|
|--------------------------|-------------------------|
|--2-----3-----2-----5-----|-2-----3---------2-----2-|
|--2-----3-----2-----5-----|-2-----3---------2-----2-|
|--0-0-0-1-0-0-0-0-0-3-0-0-|-0-0-0-1-0-0-0-0-0-0-0-0-|
|--------------------------|-------------------------|


    A5    Bb5   A5    C5      A5    Bb5       A5
    Gtr III
      PM|   PM|   PM|   PM|     PM|   PM----|   PM|
||--------------------------|--------------------------||
||o-------------------------|-------------------------o||
||--2-----3-----2-----5-----|-2-----3---------2-----2--||
||--2-----3-----2-----5-----|-2-----3---------2-----2--||
||o-0-0-0-1-0-0-0-0-0-3-0-0-|-0-0-0-1-0-0-0-0-0-0-0-0-o||
||--------------------------|--------------------------||


  A5    Bb5   A5    C5      A5    Bb5   N.C.
  Gtr III
    PM|   PM|   PM|   PM|     PM|   PM|
|-------------------------|---------------------|
|-------------------------|---------------------|
|-2-----3-----2-----5-----|-2-----3-------------|
|-2-----3-----2-----5-----|-2-----3-------------|
|-0-0-0-1-0-0-0-0-0-3-0-0-|-0-0-0-1-0-0-0-------|
|-------------------------|---------------5-3-2-|


   Chorus
    D5                    A/C#
    Gtr I
||----------------------|------------------------|
||o---------------------|------------------------|
||--7-7-(7)-7-7-7-(7)-7-|-6-6-(6)-6-14-14-14--14-|
||--7-7-(7)-7-7-7-(7)-7-|-7-7-(7)-7--x--x--x---x-|
||o-5-5-(5)-5-5-5-(5)-5-|-4-4-(4)-4-12-12-12--12-|
||----------------------|------------------------|
|
|   Gtr II
||----------------------|------------------------|
||o---------------------|------------------------|
||--7-7-(7)-7-7-7-(7)-7-|-6-6-(6)-6--6--6-(6)--6-|
||--7-7-(7)-7-7-7-(7)-7-|-7-7-(7)-7--7--7-(7)--7-|
||o-5-5-(5)-5-5-5-(5)-5-|-4-4-(4)-4--4--4-(4)--4-|
||----------------------|------------------------|


  G5                           C#m         Dm
|---------------------------|----------------------|
|---------------------------|----------------------|
|-15-15-15--15-15-15-15--15-|--18-18-18-18s19-19---|
|--x--x--x---x--x--x--x---x-|---x--x--x--x--x--x---|
|-13-13-13--13-13-13-13--13-|--16-16-16-16s17-17---|
|---------------------------|----------------------|
|
|---------------------------|----------------------|
|---------------------------|----------------------|
|---------------------------|----------------------|
|--5--5-(5)--5--5--5-(5)--5-|---2--2--2--2--3--3---|
|--5--5-(5)--5--5--5-(5)--5-|---4--4--4--4s=5--5---|
|--5--5-(5)--5--5--5-(5)--5-|----------------------|


  D5      F  D5      E    D5      G   D5      F
  PM----| ~  PM----| ~    PM----|  ~~ PM----|
|-----------------------|--------------------------||
|-----------------------|-------------------------o||
|-----------------------|--------------------------||
|-----------------------|--------------------------||
|-0-0-0-0-8--0-0-0-0-7--|-0-0-0-0-10--0-0-0-0-8\--o||
|-0-0-0-0----0-0-0-0----|-0-0-0-0-----0-0-0-0------||
|
| PM----| ~  PM----| ~    PM----|  ~~ PM----|
|-----------------------|--------------------------||
|-----------------------|-------------------------o||
|-----------------------|--------------------------||
|-----------------------|--------------------------||
|-0-0-0-0-8--0-0-0-0-7--|-0-0-0-0-10--0-0-0-0-8\--o||
|-0-0-0-0-7--0-0-0-0-7--|-0-0-0-0--8--0-0-0-0-7----||


 Verse
                                                            To Coda
  D5              C5       Bb5
  Gtr III
|---------------|--------------|------------------|-----------------|
|---------------|--------------|------------------|-----------------|
|--7---7-----7--|--5---5----3--|--(3)---3------3--|--(3)---3-----3--|
|--7---7-----7--|--5---5----3--|--(3)---3------3--|--(3)---3-----3--|
|--5---5-----5--|--3---3----1--|--(1)---1------1--|--(1)---1-----1--|
|---------------|--------------|------------------|-----------------|
|
| Gtr II
|---------------|--------------|------------------|-----------------|
|---------------|--------------|------------------|-----------------|
|-10--10----10--|--9---5----9--|--(9)--10--7---7--|--(7)---7--------|
|--x---x-----x--|--x---x----x--|--(x)---x--x---x--|--(x)---x--------|
|--8---8-----8--|--7---3----7--|--(7)---8--5---5--|--(5)---5--------|
|---------------|--------------|------------------|-----------------|
|
| Gtr I
|---------------|--------------|------------------|-----------------|
|---------------|--------------|------------------|-----------------|
|-14--14----14--|-12---9---10--|-(10)--10-----10--|-(10)--10----10--|
|--x---x-----x--|--x---x----x--|--(x)---x------x--|--(x)---x-----x--|
|-12--12----12--|-10---7----8--|--(8)---8------8--|--(8)---8-----8--|
|---------------|--------------|------------------|-----------------|


  D5              C5        Bb5
|---------------|---------------|------------------|
|---------------|---------------|------------------|
|--7---7-----7--|--5----5----3--|--(3)---3------3--|
|--7---7-----7--|--5----5----3--|--(3)---3------3--|
|--5---5-----5--|--3----3----1--|--(1)---1------1--|
|---------------|---------------|------------------|
|
|---------------|---------------|------------------|
|---------------|---------------|------------------|
|-10--10----10--|--9----5----9--|--(9)--10--7---7--|
|--x---x-----x--|--x----x----x--|--(x)---x--x---x--|
|--8---8-----8--|--7----3----7--|--(7)---8--5---5--|
|---------------|---------------|------------------|
|
|---------------|---------------|------------------|
|---------------|---------------|------------------|
|-14--14----14--|-12---12---10--|-(10)--10-----10--|
|--x---x-----x--|--x----x----x--|--(x)---x------x--|
|-12--12----12--|-10---10----8--|--(8)---8------8--|
|---------------|---------------|------------------|


  D5
  Gtrs I, II
  PM------------------|
|-----------------------|
|-----------------------|
|-----------------------|
|-----------------------|
|-0-0-0-0-0-0-0-0-0-0-0-|
|-0-0-0-0-0-0-0-0-0-0-0-|


  D5              C5       Bb5
  Gtr III
|---------------|--------------|------------------|-----------------|
|---------------|--------------|------------------|-----------------|
|--7---7-----7--|--5---5----3--|--(3)---3------3--|--(3)---3-----3--|
|--7---7-----7--|--5---5----3--|--(3)---3------3--|--(3)---3-----3--|
|--5---5-----5--|--3---3----1--|--(1)---1------1--|--(1)---1-----1--|
|---------------|--------------|------------------|-----------------|
|
| Gtr II
|---------------|--------------|------------------|-----------------|
|---------------|--------------|------------------|-----------------|
|-10--10----10--|--9---5----9--|--(9)--10--7---7--|--(7)---7--------|
|--x---x-----x--|--x---x----x--|--(x)---x--x---x--|--(x)---x--------|
|--8---8-----8--|--7---3----7--|--(7)---8--5---5--|--(5)---5--------|
|---------------|--------------|------------------|-----------------|
|
| Gtr I
|---------------|--------------|------------------|-----------------|
|---------------|--------------|------------------|-----------------|
|-14--14----14--|-12---9---10--|-(10)--10-----10--|-(10)--10----10--|
|--x---x-----x--|--x---x----x--|--(x)---x------x--|--(x)---x-----x--|
|-12--12----12--|-10---7----8--|--(8)---8------8--|--(8)---8-----8--|
|---------------|--------------|------------------|-----------------|


  D5              C5       Bb5
  Gtr III
|---------------|--------------|------------------|---------------------|
|---------------|--------------|------------------|---------------------|
|--7---7-----7--|--5---5----3--|--(3)---3------3--|--(3)---(3)-----(3)--|
|--7---7-----7--|--5---5----3--|--(3)---3------3--|--(3)---(3)-----(3)--|
|--5---5-----5--|--3---3----1--|--(1)---1------1--|--(1)---(1)-----(1)--|
|---------------|--------------|------------------|---------------------|
|
| Gtr II
|---------------|--------------|------------------|---------------------|
|---------------|--------------|------------------|---------------------|
|-10--10----10--|--9---5----9--|--(9)--10--7---7--|--(7)---(7)----------|
|--x---x-----x--|--x---x----x--|--(x)---x--x---x--|--(x)---(x)----------|
|--8---8-----8--|--7---3----7--|--(7)---8--5---5--|--(5)---(5)----------|
|---------------|--------------|------------------|---------------------|
|
| Gtr I
|---------------|--------------|------------------|---------------------|
|---------------|--------------|------------------|---------------------|
|-14--14----14--|-12---9---10--|-(10)--10-----10--|-(10)--(10)----(10)--|
|--x---x-----x--|--x---x----x--|--(x)---x------x--|--(x)---(x)-----(x)--|
|-12--12----12--|-10---7----8--|--(8)---8------8--|--(8)---(8)-----(8)--|
|---------------|--------------|------------------|---------------------|


   Breakdown
    N.C.      D5        N.C.
    Gtrs I, II
    PM------|         PM~   PM~
                                   4x
||------------------|--------------||
||o-----------------|-------------o||
||------------------|--------------||
||------------------|--------------||
||o-----------0--0--|-------------o||
||--0-0-0-0-0-0--0--|-0-5---0-8----||


                                      D.S. al Coda
  A5    Bb5   A5    C5      A5    Bb5       A5
  Gtr II
    PM|   PM|   PM|   PM|     PM|   PM----|   PM|
|-------------------------|-------------------------|
|-------------------------|-------------------------|
|-2-----3-----2-----5-----|-2-----3---------2-----2-|
|-2-----3-----2-----5-----|-2-----3---------2-----2-|
|-0-0-0-1-0-0-0-0-0-3-0-0-|-0-0-0-1-0-0-0-0-0-0-0-0-|
|-------------------------|-------------------------|
|
| Gtr I
|                                           PM    PM
|-------------------------|-------------------------|
|-------------------------|-------------------------|
|-------------------------|-----------------2-----2-|
|-------------------------|-----------------2-----2-|
|-------------------------|-----------------0-----0-|
|-------------------------|-------------------------|


  &
  N.C.
  Gtr II
|-------------------------|-------------------------|
|-------------------------|-------------------------|
|-10-10-10-10-10-10-10-10-|-12-12-12-12-12-12-14-14-|
|--x--x--x--x--x--x--x--x-|--x--x--x--x--x--x--x--x-|
|--8--8--8--8--8--8--8--8-|-10-10-10-10-10-10-12-12-|
|-------------------------|-------------------------|
|
| Gtr III
|-------------------------|-------------------------|
|-------------------------|-------------------------|
|--7--7--7--7--7--7--7--7-|--9--9--9--9--9--9-10-10-|
|--x--x--x--x--x--x--x--x-|--x--x--x--x--x--x--x--x-|
|--5--5--5--5--5--5--5--5-|--7--7--7--7--7--7--8--8-|
|-------------------------|-------------------------|


                                                                 >
|-------------------------|----------------------|------------|--------|
|-------------------------|----------------------|------------|--------|
|-14-14-14-14-14-14-15-15-|-15-15-10-10-10-10-9--|-(9)--------|-(9)----|
|--x--x--x--x--x--x--x--x-|--x--x--x--x--x--x-x--|-(x)--------|-(x)----|
|-12-12-12-12-12-12-13-13-|-13-13--8--8--8--8-7--|-(7)--------|-(7)----|
|-------------------------|----------------------|------------|--------|
|
|                                                                >
|-------------------------|----------------------|------------|--------|
|-------------------------|----------------------|------------|--------|
|-10-10-10-10-10-10-12-12-|-12-12--7--7--7--7-6--|-(6)--------|-(6)----|
|--x--x--x--x--x--x--x--x-|--x--x--x--x--x--x-x--|-(x)--------|-(x)----|
|--8--8--8--8--8--8-10-10-|-10-10--5--5--5--5-4--|-(4)--------|-(4)----|
|-------------------------|----------------------|------------|--------|


  D5              C5       Bb5
  Gtr III
|---------------|--------------|------------------|-----------------|
|---------------|--------------|------------------|-----------------|
|--7---7-----7--|--5---5----3--|--(3)---3------3--|--(3)---3-----3--|
|--7---7-----7--|--5---5----3--|--(3)---3------3--|--(3)---3-----3--|
|--5---5-----5--|--3---3----1--|--(1)---1------1--|--(1)---1-----1--|
|---------------|--------------|------------------|-----------------|
|
| Gtr II
|---------------|--------------|------------------|-----------------|
|---------------|--------------|------------------|-----------------|
|-10--10----10--|--9---5----9--|--(9)--10--7---7--|--(7)---7--------|
|--x---x-----x--|--x---x----x--|--(x)---x--x---x--|--(x)---x--------|
|--8---8-----8--|--7---3----7--|--(7)---8--5---5--|--(5)---5--------|
|---------------|--------------|------------------|-----------------|
|
| Gtr I
|---------------|--------------|------------------|-----------------|
|---------------|--------------|------------------|-----------------|
|-14--14----14--|-12---9---10--|-(10)--10-----10--|-(10)--10----10--|
|--x---x-----x--|--x---x----x--|--(x)---x------x--|--(x)---x-----x--|
|-12--12----12--|-10---7----8--|--(8)---8------8--|--(8)---8-----8--|
|---------------|--------------|------------------|-----------------|


  N.C.
  Gtr II
|-------------------------|-------------------------|
|-------------------------|-------------------------|
|-10-10-10-10-10-10-10-10-|-12-12-12-12-12-12-14-14-|
|--x--x--x--x--x--x--x--x-|--x--x--x--x--x--x--x--x-|
|--8--8--8--8--8--8--8--8-|-10-10-10-10-10-10-12-12-|
|-------------------------|-------------------------|
|
| Gtr III
|-------------------------|-------------------------|
|-------------------------|-------------------------|
|--7--7--7--7--7--7--7--7-|--9--9--9--9--9--9-10-10-|
|--x--x--x--x--x--x--x--x-|--x--x--x--x--x--x--x--x-|
|--5--5--5--5--5--5--5--5-|--7--7--7--7--7--7--8--8-|
|-------------------------|-------------------------|


|-------------------------|-----------------------|---------------|
|-------------------------|-----------------------|---------------|
|-14-14-14-14-14-14-15-15-|-15-15-10-10-10-10-9-9-|-10--10----10--|
|--x--x--x--x--x--x--x--x-|--x--x--x--x--x--x-x-x-|--x---x-----x--|
|-12-12-12-12-12-12-13-13-|-13-13--8--8--8--8-7-7-|--8---8-----8--|
|-------------------------|-----------------------|---------------|
|
|                                                   Gtr III
|-------------------------|-----------------------|---------------|
|-------------------------|-----------------------|---------------|
|-10-10-10-10-10-10-12-12-|-12-12--7--7--7--7-6-6-|--7---7-----7--|
|--x--x--x--x--x--x--x--x-|--x--x--x--x--x--x-x-x-|--7---7-----7--|
|--8--8--8--8--8--8-10-10-|-10-10--5--5--5--5-4-4-|--5---5-----5--|
|-------------------------|-----------------------|---------------|


  C5      Bb5
  Gtr I
                                >
|-------------|-------------|---------|
|-------------|-------------|---------|
|-9---9---10--|-(10)--------|-(10)----|
|-x---x----x--|--(x)--------|--(x)----|
|-7---7----8--|--(8)--------|--(8)----|
|-------------|-------------|---------|
|
| Gtr III
|                               >
|-------------|-------------|---------|
|-------------|-------------|---------|
|-5---5----3--|--(3)--------|--(3)----|
|-5---5----3--|--(3)--------|--(3)----|
|-3---3----1--|--(1)--------|--(1)----|
|-------------|-------------|---------|


   Breakdown II
    N.C.      D5     N.C.      D5     N.C.
    Gtr I
    PM------|        PM------|        PM------|
||-----------------|----------------|---------------------------|
||o----------------|----------------|---------------------------|
||-----------------|----------------|---------------------------|
||-----------------|----------------|---------------------------|
||o-----------0----|-----------0----|---------------------------|
||--0-0-0-0-0-0----|-0-0-0-0-0-0----|-0-0-0-0-0-5-5-5b5.5-5b5.5-|
|
|   Gtr II
|   PM------|        PM------|        PM------|
||-----------------|----------------|---------------------------|
||o----------------|----------------|---------------------------|
||-----------------|----------------|---------------------------|
||-----------------|----------------|---------------------------|
||o-----------0----|-----------0----|---------------------------|
||--0-0-0-0-0-0----|-0-0-0-0-0-0----|-0-0-0-0-0-8-8-8b8.5-8b8.5-|


                                             3x
|--------------------------------------------||
|-------------------------------------------o||
|--------------------------------------------||
|--------------------------------------------||
|-------------------------------------------o||
|-5b6-5b6-5b6.5-5b6.5-5b7--5b7--5b7.5--5b8---||
|
|                                            3x
|--------------------------------------------||
|-------------------------------------------o||
|--------------------------------------------||
|--------------------------------------------||
|-------------------------------------------o||
|-8b9-8b9-8b9.5-8b9.5-8b10-8b10-8b10.5-8b11--||


    N.C.      D5      N.C.
    Gtr III
    PM------|         PM~   PM~
                                   4x
||------------------|--------------||
||o-----------------|-------------o||
||------------------|--------------||
||------------------|--------------||
||o-----------0--0--|-------------o||
||--0-0-0-0-0-0--0--|-0-5---0-8----||


   I Won't Help You
    F5                G5          A5
    Gtr III
||------------------|-----------------|
||o-----------------|-----------------|
||------------------|-------------2-2-|
||--3-3-3-3-3-3-3-3-|-5-5-5-5-5-5-2-2-|
||o-3-3-3-3-3-3-3-3-|-5-5-5-5-5-5-0-0-|
||--3-3-3-3-3-3-3-3-|-5-5-5-5-5-5-----|
|
|   Gtr I
||------------------|-----------------|
||o-----------------|-----------------|
||--2-2-2-2-2-2-2-2-|-4-4-4-4-4-4-4---|
||--x-x-x-x-x-x-x-x-|-x-x-x-x-x-x-x---|
||o-0-0-0-0-0-0-0-0-|-2-2-2-2-2-2-2---|
||------------------|-----------------|
|
|   Gtr II
|   PM|   PM--|   PM----|   PM--| ~~~~~
||------------------|-----------------|
||o-----------------|-----------------|
||------2-------2---|-----4-------4---|
||--------3-------3-|-------5---------|
||o---3-------3-----|---5-------5-----|
||--3-------3-------|-5-------5-------|


                      G/B
|-------------------|----------------------|
|-------------------|----------------------|
|--2--2-2-2-2-2-2-2-|-4-4-4-----4-4-4------|
|--2--2-2-2-2-2-2-2-|-5-5-5-----5-5-5------|
|--0--0-0-0-0-0-0-0-|-2-2-2-----2-2-2------|
|-------------------|----------------------|
|
|-------------------|----------------------|
|-------------------|----------------------|
|-(4)-4s5-5-5-5-5-5-|-7-7-7-----7-7-7------|
|-(x)-x-x-x-x-x-x-x-|-x-x-x-----x-x-x------|
|-(2)-2s3-3-3-3-3-3-|-5-5-5-----5-5-5------|
|-------------------|----------------------|
|
|~~~~~PM  PM--|   PM----|       PM|
|-------------------|----------------------|
|-------------------|-----0h3p0-----0h3p0--|
|-(4)---5-------5---|----------------------|
|-----2---2---2---2-|---5---------5--------|
|-----------0-------|-2---------2----------|
|-------------------|----------------------|


  C5                E5                A5
|-----------------|-----------------------|
|-----------------|-----------------------|
|-5-5-5-5-5-5-5-5-|--9--9--9--9--9--9-----|
|-5-5-5-5-5-5-5-5-|--9--9--9--9--9--9-7-7-|
|-3-3-3-3-3-3-3-3-|--7--7--7--7--7--7-7-7-|
|-----------------|-------------------7-7-|
|
|-----------------|-----------------------|
|-----------------|-----------------------|
|-9-9-9-9-9-9-9-9-|-12-12-12-12-12-12-5-5-|
|-x-x-x-x-x-x-x-x-|--x--x--x--x--x--x-x-x-|
|-7-7-7-7-7-7-7-7-|-10-10-10-10-10-10-3-3-|
|-----------------|-----------------------|
|
| PM|   PM--|   PM-----|      PM|     ~~~~~
|-----------------|--------3--------3-----|
|-----5-------5---|-----------------------|
|-----------------|-----4-----4-------5---|
|---5---5---5---5-|--2-----------2--------|
|-3-------3-------|-----------------------|
|-----------------|-----------------------|


                G5
                                         3x
|-------------------|--------------------||
|-------------------|-------------------o||
|-------------------|--------------------||
|--7--7-7-7-7-7-5-5-|--5--5-5-5-5-5-5-5--||
|--7--7-7-7-7-7-5-5-|--5--5-5-5-5-5-5-5-o||
|--7--7-7-7-7-7-5-5-|--5--5-5-5-5-5-5-5--||
|
|                                        3x
|-------------------|--------------------||
|-------------------|-------------------o||
|--5--5-5-5-5-5-4-4-|--4--4-4-4-4-4-4-4--||
|--x--x-x-x-x-x-x-x-|--x--x-x-x-x-x-x-x--||
|--3--3-3-3-3-3-2-2-|--2--2-2-2-2-2-2-2-o||
|-------------------|--------------------||
|
|~~~~~PM  PM  PM~~~~~~~~~~          ~
|                                        3x
|-------------------|--------------------||
|-------------------|-------------------o||
|-(5)---4---5---4---|-(4)---4---4-2------||
|-----2---2---2-----|-----0---0-----5----||
|-------------------|-------------------o||
|-------------------|--------------------||


 Pre-Solo
  N.C.
  Gtr I
|--------------------------|-------------------------|
|--------------------------|-------------------------|
|---2--2--2--2--2--2--2--2-|--4--4--4--4--4--4--4----|
|---x--x--x--x--x--x--x--x-|--x--x--x--x--x--x--x----|
|---0--0--0--0--0--0--0--0-|--2--2--2--2--2--2--2----|
|--------------------------|-------------------------|
|
| Gtr II
|   PM|      PM---|      PM-----|      PM---|   ~~~~~~
|--------------------------|-------------------------|
|--------------------------|-------------------------|
|---------2-----------2----|--------4-----------4----|
|------------3-----------3-|-----------5-------------|
|------3-----------3-------|-----5-----------5-------|
|---3-----------3----------|--5-----------5----------|
|
| Gtr IV
|-/13----------------------|----------------15-13-12-|
|-----13-------------------|-------12-13-12----------|
|--------12----------------|----12-------------------|
|-----------15-------------|-12----------------------|
|--------------15----12-15-|-------------------------|
|-----------------15-------|-------------------------|


|---------------------------|-------------------------------|
|---------------------------|-------------------------------|
|--(4)--4s=5--5--5--5--5--5-|--7--7--7-------7--7--7--------|
|--(x)--x--x--x--x--x--x--x-|--x--x--x-------x--x--x--------|
|--(2)--2s=3--3--3--3--3--3-|--5--5--5-------5--5--5--------|
|---------------------------|-------------------------------|
|
|~~~~~~ PM    PM---|      PM-----|           PM|
|---------------------------|-------------------------------|
|---------------------------|--------0h=3p0--------0h=3-0---|
|--(4)-----5-----------5----|-------------------------------|
|-------2-----2-----2-----2-|-----5-------------5-----------|
|----------------0----------|--2-------------2--------------|
|---------------------------|-------------------------------|
|
|-(12)-------12----------12-|-------------------------------|
|---------13----------13----|-15----13-15---------13-15-----|
|------14----------14-------|----12------------12-----------|
|---------------14----------|---------------12--------------|
|---------------------------|-------------------------------|
|---------------------------|-------------------------------|


  N.C.
  Gtr I
|------------------------|---------------------------|
|------------------------|---------------------------|
|--9--9--9--9-9--9--9--9-|-12-12-12-12--12--12-12-12-|
|--x--x--x--x-x--x--x--x-|--x--x--x--x---x---x--x--x-|
|--7--7--7--7-7--7--7--7-|-10-10-10-10--10--10-10-10-|
|------------------------|---------------------------|
|
| Gtr II
|  PM|      PM--|      PM-----|      PM|
|------------------------|--------3----------3-------|
|--------5----------5----|---------------------------|
|------------------------|-----4-----4---------------|
|-----5-----5----5-----5-|--2------------2-----------|
|--3----------3----------|---------------------------|
|------------------------|---------------------------|
|
| Gtr IV
|                                    ~~~~~~~
|-------12s15---12-------|----12-15s19-(19)----------|
|-13-15------------13----|-12------------------------|
|---------------------12-|---------------------------|
|------------------------|---------------------------|
|------------------------|---------------------------|
|------------------------|---------------------------|


 Guitar Solo
     N.C.
     Gtr IV
|--------------------------------------------------------------------------------|
|-10-10-10-12-12-12-12-12-10-10-10-10-10-12-12-12-12b12.5==12-12-12-12r-12-12-12-|
|--------------------------------------------------------------------------------|
|--------------------------------------------------------------------------------|
|--------------------------------------------------------------------------------|
|--------------------------------------------------------------------------------|


|-----------------------------------------------------------------------------------------|
|-10-10-10-12b13==12-12-12-12r-12-12-12-12b14==12-12-12-12-12-12r-12-12-12-12b14==12-12r--|
|-----------------------------------------------------------------------------------------|
|-----------------------------------------------------------------------------------------|
|-----------------------------------------------------------------------------------------|
|-----------------------------------------------------------------------------------------|


|-----------------------------------------------------------------------------------------|
|-12-12-14b14.5==14-14-14-14r-12-12-12-14b15==14-14-14-14-14-14-14r-14-14-14-14b16==14-14-|
|-----------------------------------------------------------------------------------------|
|-----------------------------------------------------------------------------------------|
|-----------------------------------------------------------------------------------------|
|-----------------------------------------------------------------------------------------|


|------------------------------------------------------------------------------------------------------|
|-14-14r-14-14-16b17==16-16-16-16-16r-16-16-16-18b18.5-18-18b19-18-18b20-20-20b20.5-20-20b21-20-20b22--|
|------------------------------------------------------------------------------------------------------|
|------------------------------------------------------------------------------------------------------|
|------------------------------------------------------------------------------------------------------|
|------------------------------------------------------------------------------------------------------|


|-17-18-17-17----17-18-17-17----17-18-17-17----17-18-17-17-18-|
|-------------18-------------18-------------18----------------|
|-------------------------------------------------------------|
|-------------------------------------------------------------|
|-------------------------------------------------------------|
|-------------------------------------------------------------|


|-17-18-17-17-------------------------------------------|
|-------------18s14-14----14-15-14-14-------------------|
|----------------------14-------------14-14-15-14----14-|
|-------------------------------------------------17----|
|-------------------------------------------------------|
|-------------------------------------------------------|


|-------------------------------------------------|
|-------------14-17-14----------------14-17-14----|
|-14-15-14-------------14-14-15-14-------------14-|
|----------17----------------------17-------------|
|-------------------------------------------------|
|-------------------------------------------------|


|-------------18-21-18----------------------------|
|----14-17-14----------20-17-20-17-------17-------|
|-14-------------------------------18-18----18----|
|----------------------------------------------19-|
|-------------------------------------------------|
|-------------------------------------------------|


  D5                               A/C#
  Gtr I
|--------------------------------|----------------------------------|
|--------------------------------|----------------------------------|
|--7----7-(7)-7-7-7-(7)-----7----|--6----6-(6)-6-14-14-14-----14----|
|--7----7-(7)-7-7-7-(7)-----7----|--7----7-(7)-7--x--x--x------x----|
|--5----5-(5)-5-5-5-(5)-----5----|--4----4-(4)-4-12-12-12-----12----|
|--------------------------------|----------------------------------|
|
| Gtr II
|--------------------------------|----------------------------------|
|--------------------------------|----------------------------------|
|--7----7-(7)-7-7-7-(7)-----7----|--6----6-(6)-6--6--6-(6)-----6----|
|--7----7-(7)-7-7-7-(7)-----7----|--7----7-(7)-7--7--7-(7)-----7----|
|--5----5-(5)-5-5-5-(5)-----5----|--4----4-(4)-4--4--4-(4)-----4----|
|--------------------------------|----------------------------------|
|
| Gtr IV
|  ~~~~~                            ~~~~~
|--------------------------------|----------------------------------|
|-------------------15--17-18-15-|---------------------17--18-20-17-|
|-17b19--------------------------|-19b21----------------------------|
|--------------------------------|----------------------------------|
|--------------------------------|----------------------------------|
|--------------------------------|----------------------------------|


  G5                                C#m                  Dm
|------------------------------|------------------------------------|
|------------------------------|------------------------------------|
|-15----15-15--15-15-15-15--15-|----18-18----18----18s===19----19---|
|--x-----x--x---x--x--x--x---x-|-----x--x-----x-----x-----x-----x---|
|-13----13-13--13-13-13-13--13-|----16-16----16----16s===17----17---|
|------------------------------|------------------------------------|
|
|------------------------------|------------------------------------|
|------------------------------|------------------------------------|
|------------------------------|------------------------------------|
|--5-----5-(5)--5--5--5-(5)--5-|-----2--2-----2-----2-----3-----3---|
|--5-----5-(5)--5--5--5-(5)--5-|-----4--4-----4-----4s====5-----5---|
|--5-----5-(5)--5--5--5-(5)--5-|------------------------------------|
|
|  ~~~~~                                                        ~~
|------------------------------|----------------20-22-23-22-20-22---|
|------------------------------|-20----------20---------------------|
|-21b22------------------------|----19----19------------------------|
|------------------------------|-------20---------------------------|
|------------------------------|------------------------------------|
|------------------------------|------------------------------------|


          F/A        A5           Gm/Bb
  Gtr III
  PM----| ~  PM----| ~    PM----|  ~~ PM--|
|-----------------------|-------------------|
|-----------------------|-------------------|
|-----------------------|-------------------|
|-----------------------|-------------------|
|---------8----------7--|---------10--8-8-8-|
|-0-0-0-0-7--0-0-0-0-7--|-0-0-0-0--8--8-8-8-|


 Verse
  D5              C5       Bb5
  Gtr III
|---------------|--------------|------------------|-----------------|
|---------------|--------------|------------------|-----------------|
|--7---7-----7--|--5---5----3--|--(3)---3------3--|--(3)---3-----3--|
|--7---7-----7--|--5---5----3--|--(3)---3------3--|--(3)---3-----3--|
|--5---5-----5--|--3---3----1--|--(1)---1------1--|--(1)---1-----1--|
|---------------|--------------|------------------|-----------------|
|
| Gtr II
|---------------|--------------|------------------|-----------------|
|---------------|--------------|------------------|-----------------|
|-10--10----10--|--9---5----9--|--(9)--10--7---7--|--(7)---7--------|
|--x---x-----x--|--x---x----x--|--(x)---x--x---x--|--(x)---x--------|
|--8---8-----8--|--7---3----7--|--(7)---8--5---5--|--(5)---5--------|
|---------------|--------------|------------------|-----------------|
|
| Gtr I
|---------------|--------------|------------------|-----------------|
|---------------|--------------|------------------|-----------------|
|-14--14----14--|-12---9---10--|-(10)--10-----10--|-(10)--10----10--|
|--x---x-----x--|--x---x----x--|--(x)---x------x--|--(x)---x-----x--|
|-12--12----12--|-10---7----8--|--(8)---8------8--|--(8)---8-----8--|
|---------------|--------------|------------------|-----------------|


  N.C.
  Gtr II
|-------------------------|-------------------------|
|-------------------------|-------------------------|
|-10-10-10-10-10-10-10-10-|-12-12-12-12-12-12-14-14-|
|--x--x--x--x--x--x--x--x-|--x--x--x--x--x--x--x--x-|
|--8--8--8--8--8--8--8--8-|-10-10-10-10-10-10-12-12-|
|-------------------------|-------------------------|
|
| Gtr III
|-------------------------|-------------------------|
|-------------------------|-------------------------|
|--7--7--7--7--7--7--7--7-|--9--9--9--9--9--9-10-10-|
|--x--x--x--x--x--x--x--x-|--x--x--x--x--x--x--x--x-|
|--5--5--5--5--5--5--5--5-|--7--7--7--7--7--7--8--8-|
|-------------------------|-------------------------|


                                                                 >
|-------------------------|----------------------|------------|--------|
|-------------------------|----------------------|------------|--------|
|-14-14-14-14-14-14-15-15-|-15-15-10-10-10-10-9--|-(9)--------|-(9)----|
|--x--x--x--x--x--x--x--x-|--x--x--x--x--x--x-x--|-(x)--------|-(x)----|
|-12-12-12-12-12-12-13-13-|-13-13--8--8--8--8-7--|-(7)--------|-(7)----|
|-------------------------|----------------------|------------|--------|
|
|                                                                >
|-------------------------|----------------------|------------|--------|
|-------------------------|----------------------|------------|--------|
|-10-10-10-10-10-10-12-12-|-12-12--7--7--7--7-6--|-(6)--------|-(6)----|
|--x--x--x--x--x--x--x--x-|--x--x--x--x--x--x-x--|-(x)--------|-(x)----|
|--8--8--8--8--8--8-10-10-|-10-10--5--5--5--5-4--|-(4)--------|-(4)----|
|-------------------------|----------------------|------------|--------|


  D5              C5       Bb5
  Gtr III
|---------------|--------------|------------------|-----------------|
|---------------|--------------|------------------|-----------------|
|--7---7-----7--|--5---5----3--|--(3)---3------3--|--(3)---3-----3--|
|--7---7-----7--|--5---5----3--|--(3)---3------3--|--(3)---3-----3--|
|--5---5-----5--|--3---3----1--|--(1)---1------1--|--(1)---1-----1--|
|---------------|--------------|------------------|-----------------|
|
| Gtr II
|---------------|--------------|------------------|-----------------|
|---------------|--------------|------------------|-----------------|
|-10--10----10--|--9---5----9--|--(9)--10--7---7--|--(7)---7--------|
|--x---x-----x--|--x---x----x--|--(x)---x--x---x--|--(x)---x--------|
|--8---8-----8--|--7---3----7--|--(7)---8--5---5--|--(5)---5--------|
|---------------|--------------|------------------|-----------------|
|
| Gtr I
|---------------|--------------|------------------|-----------------|
|---------------|--------------|------------------|-----------------|
|-14--14----14--|-12---9---10--|-(10)--10-----10--|-(10)--10----10--|
|--x---x-----x--|--x---x----x--|--(x)---x------x--|--(x)---x-----x--|
|-12--12----12--|-10---7----8--|--(8)---8------8--|--(8)---8-----8--|
|---------------|--------------|------------------|-----------------|


  N.C.
  Gtr II
|-------------------------|-------------------------|
|-------------------------|-------------------------|
|-10-10-10-10-10-10-10-10-|-12-12-12-12-12-12-14-14-|
|--x--x--x--x--x--x--x--x-|--x--x--x--x--x--x--x--x-|
|--8--8--8--8--8--8--8--8-|-10-10-10-10-10-10-12-12-|
|-------------------------|-------------------------|
|
| Gtr III
|-------------------------|-------------------------|
|-------------------------|-------------------------|
|--7--7--7--7--7--7--7--7-|--9--9--9--9--9--9-10-10-|
|--x--x--x--x--x--x--x--x-|--x--x--x--x--x--x--x--x-|
|--5--5--5--5--5--5--5--5-|--7--7--7--7--7--7--8--8-|
|-------------------------|-------------------------|


|-------------------------|-----------------------|---------------|
|-------------------------|-----------------------|---------------|
|-14-14-14-14-14-14-15-15-|-15-15-10-10-10-10-9-9-|-10--10----10--|
|--x--x--x--x--x--x--x--x-|--x--x--x--x--x--x-x-x-|--x---x-----x--|
|-12-12-12-12-12-12-13-13-|-13-13--8--8--8--8-7-7-|--8---8-----8--|
|-------------------------|-----------------------|---------------|
|
|-------------------------|-----------------------|---------------|
|-------------------------|-----------------------|---------------|
|-10-10-10-10-10-10-12-12-|-12-12--7--7--7--7-6-6-|--7---7-----7--|
|--x--x--x--x--x--x--x--x-|--x--x--x--x--x--x-x-x-|--7---7-----7--|
|--8--8--8--8--8--8-10-10-|-10-10--5--5--5--5-4-4-|--5---5-----5--|
|-------------------------|-----------------------|---------------|


  C5      Bb5
  Gtr I
                                >
|-------------|-------------|---------|
|-------------|-------------|---------|
|-9---9---10--|-(10)--------|-(10)----|
|-x---x----x--|--(x)--------|--(x)----|
|-7---7----8--|--(8)--------|--(8)----|
|-------------|-------------|---------|
|
|                               >
|-------------|-------------|---------|
|-------------|-------------|---------|
|-5---5----3--|--(3)--------|--(3)----|
|-5---5----3--|--(3)--------|--(3)----|
|-3---3----1--|--(1)--------|--(1)----|
|-------------|-------------|---------|


 Come Back
  Bb/G            Fsus4    F
  Gtr III
|--------------------|-----------------|
|--------------------|-----------------|
|-----------------3--|-(3)-------------|
|-8--8--8-8--8--8-3--|-(3)-7-7--7--7-7-|
|-5-(5)-5-5-(5)-5-3--|-(3)-3-3--3--3-3-|
|-5-(5)-5-5-(5)-5-3--|-(3)-3-3--3--3-3-|


  C/A                 F5/Bb      Bb
|-------------------------|-------------------|
|-------------------------|-------------------|
|-------------------------|-------------------|
|-10-10--10-10-10--10-10--|-(10)-12-12--12----|
|--7-(7)--7--7-(7)--7--8--|--(8)--8--8---8----|
|--7-(7)--7--7-(7)--7--8--|--(8)--8--8---8----|


  Bb/G            Fsus4    F             F/D
|--------------------|-----------------|----------|--------|
|--------------------|-----------------|----------|--------|
|-----------------3--|-(3)-------------|----------|--------|
|-8--8--8-8--8--8-3--|-(3)-7-7--7--7-7-|-3--------|-(3)----|
|-5-(5)-5-5-(5)-5-3--|-(3)-3-3--3--3-3-|-0--------|-(0)----|
|-5-(5)-5-5-(5)-5-3--|-(3)-3-3--3--3-3-|-0--------|-(0)----|


 Outro
  G5              F5
  Gtr III
|---------------------|---------------------|
|---------------------|---------------------|
|---------------------|---------------------|
|-5-----5-5-----5-3---|-(3)-3-3---3---3--3--|
|-5-----5-5-----5-3---|-(3)-3-3---3---3--3--|
|-5-----5-5-----5-3---|-(3)-3-3---3---3--3--|
|
| Gtr II
|    PM|     PM|    PM--|     PM|   PM|
|---------------------|---------------------|
|---------------------|---------------------|
|---------------------|---------------------|
|-8-------8-------8---|-----7-----7---------|
|---10-10---10-10---8-|--8----8-8---8-8-(8)-|
|---------------------|---------------------|


  A5            Bb5
|-------------------|-------------------------|
|-------------------|-------------------------|
|-------------------|-------------------------|
|--7---7--7---7--8--|--(8)--8-8----8----------|
|--7---7--7---7--8--|--(8)--8-8----8----------|
|--7---7--7---7--8--|--(8)--8-8----8----------|
|
|    PM|    PM|               PM|    PM
|-------------------|-------------------------|
|-------------------|-------------------------|
|-------------------|-------------------------|
|-10-----10-----10--|-(10)s12-----12---12-12s=|
|----8-8----8-8-----|---------8-8----8--------|
|-------------------|-------------------------|


  G5                F5
|-----------------------|---------------------------|
|-----------------------|---------------------------|
|-----------------------|---------------------------|
|--5-----5--5-----5--3--|--(3)--3--3-----3-----3--3-|
|--5-----5--5-----5--3--|--(3)--3--3-----3-----3--3-|
|--5-----5--5-----5--3--|--(3)--3--3-----3-----3--3-|
|
|     PM|      PM|                 PM|      PM|
|-----------------------|---------------------------|
|-----------------------|---------------------------|
|-----------------------|---------------------------|
|-15-12----15-12----15--|-(15)-14-------14-------14-|
|-----------------------|---------------------------|
|-------15-------15-----|---------10-10----10-10----|


  A5        Bb5
|---------------|-----------------------|
|---------------|-----------------------|
|--2----2----3--|--(3)------------------|
|--2----2----3--|--(3)------------------|
|--0----0----1--|--(1)------------------|
|---------------|-----------------------|
|
|                   ~~~~
|---------------|-----------------------|
|---------------|-----------------------|
|---------------|-----------------------|
|-10---10---12--|-(12)---(12)s10--(10)--|
|---------------|-----------------------|
|---------------|-----------------------|


                                      >
|---------------------|------------|------------|------------|--------*|
|---------------------|------------|------------|------------|--------*|
|--(3)----------------|-(3)--------|-(3)--------|-(3)--------|-(3)----*|
|--(3)----------------|-(3)--------|-(3)--------|-(3)--------|-(3)----*|
|--(1)----------------|-(1)--------|-(1)--------|-(1)--------|-(1)----*|
|---------------------|------------|------------|------------|--------*|
|
|                                     >
|            ~~~~~~~~~~~~~~~~~~~~~~~~~~~~
|---------------------|------------|------------|------------|--------*|
|---------------------|------------|------------|------------|--------*|
|---------------------|------------|------------|------------|--------*|
|-(10)--(10)s3-(3)----|-(3)--------|-(3)--------|-(3)--------|-(3)----*|
|---------------------|------------|------------|------------|--------*|
|---------------------|------------|------------|------------|--------*|


****************************************************************************
Blinded In Chains

E---------------------------------------------|
B-------Palm Mute-----------------------------|
G---------------------------------------------|
D-0000000--0000000--0000----------------------|
A-0000000--0000000--0000----------------------|
D-0000000--0000000--0000----------------------|

E--------------------------------------------|
B---------------13-15-11----15-13-10---13/17-|
G--7-7-7-7-9-10----------12----------10------|
D---7-7--------------------------------------|
A--------------------------------------------|
D--------------------------------------------|

E-------------------------------18-17-18-17--18-17-18-17-------------|
B-18-17-18-17-15-18-17-18-17-15------------18-----------18-----------|
G--------------------------------------------------------------------|
D--------------------------------------------------------------------|
A--------------------------------------------------------------------|
D--------------------------------------------------------------------|

E---17-18-----18-17-----17-15-13h15p13-------|
B-20-----20-15-----18-13--------------17-----|
G--------------------------------------------|
D--------------------------------------------|
A--------------------------------------------|
D--------------------------------------------|

E--------------------------------------------|
B----Palm Mute-------------------------------|
G--------------------------------------------|
D-00-000-000-06666-00-000-000-04444-00-------|
A-00-000-000-06666-00-000-000-04444-00-------|
D-00-000-000-06666-00-000-000-04444-00-------|

B--10^^^ 9^^^ 8^^^ 6^^^--------------------Bend up and down

E------------------------|----------|-6/8---8/12-13-10-|
B-10----10-8-----6/8-6---|-6/8-10-6-|----8-------------|
G---10-7----9---------7--|----------|-----9------------|
D------------9-----------|----------|------------------|
A-------------10---------|----------|------------------|
D------------------------|----------|------------------|

E--------------------------------------------|
B----------Back to intro---------------------|
G--------------------------------------------|
D-0000000--0000000--0000---------------------|
A-0000000--0000000--0000---------------------|
D-0000000--0000000--0000---------------------|

E---------------------------------------------|
B---------------------------------------------|
G---------------------------------------------|
D-0000000--0000000--0000-8888888-8888888-8888-|
A-0000000--0000000--0000-8888888-8888888-8888-|
D-0000000--0000000--0000-8888888-8888888-8888-|

E--------------------------------------------|
B--------------------------------------------|
G--------------------------------------------|
D-5555555-5555555-5555-3333333-3333333-3333--|
A-5555555-5555555-5555-3333333-3333333-3333--|
D-5555555-5555555-5555-3333333-3333333-3333--|

E-13-12--15/17-15-17-18-17-15/17\12-8-9-8-13\10/18-18-20-18--|
B------15----------------------------------------------------|
G------------------------------------------------------------|
D------------------------------------------------------------|
A------------------------------------------------------------|
D------------------------------------------------------------|

E--17-18-17-15-17-18-17----------------------|
B--------------------------------------------|
G--------------------------------------------|
D--------------------------------------------|
A--------------------------------------------|
D--------------------------------------------|

E--------------------------------------------|
B--------------------------------------------|
G-----14-14-13-13---13/14--------------------|
D-000-15-15-14-14-0-14/15--------------------|
A-000-------------0--------------------------|
D-000-------------0--------------------------|

****************************************************************************
Bat Country

e|---------------------------------| x4
B|---------------------------------|
G|-7-7-----------------------------|
D|-7-7—-6-6------------------------|
A|-5-5—-6-6------------------------|
D|------6-6—-0-0-0-0-5p3p0-5p3p0-0-|

E|-------------| x2
B|-------------|
G|-7-----------|
D|-7—-6—-5—-3--|
A|-5—-6—-5—-3--|
D|----6—-5—-3--|

E|------------------------------|x2
B|------------------------------|	
G|------------------------------|
D|------------------------------|
A|-555555555--------------------|
D|----------66666666-0000000000-|

E|-----------------------------------|	E|--------------------------|
B|-----------------------------------|	B|--------------------------|
G|-----------------------------------|	G|--------------------------|
D|-----------------------------------|	D|--------------------------|
A|-55555555-----------------44444444-|	A|-55555555-777777----------|
D|---------66666666-55555555---------|	D|----------------3333-2222-|

E|--------------------------------------------------| x2
B|--------------------------------------------------|
G|-7-7-77-----------------55555555--------5~--------|
D|-7-7-55-00-55-0-3~-0-0—-55555555-0-33-0-5~--------|
A|-5-5-55-00-55-0-3~-0-0—-33333333-0-33-0-3~-s5-7-8-|
D|--------00-55-0-3~-0-0-----------0-33-0-----------|

E|------------------------------|x4
B|------------------------------|	
G|------------------------------|
D|------------------------------|
A|-555555555--------------------|
D|----------66666666-0000000000-|

E|-----------------------------------|	E|--------------------------|
B|-----------------------------------|	B|--------------------------|
G|-----------------------------------|	G|--------------------------|
D|-----------------------------------|	D|--------------------------|
A|-55555555-----------------44444444-|	A|-55555555-777777----------|
D|---------66666666-55555555---------|	D|----------------3333-2222-|

E|--------------------------------------------------| x2
B|--------------------------------------------------|
G|-7-7-77-----------------55555555--------5~--------|
D|-7-7-55-00-55-0-3~-0-0—-55555555-0-33-0-5~--------|
A|-5-5-55-00-55-0-3~-0-0—-33333333-0-33-0-3~-s5-7-8-|
D|--------00-55-0-3~-0-0-----------0-33-0-----------|

Clean Riff:

E|----------------------------------------------------------------|
B|------6-----------------5---------------------------------------|
G|----7--7-7-----7------5--5-5----4--------9--------7--------5----|
D|---7-7--7----5--5-5--5-5--5---2--2-2---7--7-7---5--5-5---3--3-3-|
A|--5---------5-5--5--3--------2-2--2---7-7--7---5-5--5---3-3--3--|
D|-----------5----------------2--------7--------5--------3--------|

Before the Solo:

E|-------------| x2
B|-------------|
G|-7-----------|
D|-7—-6—-5—-3--|
A|-5—-6—-5—-3--|
D|----6—-5—-3--|

Solo:

E|-8(10)------------------8h10--8(10)--------|
B|------9~-8~---------8h10-----------9~-8~---|
G|------------7-7h8h10-----------------------|
D|-------------------------------------------|
A|-------------------------------------------|
D|-----------------------------------------0-|

E|------------------------------------------------------------------8(10)-10h8----10(12)10-|
B|------------------------------------------------------------10(12)----------10h9---------|
G|-----------------8(10)----------------10(12)---------------------------------------------|
D|-10(12)~(12)~(12)-----10(12)~(12)~(12)------10(12)~(12)~(12)-----------------------------|
A|-----------------------------------------------------------------------------------------|
D|-----------------------------------------------------------------------------------------|
                             
E|-8-10-13(15)-18-17-16-15-13-15-15(17)-18-17-15-------------------------------15(16)-|
B|-------------------------------------------------------13131313-15(17)15---13-------|
G|-----------------------------------------------13131313------------------13---------|
D|------------------------------------------------------------------------------------|
A|------------------------------------------------------------------------------------|
D|------------------------------------------------------------------------------------|
                                                

E|------------------------------------17181716171817161718171617---|
B|-15-------18-------17-------20--------------------------------17-|
G|-----------------------------------------------------------------|
D|---121212---151515---141414---171717-----------------------------|
A|-----------------------------------------------------------------|
D|-----------------------------------------------------------------|

E|-10131210131210131210-12151412151412151412-15181715181715181715-|
B|----------------------------------------------------------------|
G|----------------------------------------------------------------|
D|----------------------------------------------------------------|
A|----------------------------------------------------------------|
D|----------------------------------------------------------------|

E|-17201917201917-19222019222019-20(22)-|
B|--------------------------------------|
G|--------------------------------------|
D|--------------------------------------|
A|--------------------------------------|
D|--------------------------------------|

The beginning of the duet will come soon. 

This is the outro of the solo, where Zacky and Syn play the duet together. 

E|----------------s20-18b--17-18-17----------------s18-17----------17s13-13-|
B|-s18b--15-17-18------------------18-20b—17-18-17--------17-18-20----------|
G|--------------------------------------------------------------------------|
D|--------------------------------------------------------------------------|
A|--------------------------------------------------------------------------|
D|--------------------------------------------------------------------------|

E|----------s20-18b—17-18-17-----------------s18-17-----------17s13—13--18s15--15-|
B|-15-17-18------------------18-20b—17-18-17--------17-18-20----—-----------------|
G|--------------------------------------------------------------------------------|
D|--------------------------------------------------------------------------------|
A|--------------------------------------------------------------------------------|
D|--------------------------------------------------------------------------------|

I'm still tryin to figure out the rest of the solo. Sorry bout that.


E|-------------------------------------| x4
B|-------------------------------------|
G|-------------------------------------|
D|-------------------------------------|
A|--55555555---------------------------|
D|-----------66666666-0000000000000000-|
                     ................
E|--------------------------------------------------------------------------|
B|--------------------------------------------------------------------------|
G|--------------------------------------------------------------------------|
D|--------------------------------------------------------------------------|
A|--55555555-------------------44444444-55555555-77777777-------------------|
D|-----------66666666-55555555----------------------------33333333-22222222-|

E|----------------------------------------------------------------| x2
B|----------------------------------------------------------------|
G|-----------------------5-5-5-5-5-5-5----------------------------|
D|--0-2--3-3-3-3-3-3-3-3-5-5-5-5-5-5-5-5-5-5-5-5-5-5-5-0----------|
A|--0-2--3-3-3-3-3-3-3-3-3-3-3-3-3-3-3-5-5-5-5-5-5-5-5-0----------|
D|--0-2--3-3-3-3-3-3-3-3---------------5-5-5-5-5-5-5-5-0-0000-----|
                                                        ....
Chorus

E|--------------------------------|
B|--------------------------------|
G|--------------------------------|
D|--7-7-77-------5-5-----55-0-23--|
A|--5-5-55-555-3-3-3-333-33-------|
D|---------555-3-----333----------|

Clean Riff

E|----------------------------------------------------------------|
B|------6-----------------5---------------------------------------|
G|----7--7-7-----7------5--5-5----4--------9--------7--------5----|
D|---7-7--7----5--5-5--5-5--5---2--2-2---7--7-7---5--5-5---3--3-3-|
A|--5---------5-5--5--3--------2-2--2---7-7--7---5-5--5---3-3--3--|
D|-----------5----------------2--------7--------5--------3--------|

E|-----------------------------------------------------------------|
B|-----------------------------------------------------------------|
G|--7-7-7-7-7-7-7-7-5-5-5-5-4-4-4-4--9-9-9-9-7-7-7-7-5-5-5-5-5-5-5-|
D|--7-7-7-7-5-5-5-5-5-5-5-5-2-2-2-2--7-7-7-7-5-5-5-5-5-3-3-3-3-3-3-|
A|--5-5-5-5-5-5-5-5-3-3-3-3-2-2-2-2--7-7-7-7-5-5-5-5-3-3-3-3-3-3-3-|
D|-----------------------------------------------------------------|


****************************************************************************
Trashed and Scattered

|------------------|---------------------|
|-10-8-6---8-6-----|-11-8----------------|
|--------9-----9-7-|------9---------9----|
|------------------|--------11-7-11---11-|
|------------------|---------------------|
|------------------|---------------------|
|
| Gtr II
|------------------|---------------------|
|------------------|---------------------|
|------------------|---------------------|
|------------------|---------------------|
|------------------|---------------------|
|------------------|---------------------|
|
| Gtr III
|------------------|---------------------|
|------------------|---------------------|
|--7---------------|--3------------------|
|--7---------------|--3------------------|
|--5---------------|--1------------------|
|--0---------------|---------------------|


  F5               D5                        C#5      E5       D5
|------------------------------------------|--------------------------|
|-18-17-15----15\--------------------------|-------------------15\----|
|----------18------14-12-------------------|----------12-14-15--------|
|------------------------15-14-12-12-------|-12-14-15-----------------|
|------------------------------------15-13-|--------------------------|
|------------------------------------------|--------------------------|
|
|-17-15------------------------------------|-13-12----12-------13\----|
|-------18-17-18\--15-13-------------------|-------15----15-14--------|
|------------------------15-14-12----------|--------------------------|
|---------------------------------15-14-12-|--------------------------|
|------------------------------------------|--------------------------|
|------------------------------------------|--------------------------|
|
|------------------------------------------|--------------------------|
|------------------------------------------|--------------------------|
|-------------------7----------------------|--6--------9--------7-----|
|--3----------------7----------------------|--6--------9--------7-----|
|--3----------------5----------------------|--4--------7--------5-----|
|--3---------------------------------------|--------------------------|


   Verse
    $
    D5                        D5
    Gtr I
    ~
||--------------------------|--------------------------|
||o-------------------------|--------------------------|
||--7-----------------------|-7-----9-----10------7----|
||--------------------------|--------------------------|
||o-------------------------|--------------------------|
||--------------------------|--------------------------|
|
|   Gtr III
|     PM----|   PM|             PM----|    PM|
||--------------------------|--------------------------|
||o-------------------------|--------------------------|
||--7---------7-----7-(7)-7-|-7---------7------7-(7)-7-|
||--7---------7-----7-(7)-7-|-7---------7------7-(7)-7-|
||o-5-5-5-5-5-5-5-5-5-(5)-5-|-5-5-5-5-5-5--5-5-5-(5)-5-|
||--------------------------|--------------------------|


  C5                          C5
  ~                           ~
|---------------------------|-------------------------|
|---------------------------|-------------------------|
|-9-----------------(9)-9p7-|-5-----------------------|
|---------------------------|-------------------------|
|---------------------------|-------------------------|
|---------------------------|-------------------------|
|
|   PM----|   PM|               PM----|   PM|
|---------------------------|-------------------------|
|---------------------------|-------------------------|
|-5---------5-----5-(5)-5---|-5---------5-----5-(5)-5-|
|-5---------5-----5-(5)-5---|-5---------5-----5-(5)-5-|
|-3-3-3-3-3-3-3-3-3-(3)-3---|-3-3-3-3-3-3-3-3-3-(3)-3-|
|---------------------------|-------------------------|


  Bb5                       Bb5
  ~
|-------------------------|--------------------------|
|-------------------------|--------------------------|
|-------------------------|--------------7------9----|
|-8-----------------------|-8-----10-----------------|
|-------------------------|--------------------------|
|-------------------------|--------------------------|
|
|   PM----|   PM|             PM-----|   PM|
|-------------------------|--------------------------|
|-------------------------|--------------------------|
|-3---------3-----3-(3)-3-|-3----------3-----3-(3)-3-|
|-3---------3-----3-(3)-3-|-3----------3-----3-(3)-3-|
|-1-1-1-1-1-1-1-1-1-(1)-1-|-1-1-1--1-1-1-1-1-1-(1)-1-|
|-------------------------|--------------------------|


  1.
  F5                        A5   A/C#
  ~~~~~~~~~~~~~~~~~~~~~~~~~~~~~~~~~
|-------------------------|------------||
|-------------------------|-----------o||
|-------------------------|-6----9-----||
|-------------------------|------------||
|-8-----------------------|-----------o||
|-------------------------|------------||
|
|   PM----|   PM|
|-------------------------|------------||
|-------------------------|-----------o||
|-------------------------|------6-----||
|-3---------3-----3-(3)-3-|-7----7-----||
|-3---------3-----3-(3)-3-|-7----4----o||
|-3-3-3-3-3-3-3-3-3-(3)-3-|-7----------||


  2.
  F5                          A5   A/C#
  ~~~~~~~~~~~~~~~~~~~~~~~~~~~~~~
|---------------------------|-----------|
|---------------------------|-----------|
|-------------/10-----------|-9---------|
|-7-------------------------|-----------|
|---------------------------|-----------|
|---------------------------|-----------|
|
|   PM----|     PM|
|---------------------------|-----------|
|---------------------------|-----------|
|---------------------------|------6----|
|-3---------3-------3-(3)-3-|-7----7----|
|-3---------3-------3-(3)-3-|-7----4----|
|-3-3-3-3-3-3---3-3-3-(3)-3-|-7---------|


    D5                        D5
    ~
||--------------------------|--------------------------|
||o-------------------------|--------------------------|
||--7-----------------------|-7-----9-----10------7----|
||--------------------------|--------------------------|
||o-------------------------|--------------------------|
||--------------------------|--------------------------|
|
|   Gtr II
|   ~
||--------------------------|--------------------------|
||o-6-----------------------|-6-----8-----10------6----|
||--------------------------|--------------------------|
||--------------------------|--------------------------|
||o-------------------------|--------------------------|
||--------------------------|--------------------------|
|
|   Gtr III
|     PM----|   PM|             PM----|    PM|
||--------------------------|--------------------------|
||o-------------------------|--------------------------|
||--7---------7-----7-(7)-7-|-7---------7------7-(7)-7-|
||--7---------7-----7-(7)-7-|-7---------7------7-(7)-7-|
||o-5-5-5-5-5-5-5-5-5-(5)-5-|-5-5-5-5-5-5--5-5-5-(5)-5-|
||--------------------------|--------------------------|


  C5                          C5
  ~                           ~
|---------------------------|-------------------------|
|---------------------------|-------------------------|
|-9-----------------(9)-9p7-|-5-----------------------|
|---------------------------|-------------------------|
|---------------------------|-------------------------|
|---------------------------|-------------------------|
|
| ~                           ~
|---------------------------|-------------------------|
|-8-----------------(8)-8p6-|-5-----------------------|
|---------------------------|-------------------------|
|---------------------------|-------------------------|
|---------------------------|-------------------------|
|---------------------------|-------------------------|
|
|   PM----|   PM|               PM----|   PM|
|---------------------------|-------------------------|
|---------------------------|-------------------------|
|-5---------5-----5-(5)-5---|-5---------5-----5-(5)-5-|
|-5---------5-----5-(5)-5---|-5---------5-----5-(5)-5-|
|-3-3-3-3-3-3-3-3-3-(3)-3---|-3-3-3-3-3-3-3-3-3-(3)-3-|
|---------------------------|-------------------------|


  Bb5                       Bb5
  ~
|-------------------------|--------------------------|
|-------------------------|--------------------------|
|-------------------------|--------------7------9----|
|-8-----------------------|-8-----10-----------------|
|-------------------------|--------------------------|
|-------------------------|--------------------------|
|
| ~
|-------------------------|--------------------------|
|-------------------------|--------------6------8----|
|-7-----------------------|-7------9-----------------|
|-------------------------|--------------------------|
|-------------------------|--------------------------|
|-------------------------|--------------------------|
|
|   PM----|   PM|             PM-----|   PM|
|-------------------------|--------------------------|
|-------------------------|--------------------------|
|-3---------3-----3-(3)-3-|-3----------3-----3-(3)-3-|
|-3---------3-----3-(3)-3-|-3----------3-----3-(3)-3-|
|-1-1-1-1-1-1-1-1-1-(1)-1-|-1-1-1--1-1-1-1-1-1-(1)-1-|
|-------------------------|--------------------------|


  1.
  F5                        A5   A/C#
  ~~~~~~~~~~~~~~~~~~~~~~~~~~~~~~~~~
|-------------------------|------------||
|-------------------------|-----------o||
|-------------------------|------9-----||
|-------------------------|-7----------||
|-8-----------------------|-----------o||
|-------------------------|------------||
|
| ~~~~~~~~~~~~~~~~~~~~~~~~~~~~~~~~~
|-------------------------|------------||
|-------------------------|-----------o||
|-------------------------|-6----6-----||
|-7-----------------------|------------||
|-------------------------|-----------o||
|-------------------------|------------||
|
|   PM----|   PM|
|-------------------------|------------||
|-------------------------|-----------o||
|-------------------------|------6-----||
|-3---------3-----3-(3)-3-|-7----7-----||
|-3---------3-----3-(3)-3-|-7----4----o||
|-3-3-3-3-3-3-3-3-3-(3)-3-|-7----------||


  2.
                              To Coda
  F5                          A5   A/C#
  ~~~~~~~~~~~~~~~~~~~~~~~~~~~~~~
|---------------------------|-----------|
|---------------------------|-----------|
|-------------/10-----------|-9---------|
|-7-------------------------|-----------|
|---------------------------|-----------|
|---------------------------|-----------|
|
| ~~~~~~~~~~~~~~~~~~~~~~~~~~~~~~
|---------------------------|-----------|
|---------------------------|-----------|
|-5-------------5-----------|-6---------|
|---------------------------|-----------|
|---------------------------|-----------|
|---------------------------|-----------|
|
|   PM----|     PM|
|---------------------------|-----------|
|---------------------------|-----------|
|---------------------------|------6----|
|-3---------3-------3-(3)-3-|-7----7----|
|-3---------3-------3-(3)-3-|-7----4----|
|-3-3-3-3-3-3---3-3-3-(3)-3-|-7---------|


 Bridge
  D5 G5G#G5D5F5D5
|----------------|------------|------------|--------|
|----------------|------------|------------|--------|
|----------------|------------|------------|--------|
|----------------|------------|------------|--------|
|--------------5-|-(5)--------|-(5)--------|-(5)----|
|----------------|------------|------------|--------|
|
| Gtr II
|----------------|------------|------------|--------|
|----------------|------------|------------|--------|
|----------------|------------|------------|--------|
|----------------|------------|------------|--------|
|-0--5S6-5-0-3-0-|------------|------------|--------|
|-0--5S6-5-0-3-0-|------------|------------|--------|


  N.C.
|-------------------------|---------------------------|---------|-----|
|-------------------------|---------------------------|---------|-----|
|-6pb7r=(6)--(6)pb7r=(6)--|-(6)pb7r=(6)--(6)pb7r=(6)--|---------|-----|
|-------------------------|---------------------------|---------|-----|
|-------------------------|---------------------------|---------|-----|
|-------------------------|---------------------------|---------|-----|


   Chorus
    D5                   F5
||--------13----12----------|---------17----15--13-12----|
||o-15-------------15-13-13-|-(13)-13----13-----------13-|
||-----14----14-------------|----------------------------|
||--------------------------|----------------------------|
||o-------------------------|----------------------------|
||--------------------------|----------------------------|
|
|   Gtr II
|                      PM
||--------------------------|----------------------------|
||o-------------------------|----------------------------|
||---7-----7-----7--7-------|----------------------------|
||---7-----7-----7--7-----3-|--(3)--3--3----(3)--3--3--3-|
||o--5-----5-----5--5-----3-|--(3)--3--3----(3)--3--3--3-|
||---------------------3--3-|--(3)--3--3----(3)--3--3--3-|


  Bb5      F5        C5
|----------13------------|---------------------------|
|-15----------15---------|---------------------------|
|----14-----------14-----|-----12----------------15--|
|-------15-----------14--|-14-----14-12----14-17-----|
|------------------------|--------------16-----------|
|------------------------|---------------------------|
|
|------------------------|---------------------------|
|------------------------|---------------------------|
|--3-----x------------5--|-(5)--5--5-----------------|
|--3-----x--3-(3)--x--5--|-(5)--5--5-----------------|
|--1-----x--3-(3)--x--3--|-(3)--3--3-----------------|
|-----------3-(3)--x-----|---------------------------|


  D5                   F5
                        ~~~~~~~~~
|-------------------12-13-|-(13)----------15-----17----|
|-15----------15----------|------13----13-----13----13-|
|----14----14----14-------|----------------------------|
|-------15----------------|---------15-----------------|
|-------------------------|----------------------------|
|-------------------------|----------------------------|
|
|                    PM                           PM|
|-------------------------|----------------------------|
|-------------------------|----------------------------|
|--7-----7-----7--7-------|----------------------------|
|--7-----7-----7--7-----3-|--(3)--3--3----(3)--3-------|
|--5-----5-----5--5-----3-|--(3)--3--3----(3)--3--3--3-|
|--------------------3--3-|--(3)--3--3----(3)--3--3--3-|


  C5                                Bb5
                                                      ~~~~~~~
|---------------------------------------|---------------------------||
|-17-(17)b18r(17)----17pb18r17-(17)-/18-|-(18)-17----15-(15)-------o||
|-----------------17--------------------|---------17----------------||
|---------------------------------------|---------------------------||
|---------------------------------------|--------------------------o||
|---------------------------------------|---------------------------||
|
|---------------------------------------|---------------------------||
|---------------------------------------|--------------------------o||
|--5-----------5------5------5---5----3-|--(3)--3--3----------------||
|--5-----------5------5------5---5----3-|--(3)--3--3----------------||
|--3-----------3------3------3---3----1-|--(1)--1--1-/8--(8)-7-----o||
|---------------------------------------|----------------------10---||


 Breakdown
  D5
|-------------|---------|---------|-------|
|-(15)--------|---------|---------|-------|
|-------------|---------|---------|-------|
|-------------|---------|---------|-------|
|-------------|---------|---------|-x\----|
|-------------|---------|---------|-x\----|
|
|-------------|---------|---------|-------|
|-------------|---------|---------|-------|
|-------------|---------|---------|-------|
|---0---------|---------|---------|-------|
|---0---------|---------|---------|-------|
|---0---------|---------|---------|-------|


  D5    C#5          C5    Bb5
    ~~~~~~~~~~~~~~~~~~~~~~~~~~~~~~~
|------------------|------------------|
|-/15---14-(14)----|-/13--------------|
|------------------|-------15-(15)----|
|------------------|------------------|
|------------------|------------------|
|------------------|------------------|
|
|------------------|------------------|
|------------------|------------------|
|---7----6--(6)----|---5----3--(3)----|
|---7----6--(6)----|---5----3--(3)----|
|---5----4--(4)----|---3----1--(1)----|
|------------------|------------------|


  A5    G5      F5      D5
                                       ~~~~~
|--------------------------|---------------------|
|--------------------------|---------------------|
|-/14---12-(12)------------|----------12b13------|
|---------------15-(15)-12-|-(12)----------------|
|--------------------------|---------------------|
|--------------------------|---------------------|
|
|--------------------------|---------------------|
|--------------------------|---------------------|
|--------------------------|---------------------|
|---7----5--(5)--3--(3)--0-|--(0)------0----(0)--|
|---7----5--(5)--3--(3)--0-|--(0)------0----(0)--|
|---7----5--(5)--3--(3)--0-|--(0)------0----(0)--|


  D5    C#5          C5    Bb5
    ~~~~~~~~~~~~~~~~~~~~~~~~~~~~~~~
|------------------|------------------|
|-/15---14-(14)----|-/13--------------|
|------------------|-------15-(15)----|
|------------------|------------------|
|------------------|------------------|
|------------------|------------------|
|
|------------------|------------------|
|------------------|------------------|
|---7----6--(6)----|---5----3--(3)----|
|---7----6--(6)----|---5----3--(3)----|
|---5----4--(4)----|---3----1--(1)----|
|------------------|------------------|


                                              D.S. al Coda
  A5    G5      F5      D5
|--------------------------|------------------------16b17-(16)\--|
|--------------------------|---------------------15--------------|
|-/14---12-(12)------------|---------------12-14-----------------|
|---------------15-(15)-12-|-(12)-12-14-15-----------------------|
|--------------------------|-------------------------------------|
|--------------------------|-------------------------------------|
|
|--------------------------|-------------------------------------|
|--------------------------|-------------------------------------|
|--------------------------|-------------------------------------|
|---7----5--(5)--3--(3)--0-|--(0)--------------------------------|
|---7----5--(5)--3--(3)--0-|--(0)--------------------------------|
|---7----5--(5)--3--(3)--0-|--(0)--------------------------------|


   Interlude
    &
    D5                A5              C5              G5
||------------------|---------------|---------------|-----------------||
||o-----------------|---------------|---------------|----------------o||
||--7---11-(11)--7--|-6---9-(9)--6--|-5---9-(9)--5--|-----------------||
||------------------|---------------|---------------|-5---5-(5)--5----||
||o-5----9--(9)--5--|-4---7-(7)--4--|-3---7-(7)--3--|----------------o||
||------------------|---------------|---------------|-5---5-(5)--5----||
|
||------------------|---------------|---------------|-----------------||
||o-----------------|---------------|---------------|----------------o||
||--7---------------|---------------|-5-------------|-----------------||
||--7---------------|-7-------------|-5-------------|-5---------------||
||o-5---------------|-7-------------|-3-------------|-5--------------o||
||------------------|-7-------------|---------------|-5---------------||


    F5                        F5
    Gtrs I, II
      PM----|   PM|             PM----|   PM|
||--------------------------|-------------------------|
||o-------------------------|-------------------------|
||--------------------------|-------------------------|
||--3---------3-----3-(3)-3-|-3---------3-----3-(3)-3-|
||o-3---------3-----3-(3)-3-|-3---------3-----3-(3)-3-|
||--3-3-3-3-3-3-3-3-3-(3)-3-|-3-3-3-3-3-3-3-3-3-(3)-3-|


  C5                        C5
    PM----|   PM|             PM----|   PM|
|-------------------------|-------------------------|
|-------------------------|-------------------------|
|-5---------5-----5-(5)-5-|-5---------5-----5-(5)-5-|
|-5---------5-----5-(5)-5-|-5---------5-----5-(5)-5-|
|-3-3-3-3-3-3-3-3-3-(3)-3-|-3-3-3-3-3-3-3-3-3-(3)-3-|
|-------------------------|-------------------------|


  Bb5                       Bb5
    PM----|   PM|             PM----|   PM|
|-------------------------|-------------------------|
|-------------------------|-------------------------|
|-3---------3-----3-(3)-3-|-3---------3-----3-(3)-3-|
|-3---------3-----3-(3)-3-|-3---------3-----3-(3)-3-|
|-1-1-1-1-1-1-1-1-1-(1)-1-|-1-1-1-1-1-1-1-1-1-(1)-1-|
|-------------------------|-------------------------|


  1.
  A5                        A5
    PM----|   PM|             PM----|   PM|
|-------------------------|--------------------------||
|-------------------------|-------------------------o||
|-2---------2-----2-(2)-2-|-2---------2-----2-(2)-2--||
|-2---------2-----2-(2)-2-|-2---------2-----2-(2)-2--||
|-0-0-0-0-0-0-0-0-0-(0)-0-|-0-0-0-0-0-0-0-0-0-(0)-0-o||
|-------------------------|--------------------------||


  2.
  A5                        A5
    PM----|   PM|             PM----|   PM|
|-------------------------|-------------------------|
|-------------------------|-------------------------|
|-2---------2-----2-(2)-2-|-2---------2-----2-(2)-2-|
|-2---------2-----2-(2)-2-|-2---------2-----2-(2)-2-|
|-0-0-0-0-0-0-0-0-0-(0)-0-|-0-0-0-0-0-0-0-0-0-(0)-0-|
|-------------------------|-------------------------|


 Bridge
  D5               D5
  Gtr I
|----------------|----------------|
|----------------|----------------|
|----------------|----------------|
|----------------|----------------|
|----------------|----------------|
|----------------|----------------|
|
| Gtr II
| PM------|        PM------|
|----------------|----------------|
|----------------|----------------|
|----------------|----------------|
|----------------|----------------|
|-0-0-0-0-0------|-0-0-0-0-0------|
|-0-0-0-0-0------|-0-0-0-0-0------|


  D5                      D5         D
             PM--------|
|-----------------------|------------------------|
|-----------------------|------------------------|
|-----------------------|------------------------|
|-----------------------|------------------------|
|-----------------------|------------5b6r=(5)----|
|------------0-0-0-0-0--|------------0----(0)----|
|
| PM------|               PM------|
|-----------------------|------------------------|
|-----------------------|------------------------|
|-----------------------|------------------------|
|-----------------------|------------------------|
|-0-0-0-0-0-------------|-0-0-0-0-0--5b6r=(5)----|
|-0-0-0-0-0-------------|-0-0-0-0-0--0----(0)----|


  N.C.
  Gtr IV
|-12--------|-(12)--------|-(12)s=14s=15s=14s=|=12s==14s=15s=14--|
|-----------|-------------|-------------------|------------------|
|-----------|-------------|-------------------|------------------|
|-----------|-------------|-------------------|------------------|
|-----------|-------------|-------------------|------------------|
|-----------|-------------|-------------------|------------------|
|
|-----------|-------------|-------------------|------------------|
|-----------|-------------|-------------------|------------------|
|-----------|-------------|-------------------|------------------|
|-----------|-------------|-------------------|------------------|
|--5--------|--(5)--------|--(5)--------------|-(5)--------------|
|-----------|-------------|-------------------|------------------|


  N.C.
|-14pb15r(14)-(14)b15r(14)-(14)b15r(14)-15---|
|--------------------------------------------|
|--------------------------------------------|
|--------------------------------------------|
|--------------------------------------------|
|--------------------------------------------|
|
|--------------------------------------------|
|--------------------------------------------|
|--6pb7r=======(6)----------(6)pb7r=====(6)--|
|--------------------------------------------|
|--------------------------------------------|
|--------------------------------------------|


|-15------------------------|---------|-----|
|---------------------------|---------|-----|
|---------------------------|---------|-----|
|---------------------------|---------|-----|
|---------------------------|---------|-----|
|---------------------------|---------|-----|
|
|---------------------------|---------|-----|
|---------------------------|---------|-----|
|-(6)pb7r=(6)--(6)pb7r=(6)--|---------|-----|
|---------------------------|---------|-----|
|---------------------------|---------|-----|
|---------------------------|---------|-----|


  D5 G5G#G5  F5D5      F5G5  G#5 G5     D5 G5G#G5  F5D5      D5D5  F5
  Gtrs I, II
|----------------|--------------------|----------------|-----------------------|
|----------------|--------------------|----------------|-----------------------|
|----------------|--------------------|----------------|-------7---10-10-10-10-|
|-0--5S6-5---3-0-|-(0)-3S5---6---/5---|-0--5S6-5---3-0-|-(0)-0-7---10-10-10-10-|
|-0--5S6-5---3-0-|-(0)-3S5---6---/5---|-0--5S6-5---3-0-|-(0)-0-5----8--8--8--8-|
|-0--5S6-5-0-3-0-|-(0)-3S5-0-6-0-/5-0-|-0--5S6-5-0-3-0-|-(0)-0---0-------------|


  D5 G5G#G5  F5D5      F5G5  G#5 G5     D5 G5G#5   F5D5        D5  F5
|----------------|--------------------|----------------|-----------------------|
|----------------|--------------------|----------------|-----------------------|
|----------------|--------------------|----------------|-------7---10-10-10-10-|
|-0--5S6-5---3-0-|-(0)-3S5---6---/5---|-0--5S6-5---3-0-|-(0)-0-7---10-10-10-10-|
|-0--5S6-5---3-0-|-(0)-3S5---6---/5---|-0--5S6-5---3-0-|-(0)-0-5----8--8--8--8-|
|-0--5S6-5-0-3-0-|-(0)-3S5-0-6-0-/5-0-|-0--5S6-5-0-3-0-|-(0)-0---0-------------|


 Breakdown
  D5    C#5          C5    Bb5
  Gtr I
    ~~~~~~~~~~~~~~~~~~~~~~~~~~~~~~~
|------------------|------------------|
|-/15---14-(14)----|-/13--------------|
|------------------|-------15-(15)----|
|------------------|------------------|
|------------------|------------------|
|------------------|------------------|
|
| Gtr II
|------------------|------------------|
|------------------|------------------|
|---7----6--(6)----|---5----3--(3)----|
|---7----6--(6)----|---5----3--(3)----|
|---5----4--(4)----|---3----1--(1)----|
|------------------|------------------|


  A5    G5      F5      D5
                                       ~~~~~
|--------------------------|---------------------|
|--------------------------|---------------------|
|-/14---12-(12)------------|----------12b13------|
|---------------15-(15)-12-|-(12)----------------|
|--------------------------|---------------------|
|--------------------------|---------------------|
|
|--------------------------|---------------------|
|--------------------------|---------------------|
|--------------------------|---------------------|
|---7----5--(5)--3--(3)--0-|--(0)------0----(0)--|
|---7----5--(5)--3--(3)--0-|--(0)------0----(0)--|
|---7----5--(5)--3--(3)--0-|--(0)------0----(0)--|


  D5    C#5          C5    Bb5
    ~~~~~~~~~~~~~~~~~~~~~~~~~~~~~~~
|------------------|------------------|
|-/15---14-(14)----|-/13--------------|
|------------------|-------15-(15)----|
|------------------|------------------|
|------------------|------------------|
|------------------|------------------|
|
|------------------|------------------|
|------------------|------------------|
|---7----6--(6)----|---5----3--(3)----|
|---7----6--(6)----|---5----3--(3)----|
|---5----4--(4)----|---3----1--(1)----|
|------------------|------------------|


  A5    G5      F5      D5
|--------------------------|------------------------16b17-(16)\--|
|--------------------------|---------------------15--------------|
|-/14---12-(12)------------|---------------12-14-----------------|
|---------------15-(15)-12-|-(12)-12-14-15-----------------------|
|--------------------------|-------------------------------------|
|--------------------------|-------------------------------------|
|
|--------------------------|-------------------------------------|
|--------------------------|-------------------------------------|
|--------------------------|-------------------------------------|
|---7----5--(5)--3--(3)--0-|--(0)--------------------------------|
|---7----5--(5)--3--(3)--0-|--(0)--------------------------------|
|---7----5--(5)--3--(3)--0-|--(0)--------------------------------|


   Chorus
    D5    D5    D5 D5    F5
||--------13----12----------|---------17----15--13-12----|
||o-15-------------15-13-13-|-(13)-13----13-----------13-|
||-----14----14-------------|----------------------------|
||--------------------------|----------------------------|
||o-------------------------|----------------------------|
||--------------------------|----------------------------|
|
|                      PM
||--------------------------|----------------------------|
||o-------------------------|----------------------------|
||---7-----7-----7--7-------|----------------------------|
||---7-----7-----7--7-----3-|--(3)--3--3----(3)--3--3--3-|
||o--5-----5-----5--5-----3-|--(3)--3--3----(3)--3--3--3-|
||---------------------3--3-|--(3)--3--3----(3)--3--3--3-|


  Bb5      F5        C5
|----------13------------|---------------------------|
|-15----------15---------|---------------------------|
|----14-----------14-----|-----12----------------15--|
|-------15-----------14--|-14-----14-12----14-17-----|
|------------------------|--------------16-----------|
|------------------------|---------------------------|
|
|------------------------|---------------------------|
|------------------------|---------------------------|
|--3-----x------------5--|-(5)--5--5-----------------|
|--3-----x--3-(3)--x--5--|-(5)--5--5-----------------|
|--1-----x--3-(3)--x--3--|-(3)--3--3-----------------|
|-----------3-(3)--x-----|---------------------------|


  D5                   F5
                        ~~~~~~~~~
|-------------------12-13-|-(13)----------15-----17----|
|-15----------15----------|------13----13-----13----13-|
|----14----14----14-------|----------------------------|
|-------15----------------|---------15-----------------|
|-------------------------|----------------------------|
|-------------------------|----------------------------|
|
|                    PM                           PM|
|-------------------------|----------------------------|
|-------------------------|----------------------------|
|--7-----7-----7--7-------|----------------------------|
|--7-----7-----7--7-----3-|--(3)--3--3----(3)--3-------|
|--5-----5-----5--5-----3-|--(3)--3--3----(3)--3--3--3-|
|--------------------3--3-|--(3)--3--3----(3)--3--3--3-|


  C5                                Bb5
                                                      ~~~~~~~
|---------------------------------------|---------------------------||
|-17-(17)b18r(17)----17pb18r17-(17)-/18-|-(18)-17----15-(15)-------o||
|-----------------17--------------------|---------17----------------||
|---------------------------------------|---------------------------||
|---------------------------------------|--------------------------o||
|---------------------------------------|---------------------------||
|
|---------------------------------------|---------------------------||
|---------------------------------------|--------------------------o||
|--5-----------5------5------5---5----3-|--(3)--3--3----------------||
|--5-----------5------5------5---5----3-|--(3)--3--3----------------||
|--3-----------3------3------3---3----1-|--(1)--1--1-/8--(8)-7-----o||
|---------------------------------------|----------------------10---||


   Bridge
    D5                          A5
      PM----|   PM----|   PM|     PM----|   PM----|   PM|
||----------------------------|---------------------------|
||o---------------------------|---------------------------|
||--7---------7---------7-----|---------------------------|
||--7---------7---------7-----|-7---------7---------7-----|
||o-5-5-5-5-5-5-5-5-5-5-5-5-5-|-7---------7---------7-----|
||----------------------------|-7-7-7-7-7-7-7-7-7-7-7-7-7-|
|
|     PM----|   PM----|   PM|     PM----|   PM----|   PM|
||----------------------------|---------------------------|
||o---------------------------|---------------------------|
||--7---------7---------7-----|---------------------------|
||--7---------7---------7-----|-7---------7---------7-----|
||o-5-5-5-5-5-5-5-5-5-5-5-5-5-|-7---------7---------7-----|
||----------------------------|-7-7-7-7-7-7-7-7-7-7-7-7-7-|


  Bb5
    PM----|                                 ~~
                                                  4x
|-----------------------|---------------15-17-----||
|-----------------------|------15-17-18----------o||
|-----------------------|-------------------------||
|-8---------8-(8)-5-3-0-|-(0)---------------------||
|-8---------8-(8)-5-3-0-|-(0)--------------------o||
|-8-8-8-8-8-8-(8)-5-3-0-|-(0)---------------------||
|
|   PM----|                                 ~~
|                                                 4x
|-----------------------|-------------------------||
|-----------------------|------------------------o||
|-----------------------|-------------------------||
|-8---------8-(8)-5-3-0-|-(0)---------------7-----||
|-8---------8-(8)-5-3-0-|-(0)---5-----8----------o||
|-8-8-8-8-8-8-(8)-5-3-0-|-(0)---------------------||


 Outro
  D5                      D5
             PM--------|             PM------|
|-----------------------|-----------------------|
|-----------------------|-----------------------|
|-----------------------|-----------------------|
|-----------------------|-----------------------|
|-----------------------|-----------------------|
|------------0-0-0-0-0--|------------0-0-0-0-0--|
|
| PM------|               PM------|
|-----------------------|-----------------------|
|-----------------------|-----------------------|
|-----------------------|-----------------------|
|-----------------------|-----------------------|
|-0-0-0-0-0-------------|-0-0-0-0-0-------------|
|-0-0-0-0-0-------------|-0-0-0-0-0-------------|


  D5                      D5         D
             PM------|
|-----------------------|-----------------------|
|-----------------------|-----------------------|
|-----------------------|-----------------------|
|-----------------------|-----------------------|
|-----------------------|------------5b6r=(5)---|
|------------0-0-0-0-0--|------------0----(0)---|
|
| PM------|               PM------|
|-----------------------|-----------------------|
|-----------------------|-----------------------|
|-----------------------|-----------------------|
|-----------------------|-----------------------|
|-0-0-0-0-0-------------|-0-0-0-0-0--5b6r=(5)---|
|-0-0-0-0-0-------------|-0-0-0-0-0--0----(0)---|


  D5
  Gtr II
  PM----|            PM------|  PM--------|  PM----|
|----------------|----------------------|------------------|
|----------------|----------------------|------------------|
|----------------|----------------------|------------------|
|---------0------|----------------------|------------0-----|
|-0-0-0-0-0------|---0-0-0-0-0--0-0-0-0-|-0--0-0-0-0-0-----|
|-0-0-0-0-0------|---0-0-0-0-0--0-0-0-0-|-0--0-0-0-0-0-----|


    D5
    PM------|  PM--------|  PM----|
|----------------------|-----------------|
|----------------------|-----------------|
|----------------------|-----------------|
|----------------------|------------0----|
|---0-0-0-0-0--0-0-0-0-|-0--0-0-0-0-0----|
|---0-0-0-0-0--0-0-0-0-|-0--0-0-0-0-0----|


    PM------|  PM--------|  PM----|
|----------------------|-----------------|
|----------------------|-----------------|
|----------------------|-----------------|
|----------------------|------------0----|
|---0-0-0-0-0--0-0-0-0-|-0--0-0-0-0-0----|
|---0-0-0-0-0--0-0-0-0-|-0--0-0-0-0-0----|


    D5                              D5
  Gtr I
|----------------------|------------------|------------------------|
|----------------------|------------------|-6----------6-----------|
|----------------------|------------7--9--|---------9----------7---|
|----------------------|------------------|------------------------|
|----------------------|------------------|------------------------|
|----------------------|------------------|------------------------|
|
| Gtr II
|   PM------|  PM--------|  PM----|         PM----|    PM----|
|----------------------|------------------|------------------------|
|----------------------|------------------|------------------------|
|----------------------|------------7-----|---------7----------7---|
|----------------------|------------7-----|---------7----------7---|
|---0-0-0-0-0--0-0-0-0-|-0----------5-----|-5-5-5-5-5--5-5-5-5-5---|
|---0-0-0-0-0--0-0-0-0-|-0--0-0-0-0-0-----|------------------------|


  N.C.            C5
  ~                          ~
|--------------------------|-----------------------|
|--------------------------|-----------------------|
|-9------------------7-9-7-|-5---------------------|
|--------------------------|-----------------------|
|--------------------------|-----------------------|
|--------------------------|-----------------------|
|
| PM------------|            PM----|    PM----|
|--------------------------|-----------------------|
|--------------------------|-----------------------|
|-----------------5--------|---------5----------5--|
|-----------------5--------|---------5----------5--|
|-3-3-3-3-3-3-3-3-3--------|-3-3-3-3-3--3-3-3-3-3--|
|--------------------------|-----------------------|


  N.C.            Bb5
  ~
|----------------------|-------------------------|
|----------------------|-------------------------|
|----------------------|--------------7----------|
|-8--------------------|-/8-------10----------8--|
|----------------------|-------------------------|
|----------------------|-------------------------|
|
| PM------------|         PM----|     PM----|
|----------------------|-------------------------|
|----------------------|-------------------------|
|-----------------3----|-----------3----------3--|
|-----------------3----|-----------3----------3--|
|-1-1-1-1-1-1-1-1-1----|--1-1-1-1--1--1-1-1-1-1--|
|----------------------|-------------------------|


  N.C.            F5               A5         A/C#
  ~~~~~~~~~~~~~~~~~~~~~~~~~~~
|----------------------|-------------------------|
|----------------------|-------------------------|
|----------------------|-------------------------|
|-7--------------------|-/11---------------------|
|----------------------|-------------------------|
|----------------------|-------------------------|
|
|----------------------|-------------------------|
|----------------------|-------------------------|
|----------------------|----------------------6--|
|-----------------3----|-----------7----------7--|
|-----------------3----|-----------7--4-4-4-4-4--|
|-3-3-3-3-3-3-3-3-3----|---7-7-7-7-7-------------|


  N.C.            D5
|-----------------------|-----------------------|
|-----------------------|-6----------6----------|
|-----------------7--9--|---------9----------7--|
|-----------------------|-----------------------|
|-----------------------|-----------------------|
|-----------------------|-----------------------|
|
|-----------------------|-----------------------|
|-----------------------|-----------------------|
|-----------------7-----|---------7----------7--|
|-----------------7-----|---------7----------7--|
|-5-5-5-5-5-5-5-5-5-----|-5-5-5-5-5--5-5-5-5-5--|
|-----------------------|-----------------------|


  N.C.            C5
  ~                          ~
|--------------------------|-----------------------|
|--------------------------|-----------------------|
|-9------------------7-9-7-|-5---------------------|
|--------------------------|-----------------------|
|--------------------------|-----------------------|
|--------------------------|-----------------------|
|
| PM------------|            PM----|    PM----|
|--------------------------|-----------------------|
|--------------------------|-----------------------|
|-----------------5--------|---------5----------5--|
|-----------------5--------|---------5----------5--|
|-3-3-3-3-3-3-3-3-3--------|-3-3-3-3-3--3-3-3-3-3--|
|--------------------------|-----------------------|


  N.C.            Bb5
  ~
|----------------------|-------------------------|
|----------------------|-------------------------|
|----------------------|--------------7----------|
|-8--------------------|-/8-------10----------8--|
|----------------------|-------------------------|
|----------------------|-------------------------|
|
| PM------------|         PM----|     PM----|
|----------------------|-------------------------|
|----------------------|-------------------------|
|-----------------3----|-----------3----------3--|
|-----------------3----|-----------3----------3--|
|-1-1-1-1-1-1-1-1-1----|--1-1-1-1--1--1-1-1-1-1--|
|----------------------|-------------------------|


  N.C.            F5               A5         A/C#
  ~~~~~~~~~~~~~~~~~~~~~~~~~~~
|----------------------|-------------------------|
|----------------------|-------------------------|
|----------------------|-------------------------|
|-7--------------------|-/11---------------------|
|----------------------|-------------------------|
|----------------------|-------------------------|
|
|----------------------|-------------------------|
|----------------------|-------------------------|
|----------------------|----------------------6--|
|-----------------3----|-----------7----------7--|
|-----------------3----|-----------7--4-4-4-4-4--|
|-3-3-3-3-3-3-3-3-3----|---7-7-7-7-7-------------|


  N.C.            D5
|-----------------------|-------------------------|
|-----------------------|--6-----------6----------|
|-----------------7--9--|----------9-----------7--|
|-----------------------|-------------------------|
|-----------------------|-------------------------|
|-----------------------|-------------------------|
|
| Gtr II
|-----------------------|-------------------------|
|-----------------6--8--|-10-------8--10-------6--|
|-----------------------|-------------------------|
|-----------------------|-------------------------|
|-----------------------|-------------------------|
|-----------------------|-------------------------|
|
| Gtr III
|-----------------------|-------------------------|
|-----------------------|-------------------------|
|-----------------7-----|----------7-----------7--|
|-----------------7-----|----------7-----------7--|
|-5-5-5-5-5-5-5-5-5-----|--5-5-5-5-5---5-5-5-5-5--|
|-----------------------|-------------------------|


  N.C.            C5
  ~                          ~
|--------------------------|-----------------------|
|--------------------------|-----------------------|
|-9------------------7-9-7-|-5---------------------|
|--------------------------|-----------------------|
|--------------------------|-----------------------|
|--------------------------|-----------------------|
|
| ~                          ~
|--------------------------|-----------------------|
|-8------------------6-8-6-|-5---------------------|
|--------------------------|-----------------------|
|--------------------------|-----------------------|
|--------------------------|-----------------------|
|--------------------------|-----------------------|
|
| PM------------|            PM----|    PM----|
|--------------------------|-----------------------|
|--------------------------|-----------------------|
|-----------------5--------|---------5----------5--|
|-----------------5--------|---------5----------5--|
|-3-3-3-3-3-3-3-3-3--------|-3-3-3-3-3--3-3-3-3-3--|
|--------------------------|-----------------------|


  N.C.            Bb5
  ~
|----------------------|-------------------------|
|----------------------|-------------------------|
|----------------------|--------------7----------|
|-8--------------------|-/8-------10----------8--|
|----------------------|-------------------------|
|----------------------|-------------------------|
|
| ~
|----------------------|-------------------------|
|----------------------|--------------6----------|
|-7--------------------|-/7--------9----------7--|
|----------------------|-------------------------|
|----------------------|-------------------------|
|----------------------|-------------------------|
|
| PM------------|         PM----|     PM----|
|----------------------|-------------------------|
|----------------------|-------------------------|
|-----------------3----|-----------3----------3--|
|-----------------3----|-----------3----------3--|
|-1-1-1-1-1-1-1-1-1----|--1-1-1-1--1--1-1-1-1-1--|
|----------------------|-------------------------|


  N.C.            F5               A5         A/C#
  ~~~~~~~~~~~~~~~~~~~~~~~~~~~
|----------------------|-------------------------|
|----------------------|-------------------------|
|----------------------|-------------------------|
|-7--------------------|-/11---------------------|
|----------------------|-------------------------|
|----------------------|-------------------------|
|
| ~~~~~~~~~~~~~~~~~~~~~~~~~~~
|----------------------|-------------------------|
|----------------------|-------------------------|
|-5--------------------|--/9---------------------|
|----------------------|-------------------------|
|----------------------|-------------------------|
|----------------------|-------------------------|
|
|----------------------|-------------------------|
|----------------------|-------------------------|
|----------------------|----------------------6--|
|-----------------3----|-----------7----------7--|
|-----------------3----|-----------7--4-4-4-4-4--|
|-3-3-3-3-3-3-3-3-3----|---7-7-7-7-7-------------|


  N.C.            D5
|-----------------------|---------------------------|
|-----------------------|--6-----------6--------10--|
|-----------------7--9--|----------9----------------|
|-----------------------|---------------------------|
|-----------------------|---------------------------|
|-----------------------|---------------------------|
|
|-----------------------|----------------------/10--|
|-----------------6--8--|-10-------8--10------------|
|-----------------------|---------------------------|
|-----------------------|---------------------------|
|-----------------------|---------------------------|
|-----------------------|---------------------------|
|
| PM------------|          PM----|     PM----|
|-----------------------|---------------------------|
|-----------------------|---------------------------|
|-----------------7-----|----------7-------------7--|
|-----------------7-----|----------7-------------7--|
|-5-5-5-5-5-5-5-5-5-----|--5-5-5-5-5---5-5-5-5---5--|
|-----------------------|---------------------------|


  N.C.             C5
                              ~
|---------------------------|-----------------------|
|-10------------------------|-----------------------|
|---------------------7-9-7-|-5---------------------|
|---------------------------|-----------------------|
|---------------------------|-----------------------|
|---------------------------|-----------------------|
|
|                             ~
|--8------------------------|-----------------------|
|---------------------6-8-6-|-5---------------------|
|---------------------------|-----------------------|
|---------------------------|-----------------------|
|---------------------------|-----------------------|
|---------------------------|-----------------------|
|
|  PM------------|            PM----|    PM----|
|---------------------------|-----------------------|
|---------------------------|-----------------------|
|------------------5--------|---------5----------5--|
|------------------5--------|---------5----------5--|
|--3-3-3-3-3-3-3-3-3--------|-3-3-3-3-3--3-3-3-3-3--|
|---------------------------|-----------------------|


  N.C.            Bb5
  ~
|----------------------|-------------------------|
|----------------------|-------------------------|
|----------------------|--------------7----------|
|-8--------------------|-/8-------10----------8--|
|----------------------|-------------------------|
|----------------------|-------------------------|
|
| ~
|----------------------|-------------------------|
|----------------------|--------------6----------|
|-7--------------------|-/7--------9----------7--|
|----------------------|-------------------------|
|----------------------|-------------------------|
|----------------------|-------------------------|
|
| PM------------|         PM----|     PM----|
|----------------------|-------------------------|
|----------------------|-------------------------|
|-----------------3----|-----------3----------3--|
|-----------------3----|-----------3----------3--|
|-1-1-1-1-1-1-1-1-1----|--1-1-1-1--1--1-1-1-1-1--|
|----------------------|-------------------------|


  N.C.            F5               A5         A/C#
  ~~~~~~~~~~~~~~~~~~~~~~~~~~~
|----------------------|-------------------------|
|----------------------|-------------------------|
|----------------------|-------------------------|
|-7--------------------|-/11---------------------|
|----------------------|-------------------------|
|----------------------|-------------------------|
|
| ~~~~~~~~~~~~~~~~~~~~~~~~~~~
|----------------------|-------------------------|
|----------------------|-------------------------|
|-5--------------------|--/9---------------------|
|----------------------|-------------------------|
|----------------------|-------------------------|
|----------------------|-------------------------|
|
|----------------------|-------------------------|
|----------------------|-------------------------|
|----------------------|----------------------6--|
|-----------------3----|-----------7----------7--|
|-----------------3----|-----------7--4-4-4-4-4--|
|-3-3-3-3-3-3-3-3-3----|---7-7-7-7-7-------------|


  F5
  Gtr I
|----------12-12h13-15p12h13--------|----------12-12h13-15p12h13-------|
|-------13-------------------13-----|-------13-------------------13----|
|----14--------------------------14-|----14-------------------------14-|
|-15--------------------------------|-15-------------------------------|
|-----------------------------------|----------------------------------|
|-----------------------------------|----------------------------------|
|
| Gtr II
|-----------------------------------|----------------------------------|
|-----------------------------------|----------------------------------|
|-----------------------------------|----------------------------------|
|--3--------------3----------(3)--3-|--3-----3--------3-----------3----|
|--3--------------3----------(3)--3-|--3-----3--------3-----------3----|
|--3--------------3----------(3)--3-|--3-----3--------3-----------3----|


  C5
|-------------10h12-13p10h12--------|-------------10h12-13p10h12-------|
|----------11----------------11-----|----------11----------------11----|
|----12-14-----------------------12-|----12-14----------------------12-|
|-14--------------------------------|-14-------------------------------|
|-----------------------------------|----------------------------------|
|-----------------------------------|----------------------------------|
|
|-----------------------------------|----------------------------------|
|-----------------------------------|----------------------------------|
|--5--------------5----------(5)--5-|--5-----5--------5-----------5----|
|--5--------------5----------(5)--5-|--5-----5--------5-----------5----|
|--3--------------3----------(3)--3-|--3-----3--------3-----------3----|
|-----------------------------------|----------------------------------|


  Bb5
|-------------------------13h=15---15h17-|-----------------13h15-15h17-|
|-18-17-15----13h15h17p15----------------|-18-17-15----15--------------|
|----------15----------------------------|----------15-----------------|
|----------------------------------------|-----------------------------|
|----------------------------------------|-----------------------------|
|----------------------------------------|-----------------------------|
|
|----------------------------------------|-----------------------------|
|----------------------------------------|-----------------------------|
|--3--------------3-------(3)----3-------|--3-----3-----3---3----------|
|--3--------------3-------(3)----3-------|--3-----3-----3---3----------|
|--1--------------1-------(1)----1-------|--1-----1-----1---1----------|
|----------------------------------------|-----------------------------|


  A5
|--------------------------------------|---------------------------------|
|-17-15h17-14-14h15--------------------|----------------------------17---|
|-------------------15-14h15-14--12h14-|-------------------15-14h15------|
|--------------------------------------|-14-15p14-17-15h17---------------|
|--------------------------------------|---------------------------------|
|--------------------------------------|---------------------------------|
|
|--------------------------------------|---------------------------------|
|--------------------------------------|---------------------------------|
|--------------------------------------|---------------------------------|
|--7-----------------7-------(7)--7----|--7--------7--------7--------7---|
|--7-----------------7-------(7)--7----|--7--------7--------7--------7---|
|--7-----------------7-------(7)--7----|--7--------7--------7--------7---|


  F5
   ~~
|----------------|-------------------------|
|-18-------------|-------------------------|
|----------------|-10-10-14-14-14-14-10-10-|
|----------------|-------------------------|
|----------------|--8--8-12-12-12-12--8--8-|
|----------------|-------------------------|
|
|----------------|-------------------------|
|----------------|-------------------------|
|----------------|-------------------------|
|--3----3--(3)-3-|--3-----3-----3-----3----|
|--3----3--(3)-3-|--3-----3-----3-----3----|
|--3----3--(3)-3-|--3-----3-----3-----3----|


  C5
|------------------|---------------------|
|------------------|---------------------|
|-9-9-9-9-9--(9)-9-|-9-9-12-12-12-12-9-9-|
|------------------|---------------------|
|-7-7-7-7-7--(7)-7-|-7-7-10-10-10-10-7-7-|
|------------------|---------------------|
|
|------------------|---------------------|
|------------------|---------------------|
|-5-------5--(5)-5-|-5----5-----5----5---|
|-5-------5--(5)-5-|-5----5-----5----5---|
|-3-------3--(3)-3-|-3----3-----3----3---|
|------------------|---------------------|


                                                  H.=H
  Bb5                           A5
|---------------|-------------|-----------------|--------|
|---------------|-------------|-----------------|--------|
|-9----7--------|-7-----7-----|-6--6--/9--------|-(9)----|
|---------------|-------------|-----------------|--------|
|-7----5--------|-5-----5-----|-4--4--/7--------|-(7)----|
|---------------|-------------|-----------------|--------|
|
|---------------|-------------|-----------------|--------|
|---------------|-------------|-----------------|--------|
|-3----3--(3)-3-|-3--3--3--3--|-----------------|--------|
|-3----3--(3)-3-|-3--3--3--3--|-7------7--(7)-7-|-(7)----|
|-1----1--(1)-1-|-1--1--1--1--|-7------7--(7)-7-|-(7)----|
|---------------|-------------|-7------7--(7)-7-|-(7)----|


             Q=90
  A5           F
|------------|--------|
|------------|-^10----|
|-(9)--------|-^10----|
|------------|-^10----|
|-(7)--------|-^-8----|
|------------|--------|
|
|------------|--------|
|------------|--------|
|------------|--------|
|-(7)--------|---3----|
|-(7)--------|---3----|
|-(7)--------|---3----|


|--------------|---------------*|
|-^(10)--------|-(10)----------*|
|-^(10)--------|-(10)----------*|
|-^(10)--------|-(10)----------*|
|-^-(8)--------|--(8)----------*|
|--------------|---------------*|
|
|--------------|---------------*|
|--------------|---------------*|
|--------------|---------------*|
|---(3)--------|--(3)----------*|
|---(3)--------|--(3)----------*|
|---(3)--------|--(3)----------*|

****************************************************************************
sieze the day

Guitar I: Srumming 
e|--1---------------3--------3--------3-------3-------1----------------------|
B|--3-------3-------3--------3--------3-------3-------3----------------------|
G|--2-------3-------0--------0--------0-------0-------2----------------------|
D|--0-------3-------0--------0--------0-------0-------0----------------------|
A|----------1-------x--------x--------x-------x------------------------------|
E|------------------3--------3--------3-------3------------------------------|

e|-------3------------------------1------------------------------------------|
B|-------3-------1-----------1----3------------------------------------------|
G|-------0-------0-----------0----2------------------------------------------|
D|-------0-------2------3----2----0------------------------------------------|
A|-------x-------3------3----3-----------------------------------------------|
E|-1-1-2-3--------------1----------------------------------------------------|

e|---3-----------------------------------------------------------------------|
B|---3------1-----------1----------------------------------------------------|
G|---0------0-----------0----------------------------------------------------|
D|---0------2-------3---2----------------------------------------------------|
A|---x------3-------3---3----------------------------------------------------|
E|---3--------------1--------------------------------------------------------|

Guitar II
e|---------------------------------------------------------------------------|
B|---------------------------------------------------------------------------|
G|---------------------------------------------------------------------------|
D|------5p3h5-3---2---0------------------------------------------------------|
A|--1/3----------------------------------------------------------------------|
E|---------------------------------------------------------------------------|

e|---------------------------------------------------------------------------|
B|--18-17----15--------------------------------------------------------------|
G|--------14-----------------------------------------------------------------|
D|---------------------------------------------------------------------------|
A|---------------------------------------------------------------------------|
E|---------------------------------------------------------------------------|

e|-------------12b\----------------------------------------------------------|
B|-/7b--10b-10---------------------------------------------------------------|
G|---------------------------------------------------------------------------|
D|---------------------------------------------------------------------------|
A|---------------------------------------------------------------------------|
E|---------------------------------------------------------------------------|



Verse

Guitar I: Strumming                                                       
e|---1-----3-----------------------------------------------------------------|
B|---3-----3----------1------------------------------------------------------|
G|---2-----0----------0------------------------------------------------------|
D|---0-----0-----3----2------------------------------------------------------|
A|---------x-----3----3------------------------------------------------------|
E|---------3-----1-----------------------------------------------------------|

Guitar II
e|-----1--------------3------------------------------------------------------|
B|--------3-3-------3-----3--3--------6-----------8----6---5-----------------|
G|---2-----2------0---------0-------5-----5---5------------------------------|
D|--0-----------------------------3---------6--------------------------------|
A|---------------------------------------------------------------------------|
E|---------------------------------------------------------------------------|

e|-----1--------------3------------------------------------------------------|
B|--------3-3-------3-----3--3--------6-----------------1--------------------|
G|---2-----2------0---------0-------5-----5---5-------0-----0--0-------------|
D|--0-----------------------------3---------6-------2---------2--------------|
A|---------------------------------------------------------------------------|
E|---------------------------------------------------------------------------|

Pre Chorus:

Guitar I: Strumming
e|-------3------------------------1--------------------------[Let Ring]------|
B|-------3-------1-----------1----3------------------------------3-----------|
G|-------0-------0-----------0----2------------------------------3-----------|
D|-------0-------2------3----2----0------------------------------3-----------|
A|-------x-------3------3----3-----------------------------------1-----------|
E|-1-1-2-3--------------1----------------------------------------------------|

Chorus

Guitar I: Srumming 
e|--1---------------3--------3--------3-------3-------1----------------------|
B|--3-------3-------3--------3--------3-------3-------3----------------------|
G|--2-------3-------0--------0--------0-------0-------2----------------------|
D|--0-------3-------0--------0--------0-------0-------0----------------------|
A|----------1-------x--------x--------x-------x------------------------------|
E|------------------3--------3--------3-------3------------------------------|

***Play Verse***
***Play Pre-Chorus***
***Play Chorus***

Guitar Solo 
e|--11h12p11--15----------------12(13)-13-13h15-12b----12-13-13b------------------|
B|----------12--12----------------------------------15-----------15p13h15-----13h15b|
G|----------------12-15-15p14-14-----------------------------------------14-15------|
D|---------------------------------------------------------------------------|
A|---------------------------------------------------------------------------|
E|---------------------------------------------------------------------------|

e|-----------13---18-17-18-17--18b--17-17-15-15b-13-15-17b-------------------|
B|-------15----15-----------18-----------------------------15-13-15-13-15----|
G|-14-15---15----------------------------------------------------------------|
D|---------------------------------------------------------------------------|
A|---------------------------------------------------------------------------|
E|---------------------------------------------------------------------------|

e|---------------------------------------------------------------------------|
B|-18-15----------------------------------------------------15---------------|
G|------17-14-12----14-12-------------------------------15----15-14h15-------|
D|---------------14-------15-12-12-----------12-/15-15----15-----------------|
A|-----------------------------------12-13-15---------17---------------------|
E|---------------------------------------------------------------------------|

e|-17b-16b-16b--15p13h15----12-13--------------------------------------------|
B|------------------------15------15--15--11-13-15---------------------------|
G|----------------------------------14---------------------------------------|
D|---------------------------------------------------------------------------|
A|---------------------------------------------------------------------------|
E|---------------------------------------------------------------------------|

e|-----------------------------------13*-------------------------------------|
B|---15\13-13\11-11-10-11-10-11-10-------------------------------------------|
G|--------------------------------10-----------------------------------------|
D|---------------------------------------------------------------------------|
A|---------------------------------------------------------------------------|
E|---------------------------------------------------------------------------|


Guitar I: Strumming
e|-----------------1---------------------------------------------------------|
B|---------1-------3------3--------------------------------------------------|
G|---------0-------2------3--------------------------------------------------|
D|--3------2-------0------3--------------------------------------------------|
A|--3------3--------------1--------------------------------------------------|
E|--1------------------------------------------------------------------------|

Bridge

Guitar I: Strumming
e|-----------------1---------------------------------------------------------|
B|---------1-------3------3--------------------------------------------------|
G|---------0-------2------3--------------------------------------------------|
D|--3------2-------0------3--------------------------------------------------|
A|--3------3--------------1--------------------------------------------------|
E|--1------------------------------------------------------------------------|

Guitar II
e|---------------------------------------------------------------------------|
B|---------------------------------------------------[Let Ring]--------------|
G|---9--10-12--10-10-10-10-10-10-10-10-10----9--10-12----10------------------|
D|---x--x--x---x--x--x--x--x--x--x--x--x-----x--x—-x-----x-------------------|
A|---7--8--10--8--8--8--8--8--8--8--8--8-----7--8--10----8-------------------|
E|---------------------------------------------------------------------------|


***Play Chorus***


Outro

Guitar III: Palm Muted 

e|---------------------------------------------------------------------------|
B|---------------------------------------------------------------------------|
G|-----------------------------------2-2-2-2-2-2-2-2--3-3-3-3-3-3-3-3--------|
D|-5-5-5-5-5-5-5-5--3-3-3-3-3-3-3-3--2-2-2-2-2-2-2-2--3-3-3-3-3-3-3-3--------|
A|-5-5-5-5-5-5-5-5--3-3-3-3-3-3-3-3--0-0-0-0-0-0-0-0--1-1-1-1-1-1-1-1--------|
E|-3-3-3-3-3-3-3-3--1-1-1-1-1-1-1-1------------------------------------------|

Guitar II
e|---------------------------------------------------------------------------|
B|--13b-13p12p10-13b--------------------12-12b--12-11-12-13-13b-15-17-17b----|
G|---------------------14---14-12-14-15--------------------------------------|
D|---------------------------------------------------------------------------|
A|---------------------------------------------------------------------------|
E|---------------------------------------------------------------------------|

First two notes are vibrato bending up and down. The 10b is a slow bend. 
e|---------------------------------------------------------------------------|
B|---------------------------------------------------------------------------|
G|---14b-----9b---9-10-10b-----------------10-9-9h10p9-7---------------------|
D|---------------------------------------------------------------------------|
A|---------------------------------------------------------------------------|
E|---------------------------------------------------------------------------|

Fast Alternate Picking
e|---------------------------------------------------------------------------|
B|-15-------------18-------------17--------------18--------------------------|
G|---------------------------------------------------------------------------|
D|---------------------------------------------------------------------------|
A|---------------------------------------------------------------------------|
E|---------------------------------------------------------------------------|

Outro Part II

Guitar 1: Strumming
e|--3----------------------PLAY A SECOND TIME THEN...|-----------------------|
B|--3-------------1------3---------------------------|-----------------------|
G|--0-------------2------3---------------------------|-------3---------------|
D|--0------3------2------3---------------------------|---0-3-----------------|
A|--x------3------0------1---------------------------|-1-------1-------------|
E|--3------1-----------------------------------------|-----------------------|

Guitar II: CRAZY SWEEPING
e|--18-13-------------13-18-13--------------13-17-12-------------12-17-------------12-|
B|--------14--------14--------14----------14--------13----------13----14---------14---|
G|----------15----15------------15------15------------14------14--------15-----15-----|
D|-----------15--15---------------15--15----------------14--14-----------15--15-------|
A|-------------16-------------------16--------------------15---------------16---------|
E|------------------------------------------------------------------------------------|

e|-15-12---------------12-15-12---------------12-13-10--------------10--|
B|-------13----------13---------13----------13--------11----------11----|
G|---------12------12-------------12------12------------10------10------|
D|-----------14--14-----------------14--14----------------12--12--------|
A|-------------15---------------------15--------------------13----------|
E|----------------------------------------------------------------------|

e|--13-10---------15-12---------------------------|--------------------------|
B|-------11------------13------DO IT AGAIN THEN...|--15--17--18--------------|
G|---------10------------12-----------------------|--------------------------|
D|-----------12------------14---------------------|--FAST ALTERNATE PICKING--|
A|-------------13------------15-------------------|--------------------------|
E|------------------------------------------------|--------------------------|

Guitar III: Open
e|---------------------------------------------------------------------------|
B|---------------------------------------------------------------------------|
G|-------------------2-2-2-2--3-3-3-3----------------------------------------|
D|-5-5-5-5--3-3-3-3--2-2-2-2--3-3-3-3----------------------------------------|
A|-5-5-5-5--3-3-3-3--0-0-0-0--1-1-1-1----------------------------------------|
E|-3-3-3-3--1-1-1-1----------------------------------------------------------|

Guitar III: Open
e|---------------------------------------------------------------------------|
B|---------------------------------------------------------------------------|
G|-------------------2-2-2-2-------3-----------3-----------------------------|
D|-5-5-5-5--3-3-3-3--2-2-2-2-----3---3----0--3-------------------------------|
A|-5-5-5-5--3-3-3-3--0-0-0-0----1-------1--------1---------------------------|
E|-3-3-3-3--1-1-1-1----------------------------------------------------------|


Guitar IIII
e|---------------------------------------------------------------------------|
B|---------------------------------------------------------------------------|
G|--15-15-15-15--14-14-14-14--12-12-12-12--10-10-10-10-----------------------|
D|--x--x--x--x---x--x--x--x---x--x--x--x---x--x--x--x------------------------|
A|--13-13-13-13--12-12-12-12--10-10-10-10--8--8--8--8------------------------|
E|---------------------------------------------------------------------------|

****************************************************************************
Side winder

Gtr I
|-----------------|----------------------------------|
|---6-----6-------|---6-----6---8-8S10---------------|
|-----7-----7-----|-----7-----7----------------------|
|-------7-----7---|-------7--------------------------|
|---------------5-|----------------------------------|
|-0---------------|-0--------------------------------|
|
| Gtr II
|-----------------|--------------------3-(3)-(3)-(3)-|
|-----------------|-----------------------3--(3)-(3)-|
|-----------------|---------------------------4--(4)-|
|-----------------|-------------------------------5--|
|-----------------|----------------------------------|
|-----------------|----------------------------------|


|-------------------|-----------------|
|--8------------8---|-8-----------8---|
|-----7-------7---7-|---7-------7---7-|
|-------5---5-------|-----5---5-------|
|---------5---------|-------5---------|
|-------------------|-----------------|
|
|-(3)---------------|-----------------|
|-(3)---------------|-----------------|
|-(4)---------------|-----------------|
|-(5)---------------|-----------------|
|--5----------------|-----------------|
|-------------------|-9---------------|


|-----------------|----------------------------------|
|---6-----6-------|---6-----6---8-8S10---------------|
|-----7-----7-----|-----7-----7----------------------|
|-------7-----7---|-------7--------------------------|
|---------------5-|----------------------------------|
|-0---------------|-0--------------------------------|
|
|-----------------|--------------------3-(3)-(3)-(3)-|
|-----------------|-----------------------3--(3)-(3)-|
|-----------------|---------------------------4--(4)-|
|-----------------|-------------------------------5--|
|-----------------|----------------------------------|
|-----------------|----------------------------------|


|-------------------|------------------|
|--8------------8---|-8-----------8----|
|-----7-------7---7-|---7-------7---7--|
|-------5---5-------|-----5---5--------|
|---------5---------|-------5----------|
|-------------------|------------------|
|
|-(3)---------------|------------------|
|-(3)---------------|------------------|
|-(4)---------------|------------------|
|-(5)---------------|------------------|
|--5----------------|------------------|
|-------------------|-9----------------|


|----------------------|-----------------------------------------|
|----6-----6-----------|-----6-------6----8--8S10----------------|
|------7-----7---------|-------7-------7-------------------------|
|--------7-------7-----|----------7------------------------------|
|--------------------5-|-----------------------------------------|
|--0-------------------|--0--------------------------------------|
|
|----------------------|---------------------------3-(3)-(3)-(3)-|
|----------------------|------------------------------3--(3)-(3)-|
|----------------------|----------------------------------4--(4)-|
|----------------------|--------------------------------------5--|
|----------------------|-----------------------------------------|
|--0-------------------|-(0)-------------(0)---------------------|
|
| Gtr V
|-10-----------(10)----|-10------12-13---------15-17-------------|
|-------------------10-|-----------------------------------------|
|----------------------|-----------------------------------------|
|----------------------|-----------------------------------------|
|----------------------|-----------------------------------------|
|----------------------|-----------------------------------------|


|-------------------|--------------------|
|--8------------8---|--8-----------8-----|
|-----7-------7---7-|----7-------7----7--|
|-------5---5-------|------5---5---------|
|---------5---------|--------5-----------|
|-------------------|--------------------|
|
|-(3)---------------|--------------------|
|-(3)---------------|--------------------|
|-(4)---------------|--------------------|
|-(5)---------------|--------------------|
|--5----------------|--------------------|
|-------------------|--9-----------3\----|
|
|-15----------------|--------------------|
|-------------------|-15-----------------|
|-------------------|--------------------|
|-------------------|--------------------|
|-------------------|--------------------|
|-------------------|--------------------|


|----------------------|-----------------------------------------|
|----6-----6-----------|-----6-------6----8--8S10----------------|
|------7-----7---------|-------7-------7-------------------------|
|--------7-------7-----|----------7------------------------------|
|--------------------5-|-----------------------------------------|
|--0-------------------|--0--------------------------------------|
|
|----------------------|---------------------------3-(3)-(3)-(3)-|
|----------------------|------------------------------3--(3)-(3)-|
|----------------------|----------------------------------4--(4)-|
|----------------------|--------------------------------------5--|
|----------------------|-----------------------------------------|
|--0-------------------|-(0)-------------(0)---------------------|
|
|----------------------|-10------12-13---------15-17-------------|
|-15-----------(15)-10-|-----------------------------------------|
|----------------------|-----------------------------------------|
|----------------------|-----------------------------------------|
|----------------------|-----------------------------------------|
|----------------------|-----------------------------------------|


|-------------------------|--------------------|
|--8--------------8-------|--8-----------------|
|-----7-------7------7----|----7--------7------|
|-------5---5-------------|------5----5--------|
|---------5---------------|--------5-------0-2-|
|-------------------------|--------------------|
|
|-(3)---------------------|--------------------|
|-(3)---------------------|--------------------|
|-(4)---------------------|----------------7S==|
|-(5)---------------------|--------------------|
|--5----------------------|--------------------|
|-------------------------|--9-----------------|
|
|-15------------/20-19-17-|-19-------20---22---|
|-------------------------|--------------------|
|-------------------------|--------------------|
|-------------------------|--------------------|
|-------------------------|--------------------|
|-------------------------|--------------------|


|---------------------------|-------------------|
|---------3------5----------|------3---5--------|
|-----0-------0-----7-----7-|----0---0---7----7-|
|----------------------5----|---------------5---|
|--3------------------------|--1----------------|
|---------------------------|-------------------|
|
|---------------------------|-------------------|
|---------------------------|-------------------|
|--9------------------------|---------------7S==|
|---------------------------|-------------------|
|---------------------------|-------------------|
|---------------------------|-------------------|
|
|-20------------------------|-------------------|
|----20-(20)-17-17----------|-------------------|
|------------------17-17-15-|-15-----------12---|
|---------------------------|-------------------|
|---------------------------|-------------------|
|---------------------------|-------------------|


|-----------------------|--------------------|
|------3-----5----------|-------3----5-------|
|----0----0-----7-----7-|----0----0----7---7-|
|------------------5----|----------------5---|
|--3--------------------|--1-----------------|
|-----------------------|--------------------|
|
|-----------------------|--------------------|
|-----------------------|--------------------|
|--9--------------------|--------------------|
|-----------------------|--------------------|
|-----------------------|--------------------|
|-----------------------|--------------------|
|
|--------------15-15-18-|-18---22---18-------|
|-13-----17-17----------|--------------------|
|-----------------------|--------------------|
|-----------------------|--------------------|
|-----------------------|--------------------|
|-----------------------|--------------------|


|---------6\----------------|--------6---------------6-------|
|----8----------------8-10\-|------8---8-----------8---8-----|
|------7-----------7--------|----7-------7---7---7-------7---|
|--5------------------------|--5-----------5---5-----------5-|
|----------------8----------|--------------------------------|
|---------------------------|--------------------------------|
|
| Gtr V
|-15-----17--18-17---15-----|-15-----------------------------|
|---------------------------|--------------------------------|
|---------------------------|--------------------------------|
|---------------------------|--------------------------------|
|---------------------------|--------------------------------|
|---------------------------|--------------------------------|


|--------6\-------------|-------6---------------6-------|
|---8-------------8-10\-|-----8---8-----------8---8-----|
|-----7---------7-------|---7-------7---7---7-------7---|
|-5---------------------|-5-----------5---5-----------5-|
|------------8----------|-------------------------------|
|-----------------------|-------------------------------|
|
|-----------------------|-------------------------------|
|-8-----10--11-10-8-10--|-8-----------------------------|
|-----------------------|-------------------------------|
|-----------------------|-------------------------------|
|-----------------------|-------------------------------|
|-----------------------|-------------------------------|


|--------------------------------------|
|------6-8-----6-8------8-10------8-10-|
|--------------------------------------|
|----5-------5--------7--------7-------|
|--6-------6--------8--------8---------|
|--------------------------------------|
|
|-11---------------10------------------|
|--------------------------------13----|
|--------------------------------------|
|--------------------------------------|
|--------------------------------------|
|--------------------------------------|


|---------------------------------------------------|
|-------10-11-(11)---------------10-11-(11)---------|
|---------------------------------------------------|
|-----8-------------------8----8------------------8-|
|-10---------------10-------10--------------10------|
|---------------------------------------------------|
|
|-------10----(10)----------------------------------|
|-11-13---------------13-11-------------10-----11---|
|---------------------------12----------------------|
|---------------------------------------------------|
|---------------------------------------------------|
|---------------------------------------------------|


                                                               H=H
|---------------------------------------|---------------------------|
|------6-8------6-8------8-10------8-10-|----------------------8----|
|---------------------------------------|---------7-(7)------7------|
|----5-------5---------7--------7-------|----9----------9-----------|
|--6-------6---------8--------8---------|-10---10---------10--------|
|---------------------------------------|---------------------------|
|
| Gtr II
|---------------------------------------|---------------------------|
|---------------------------------------|---------------------------|
|---------------------------------------|---------------------------|
|---------------------------------------|---------------------------|
|---------------------------------------|---------------------------|
|--1-----------------3------------------|--5------------------------|
|
| Gtr V
|---------------------------------------|---------------------------|
|--------------11---10------------------|---------------------------|
|-12------------------------------12----|-12------------------------|
|---------------------------------------|---------------------------|
|---------------------------------------|---------------------------|
|---------------------------------------|---------------------------|


    Q=156
    Gtr III
||--------------------|---------------------------------|
||o-------------------|---------------------------------|
||--------------------|---------------------------------|
||------7---------5---|---------------------------------|
||o-------8-(8)-----7-|-(7)---7-8-(8)-7-5---------------|
||--0-0---------0-----|-----0-------------8-------------|
|
|   Gtr IV
||--------------------|---------------------------------|
||o-------------------|---------------------------------|
||--------------------|---------------------------------|
||--0-----------------|-(0)-----------------------------|
||o-0-----------------|-(0)-----------------------------|
||--0-----------------|-(0)-----------------------------|
|
|   Gtr II
||--------------------|-------------------3-(3)-(3)-(3)-|
||o-------------------|----------------------3--(3)-(3)-|
||--------------------|--------------------------4--(4)-|
||--------------------|------------------------------5--|
||o-------------------|---------------------------------|
||--------------------|---------------------------------|


|------------|---------||
|------------|--------o||
|------------|---------||
|------------|---------||
|--5---------|-(5)----o||
|--5---------|-(5)-----||
|
|------------|---------||
|------------|--------o||
|------------|---------||
|--5---------|-(5)-----||
|--5---------|-(5)----o||
|--5---------|-(5)-----||
|
|-(3)--------|-(3)-----||
|-(3)--------|-(3)----o||
|-(4)--------|-(4)-----||
|-(5)--------|-(5)-----||
|--5---------|-(5)----o||
|------------|---------||


|-------------------|---------------------------------|
|-------------------|---------------------------------|
|-------------------|---------------------------------|
|-----7---------5---|---------------------------------|
|-------8-(8)-----7-|-(7)---7-8-(8)-7-5---------------|
|-0-0---------0-----|-----0-------------8-------------|
|
| PM---------------------------------------------------
|-------------------|---------------------------------|
|-------------------|---------------------------------|
|-------------------|---------------------------------|
|-------------------|---------------------------------|
|-0-0-0-0--0--0-0-0-|--0--0-0-0--0--0-0-0-------------|
|-0-0-0-0--0--0-0-0-|--0--0-0-0--0--0-0-0-------------|
|
|-------------------|-------------------3-(3)-(3)-(3)-|
|-------------------|----------------------3--(3)-(3)-|
|-------------------|--------------------------4--(4)-|
|-------------------|------------------------------5--|
|-------------------|---------------------------------|
|-------------------|---------------------------------|


|-------------------|--------------------|
|-------------------|--------------------|
|-------------------|--------------------|
|-------------------|--------------------|
|--5----------------|-(5)----------------|
|--5----------------|-(5)----------------|
|
|-------------------------------------|
|-------------------|--------------------|
|-------------------|--------------------|
|-------------------|--------------------|
|-------------------|--------------------|
|--5--5-5-5-5-5-5-5-|--5--5-5-5-5-5-5-5--|
|--5--5-5-5-5-5-5-5-|--5--5-5-5-5-5-5-5--|
|
|-(3)---------------|-(3)----------------|
|-(3)---------------|-(3)----------------|
|-(4)---------------|-(4)----------------|
|-(5)---------------|-(5)----------------|
|--5----------------|-(5)----------------|
|-------------------|--------------------|


|-------------------|---------------------------------|
|-------------------|---------------------------------|
|-------------------|---------------------------------|
|-----7---------5---|---------------------------------|
|-------8-(8)-----7-|-(7)---7-8-(8)-7-5---------------|
|-0-0---------0-----|-----0-------------8-------------|
|
| PM---------------------------------------------------
|-------------------|---------------------------------|
|-------------------|---------------------------------|
|-------------------|---------------------------------|
|-------------------|---------------------------------|
|-0-0-0-0--0--0-0-0-|--0--0-0-0--0--0-0-0-------------|
|-0-0-0-0--0--0-0-0-|--0--0-0-0--0--0-0-0-------------|
|
|-------------------|-------------------3-(3)-(3)-(3)-|
|-------------------|----------------------3--(3)-(3)-|
|-------------------|--------------------------4--(4)-|
|-------------------|------------------------------5--|
|-------------------|---------------------------------|
|-------------------|---------------------------------|


                          PM--|
|-------------------|--------------------|
|-------------------|--------------------|
|-------------------|--------------------|
|-------------------|-----------5-5-5-5--|
|--5----------------|-(5)-5-5-5-5-5-5-5--|
|--5----------------|-(5)-5-5-5-5-5-5-5--|
|
|-------------------------------------|
|-------------------|--------------------|
|-------------------|--------------------|
|-------------------|--------------------|
|-------------------|--------------------|
|--5--5-5-5-5-5-5-5-|--5--5-5-5-5-5-5-5--|
|--5--5-5-5-5-5-5-5-|--5--5-5-5-5-5-5-5--|
|
|-(3)---------------|-(3)----------------|
|-(3)---------------|-(3)----------------|
|-(4)---------------|-(4)----------------|
|-(5)---------------|-(5)----------------|
|--5----------------|-(5)----------------|
|-------------------|--------------------|


    Gtrs III, IV
||--------------------|---------------------|
||o-------------------|---------------------|
||--------------------|---------------------|
||------7---------5---|---------------------|
||o-------8-(8)-----7-|-(7)---7-8-(8)-7-5---|
||--0-0---------0-----|-----0-------------8-|


|-------------------|----------------------|
|-------------------|----------------------|
|-------------------|----------------------|
|-------------------|----------------------|
|-----5-7-(7)-----8-|-(8)-----7-(7)-5------|
|-5-8---------5-8---|-----5-8---------8-5--|


     PM------------|   PM|   PM  PM
|----------------|------------------||
|----------------|-----------------o||
|----------------|------------------||
|-0--------------|---1-----1---1----||
|-0--0-0-0-0-0-0-|---1-----1---1---o||
|-0--0-0-0-0-0-0-|-0-1-0-0-1-0-1-0--||


   Verse
    $
||--------------------|---------------------|
||o-------------------|---------------------|
||--------------------|---------------------|
||------7---------5---|---------------------|
||o-------8-(8)-----7-|-(7)---7-8-(8)-7-5---|
||--0-0---------0-----|-----0-------------8-|


|-------------------|----------------------|
|-------------------|----------------------|
|-------------------|----------------------|
|-------------------|----------------------|
|-----5-7-(7)-----8-|-(8)-----7-(7)-5------|
|-5-8---------5-8---|-----5-8---------8-5--|


     PM------------|   PM|   PM  PM
|----------------|------------------||
|----------------|-----------------o||
|----------------|------------------||
|-0--------------|---1-----1---1----||
|-0--0-0-0-0-0-0-|---1-----1---1---o||
|-0--0-0-0-0-0-0-|-0-1-0-0-1-0-1-0--||


   Pre-Chorus
    PM----|          PM----|                           PM----------|
||-----------------|----------------|---------------|------------------||
||o----------------|----------------|---------------|-----------------o||
||-----------------|----------------|---------------|------------------||
||----------0------|---------0------|-3-2-1---3-2-1-|------------------||
||o-0-0-0-0-0------|-0-0-0-0-0------|-3-2-1---3-2-1-|--1-1-1-1-1-1-1--o||
||--0-0-0-0-0------|-0-0-0-0-0------|-3-2-1---3-2-1-|--1-1-1-1-1-1-1---||


  Gtr III
|-------------------|-------------------|
|-------------------|-------------------|
|-------------------|-------------------|
|-7-5-----------5-7-|-7-5-----------5-7-|
|-----8-5-(5)-8-----|-----8-5-(5)-8-----|
|-------------------|-------------------|
|
| Gtr IV
|-------------------|-------------------|
|-------------------|-------------------|
|-------------------|-------------------|
|-------------------|-------------------|
|-8-7-5-------5-7-8-|-8-7-5-------5-7-8-|
|-------8-(8)-------|-------8-(8)-------|


|-------------------------|-------------------------|
|-------------------------|-------------------------|
|-------------------------|--9----------------------|
|-10-7---------------7-10-|----7---------------7-10-|
|------10--7--(7)-10------|------10--7--(7)-10------|
|-------------------------|-------------------------|
|
|-------------------------|-------------------------|
|-------------------------|-------------------------|
|-------------------------|-------------------------|
|-------------------------|-------------------------|
|-10-8--7----------7-8-10-|-10-8--7----------7-8-10-|
|---------10-(10)---------|---------10-(10)---------|


|----------|-------|
|----------|-------|
|----------|-------|
|-4--------|-/7----|
|----------|-------|
|----------|-------|
|
|----------|-------|
|----------|-------|
|----------|-------|
|----------|-------|
|-5--------|-/9----|
|----------|-------|


   Chorus
    PM----|
||--------------|------------|----------|--------|
||o-------------|------------|----------|--------|
||-----------7--|-(7)--------|----------|--------|
||-----------7--|-(7)--------|-5--------|-(5)----|
||o-0-0-0-0--5--|-(5)--------|-5--------|-(5)----|
||--0-0-0-0-----|------------|-5--------|-(5)----|


|-------------|------------|----------|----------------||
|-------------|------------|----------|---------------o||
|----------5--|-(5)--------|----------|-2----/6-6-6----||
|-5-5-5-5--5--|-(5)--------|-3--------|-2--------------||
|-3-3-3-3--3--|-(3)--------|-3--------|-0----/4-4-4---o||
|-------------|------------|-3--------|----------------||


  Gtr I
|---1---1-1--x-x-|--0--x-x--1--x-x-|-1---1-x--1--|-(1)-1-x--1--1-1-|
|---3---3-3--x-x-|--1--x-x--1--x-x-|-3---3-x--3--|-(3)-3-x--3--3-3-|
|---2---2-2--x-x-|--0--x-x--2--x-x-|-3---3-x--3--|-(3)-3-x--3--3-3-|
|---0---0-0--x-x-|--2--x-x--3--x-x-|-3---3-x--3--|-(3)-3-x--3--3-3-|
|----------------|--3--x-x--3--x-x-|-1---1-x--1--|-(1)-1-x--1--1-1-|
|----------------|-----------------|-------------|-----------------|
|
| Gtr II
|-/10------------|-12-------8------|-6S==========|=13--------------|
|----------------|-----------------|-------------|-----------------|
|-/10------------|--9------10------|-7S==========|=15--------------|
|----------------|-----------------|-------------|-----------------|
|----------------|-----------------|-------------|-----------------|
|----------------|-----------------|-------------|-----------------|


|--3---3-3--x--|--1---1-1--x--|-0---x-0--1--|-(1)----|
|--3---3-3--x--|--1---1-1--x--|-1---x-1--3--|-(3)----|
|--3---3-3--x--|--2---2-2--x--|-0---x-0--3--|-(3)----|
|--5---5-5--x--|--3---3-3--x--|-2---x-2--3--|-(3)----|
|--5---5-5--x--|--3---3-3--x--|-3---x-3--1--|-(1)----|
|--5---5-5--x--|--------------|-------------|--------|
|
|-10-----------|-13-----------|-8S=======6--|-(6)----|
|--------------|--------------|-------------|--------|
|--7-----------|-14-----------|-9S=======7--|-(7)----|
|--------------|--------------|-------------|--------|
|--------------|--------------|-------------|--------|
|--------------|--------------|-------------|--------|


 Breakdown
  Gtrs III, IV
|----------|------------|----------|--------|
|----------|------------|----------|--------|
|----------|------------|----------|--------|
|-0--------|-(0)--------|-5--------|-(5)----|
|-0--------|-(0)--------|-5--------|-(5)----|
|-0--------|-(0)--------|-5--------|-(5)----|


           D.S.
|----------|-------|
|----------|-------|
|-3--------|-5-----|
|-3--------|-5-----|
|-1--------|-3-----|
|----------|-------|


|----------|-----------|-------------------|-------------------|
|----------|-----------|-------------------|-------------------|
|-8--------|-10--------|-12--12---12-12-12-|-12--12---12-12-12-|
|-8--------|-10--------|-12--12---12-12-12-|-12--12---12-12-12-|
|-6--------|--8--------|-10--10---10-10-10-|-10--10---10-10-10-|
|----------|-----------|-------------------|-------------------|


|-------------------|-------------------|
|-------------------|-------------------|
|-12--12---12-12-12-|-12--12---12-12-12-|
|-12--12---12-12-12-|-12--12---12-12-12-|
|-10--10---10-10-10-|-10--10---10-10-10-|
|-------------------|-------------------|


  Gtr III
|---------------|--------------8s10-|-7-----(7)---7-7--8-|-10-------------|
|-8----------8--|-10------10---8s10-|-8-----(8)-8-8-8-10-|-12-------------|
|-8--8-------8--|-10--10--10--------|-----------7--------|----------------|
|----8---8------|-----10------------|--------------------|----------------|
|-------10------|-------------------|--------------------|----------------|
|---------------|-------------------|--------------------|----------------|
|
| Gtr IV
|---------------|-------------------|--------------------|----------------|
|---------------|-------------------|--------------------|----------------|
|---------------|-------------------|--------------------|----------------|
|-1--1---1-1-1--|--3---3---3-3-3----|-5--5---5--5-5------|--5--5--5-5-5---|
|-1--1---1-1-1--|--3---3---3-3-3----|-5--5---5--5-5------|--5--5--5-5-5---|
|-1--1---1-1-1--|--3---3---3-3-3----|-5--5---5--5-5------|--5--5--5-5-5---|


|-15-----------15--|-13------15---17--|
|-----16-----------|-----15-----------|
|-15--15--15---15--|-17------17---17--|
|---------17-------|-----17-----------|
|------------------|------------------|
|------------------|------------------|
|
|------------------|------------------|
|------------------|------------------|
|------------------|------------------|
|--1---1---1-1--1--|--3---3---3-3--3--|
|--1---1---1-1--1--|--3---3---3-3--3--|
|--1---1---1-1--1--|--3---3---3-3--3--|


|-19-----(19)----19-19-20-|-22-------------|
|-------------20-20-20-22-|-24-------------|
|-19-----(19)-19----------|----------------|
|-------------------------|----------------|
|-------------------------|----------------|
|-------------------------|----------------|
|
|-------------------------|----------------|
|-------------------------|----------------|
|-------------------------|----------------|
|--5--5----5---5--5-------|--5--5--5-5-5---|
|--5--5----5---5--5-------|--5--5--5-5-5---|
|--5--5----5---5--5-------|--5--5--5-5-5---|


 Guitar Solo
  Gtr III
  >
|-------------------|---------------------|
|-------------------|---------------------|
|-------------------|---------------------|
|-2-----------------|-(2)-----------------|
|-2-----------------|-(2)-----------------|
|-2-----------------|-(2)-----------------|
|
| Gtr I
|-------0-(0)-------|---------0-(0)-------|
|-----0-------0-----|-------0-------0-----|
|---4-----------4---|-----4-----------4---|
|-2---------------2-|--3----------------3-|
|-------------------|---------------------|
|-------------------|---------------------|
|
| Gtr II
|-------------------|---------------------|
|-------------------|---------------------|
|-------------------|---------4--5----5---|
|-------------------|---------------------|
|-------------------|---------------------|
|-------------------|---------------------|


|---------------------|----------------------------|
|---------------------|---------------------12-12--|
|---------------------|----------------------------|
|-(2)-----------------|-(2)-------------(2)--------|
|-(2)-----------------|-(2)-------------(2)--------|
|-(2)-----------------|-(2)-------------(2)--------|
|
|---------0-(0)-------|---------0-(0)--------------|
|-------0-------0-----|-------0-------0------------|
|-----4-----------4---|-----4------------4---------|
|--2----------------2-|--3-------------------3-----|
|---------------------|----------------------------|
|---------------------|----------------------------|
|
|---------------------|----------------------------|
|---------------------|----------------------------|
|--4------------------|-(4)-----4--5-----5---------|
|---------------------|----------------------------|
|---------------------|----------------------------|
|---------------------|----------------------------|


             ~~~~~~~~~~~~~~~~~~~~~~~
|--------12-12--------|-(12)---(12)---14----15---|
|-12------------------|--------------------------|
|---------------------|--------------------------|
|---------------------|--------------------------|
|---------------------|--------------------------|
|---------------------|--------------------------|
|
|---------0-(0)-------|-------------0-(0)--------|
|------0--------0-----|----------0--------0------|
|----4------------4---|------4---------------4---|
|--2----------------2-|---3--------------------3-|
|---------------------|--------------------------|
|---------------------|--------------------------|
|
|---------------------|--------------------------|
|---------------------|--------------------------|
|--4------------------|--(4)--------4--5-----5---|
|---------------------|--------------------------|
|---------------------|--------------------------|
|---------------------|--------------------------|


   ~~                       ~~~~~~~~~~~~~~
|-14-------------(14)----|------------------19-19-19--|
|---------------------12-|-13--------(13)-------------|
|------------------------|----------------------------|
|------------------------|----------------------------|
|------------------------|----------------------------|
|------------------------|----------------------------|
|
|--------0-(0)-----------|---------0--(0)-------------|
|------0-------0---------|-------0--------0-----------|
|----4-------------4-----|-----4-------------4--------|
|--2-------------------2-|--3-------------------3-----|
|------------------------|----------------------------|
|------------------------|----------------------------|
|
|------------------------|----------------------------|
|------------------------|----------------------------|
|--4---------------------|-(4)-----4---5-----5--------|
|------------------------|----------------------------|
|------------------------|----------------------------|
|------------------------|----------------------------|


|-19-------(19)-19-(19)-19-19-19-|-19---------------------|
|--------------------------------|-------17---19----19s20-|
|--------------------------------|------------------------|
|--------------------------------|------------------------|
|--------------------------------|------------------------|
|--------------------------------|------------------------|
|
|--------0--(0)------------------|----------0-(0)---------|
|------0---------0---------------|--------0-------0-------|
|----4---------------4-----------|-----4-------------4----|
|--2------------------------2----|--3-------------------3-|
|--------------------------------|------------------------|
|--------------------------------|------------------------|
|
|--------------------------------|------------------------|
|--------------------------------|------------------------|
|--4-----------------------------|-(4)------4--5-----5----|
|--------------------------------|------------------------|
|--------------------------------|------------------------|
|--------------------------------|------------------------|


                                      ~~~~~~~~~~
|------------------------------|-15s=17-----17--------|
|-19-------(19)-----17-17---19-|----------------------|
|---------------/16------------|----------------------|
|------------------------------|----------------------|
|------------------------------|----------------------|
|------------------------------|----------------------|
|
|--------0--(0)----------------|----------0-(0)-------|
|------0----------0------------|--------0-------0-----|
|----4---------------4---------|------4-----------4---|
|--2----------------------2----|--3-----------------3-|
|------------------------------|----------------------|
|------------------------------|----------------------|
|
|------------------------------|----------------------|
|------------------------------|----------------------|
|--4---------------------------|-(4)------4--5----5---|
|------------------------------|----------------------|
|------------------------------|----------------------|
|------------------------------|----------------------|

****************************************************************************
the wicked end

  PM  PM  PM                PM|             PM|   PM        ~~
||----------------------------------------------------------------|
||o---------------------------------------------------------------|
||----------------------------------------------------------------|
||----------------------------------3---3/7\3-0-----2---5-3-2-0---|
||o-----6---5---5h6p5h6p5h6p5h6---5---5-----------4---4---------4-|
||--5-8---8---8-----------------3---------------2-----------------|


  PM|        PM
|----------------------||
|---------------------o||
|----------------------||
|--------3-2-----------||
|-----3--------5-3----o||x2
|-0-2--------3---------||



Verse
|------------------------------------------------------------|
|------------------------------------------------------------|
|------------------------------------------------------------|
|-0-0--2--3--8---8-8-8-8-8-8-8-5-5--3--2-2--2-2-2-2-2-2-2----|
|-0-0--2--3--8---8-8-8-8-8-8-8-5-5--3--3-3--3-3-3-3-3-3-3----|
|-0-0--2--3--8---8-8-8-8-8-8-8-5-5--3--2-2--2-2-2-2-2-2-2----|


|------------------------------------------------------------|
|------------------------------------------------------------|
|------------------------------------------------------------|
|-0-0--2--3-3---3-3-3-3-3-3-3-5--5-3--2-2---2-2-2-2-2-2-2----|
|-0-0--2--3-3---3-3-3-3-3-3-3-5--5-3--3-3---3-3-3-3-3-3-3----|
|-0-0--2--3-3---3-3-3-3-3-3-3-5--5-3--2-2---2-2-2-2-2-2-2----|

****************************************************************************
strength of the world

Gtr I
||----------10-------|---------5---|--------------|-------0------||
||o---10-------10----|---6---8---6-|---8---10-8---|-3-1-----2---o||
||-------10-------10-|-----7-------|-----9------9-|-----2-----0--||
||-------------------|-------------|--------------|--------------||
||o-8----------------|-5-----------|-7------------|-------------o||
||-------------------|-------------|--------------|--------------||
|
|   Gtr II
||-----------5-------|-------0-1---|---0------0---|--------------||
||o----6--------6----|---3-------3-|--------6-----|-------2-----o||
||--------7--------7s|=3---3-------|-----5------5-|-3-2-----3----||
||-------------------|-------------|--------------|-----3-----2--||
||o-5----------------|-1-----------|-3------------|-------------o||
||-------------------|-------------|--------------|--------------||


   Verse
    (Dm)               (Bb)          (C)            (F)   (E)
||----------10-------|---------5---|--------------|-------0-------||
||o---10-------10----|---6---8---6-|---8---10-8---|-3-1-----2----o||
||-------10-------10-|-----7-------|-----9------9-|-----2-----0---||
||-------------------|-------------|--------------|---------------||
||o-8----------------|-5-----------|-7------------|--------------o||
||-------------------|-------------|--------------|---------------||
|
||-----------5-------|-------0-1---|---0------0---|---------------||
||o----6--------6----|---3-------3-|--------6-----|-------2------o||
||--------7--------7s|=3---3-------|-----5------5-|-3-2-----3-----||
||-------------------|-------------|--------------|-----3-----2---||
||o-5----------------|-1-----------|-3------------|--------------o||
||-------------------|-------------|--------------|---------------||


  (Dm)               (Bb)          (C)            (F)   (E)
|---------10-------|---------5---|--------------|-------0-----|
|---10-------10----|---6---8---6-|---8---10-8---|-3-1-----2---|
|------10-------10-|-----7-------|-----9------9-|-----2-----0-|
|------------------|-------------|--------------|-------------|
|-8----------------|-5-----------|-7------------|-------------|
|------------------|-------------|--------------|-------------|
|
|----------5-------|-------0-1---|---0------0---|-------------|
|----6--------6----|---3-------3-|--------6-----|-------2-----|
|-------7--------7s|=3---3-------|-----5------5-|-3-2-----3---|
|------------------|-------------|--------------|-----3-----2-|
|-5----------------|-1-----------|-3------------|-------------|
|------------------|-------------|--------------|-------------|


  (Dm)
  Gtr I
|--------------------------------10----------|
|----------10------------------------10------|
|---------------------10------------------10-|
|--------------------------------------------|
|-8------------------------------------------|
|--------------------------------------------|
|
| Gtr II
|---------------------------------5----------|
|-----------6-------------------------6------|
|----------------------7-------------------7s|
|--------------------------------------------|
|-5------------------------------------------|
|--------------------------------------------|
|
| Gtr III
|--------------------------------------------|
|--------------------------------------------|
|-9-(9)b10-(9)-(9)b10-(9)-(9)b10-(9)----7----|
|--------------------------------------------|
|--------------------------------------------|
|--------------------------------------------|


  (Bb)                                                (C)
|--------------------------------------------5------|----------------|
|--------------6-------------------------8-----6----|---8---10-8-----|
|---------------------------7-----------------------|-----9-------9--|
|---------------------------------------------------|----------------|
|--5------------------------------------------------|-7--------------|
|---------------------------------------------------|----------------|
|
|----------------------------------------0---1------|---0------0-----|
|--------------3-------------------------------3----|--------6-------|
|--3------------------------3-----------------------|-----5-------5--|
|---------------------------------------------------|----------------|
|--1------------------------------------------------|-3--------------|
|---------------------------------------------------|----------------|
|
|                                                     ~
|---------------------------------------------------|----------------|
|-10-(10)b11-(10)-(10)b11-(10)-(10)b11-(10)---------|----------------|
|-------------------------------------------10-9h10-|-9------7-9-10--|
|---------------------------------------------------|----------------|
|---------------------------------------------------|----------------|
|---------------------------------------------------|----------------|


  (F)           (E)     (Dm)
|-------------0-------|--------------------||
|---3-1----------2----|--------------------||
|----------2--------0-|-------<7>-(<7>)----||
|---------------------|-------<7>-(<7>)----||
|---------------------|--5-----------------||
|---------------------|--------------------||
|
|---------------------|--------5---(5)-----||
|-------------2-------|--------6---(6)-----||
|---3-2----------3----|--------------------||
|----------3--------2-|--------------------||
|---------------------|--5-----------------||
|---------------------|--------------------||
|
|---------------------|--------------------||
|-/11---10---10-11-14-|-14b15-----(14)-----||
|---------------------|--------------------||
|---------------------|--------------------||
|---------------------|--------------------||
|---------------------|--------------------||


   Pre-Verse
    Faster Q=162
    D5     N.C.   Bb5                 N.C.   C5
   4/4
    Gtr III
||-----------------------|----------------------|
||o----------------------|----------------------|
||--7---7---9-10---3-----|--(3)----3---5--7---5-|
||--7---7---x--x---3-----|--(3)----3---x--x---5-|
||o-5---5---7--8---1-----|--(1)----1---3--5---3-|
||-----------------------|----------------------|
|
|   Gtr IV
||-----------------------|----------------------|
||o-----------10--10b11==|=(10)r------10-11-----|
||-----10--12------------|--------10---------12-|
||-----------------------|----------------------|
||o----------------------|----------------------|
||-----------------------|----------------------|
|
|   Gtr V
|                            ~~~~~
||-----------------------|----------------------|
||o---------5--6---6-----|--(6)--------6--8---5-|
||------7----------------|---------7------------|
||-----------------------|----------------------|
||o----------------------|----------------------|
||-----------------------|----------------------|


                                                  Db5  D5
       PM|   PM------|   PM-----------|   PM|
|----------------------------|----------------------------|
|----------------------------|----------------------------|
|--(5)-----5-----------5-----|----------5-------5--6----7-|
|--(5)-5-5-5-5-5-5-5-5-5-5-5-|---5--5-5-5-5-5---5--6----7-|
|--(3)-3-3-3-3-3-3-3-3-3-3-3-|---3--3-3-3-3-3---3--4----5-|
|----------------------------|----------------------------|
|
|   ~~~~~~~~~~~~~~~~~~~~~~~~~~~~~~~~
|----------------------------|----------------------------|
|----------------------------|----------------/10---------|
|-(12)-----------------------|-(12)---------------12-9-10-|
|----------------------------|----------------------------|
|----------------------------|----------------------------|
|----------------------------|----------------------------|
|
|   ~~~~~~~~~~~~~~~~~~~~~~~~~~~~~~~~
|----------------------------|----------------------------|
|--(5)-----------------------|--(5)------------/6--5------|
|----------------------------|-----------------------5--7-|
|----------------------------|----------------------------|
|----------------------------|----------------------------|
|----------------------------|----------------------------|


  D5        N.C.   Bb5                 N.C.   Bb5
                                               PM
|-------------------------|----------------------|
|-------------------------|----------------------|
|--(7)---7---9-10---3-----|--(3)----3---5--7-----|
|--(7)---7---x--x---3-----|--(3)----3---x--x---3-|
|--(5)---5---7--8---1-----|--(1)----1---3--5---1-|
|-------------------------|----------------------|
|
|   ~~~~
|-------------------------|----------------------|
|--------------10--10b11==|=(10)r------10-11-----|
|-(10)--10--12------------|--------10---------12-|
|-------------------------|----------------------|
|-------------------------|----------------------|
|-------------------------|----------------------|
|
|   ~~~~                      ~~~~~
|-------------------------|----------------------|
|------------5--6---6-----|--(6)--------6--8-----|
|--(7)---7----------------|---------7----------7-|
|-------------------------|----------------------|
|-------------------------|----------------------|
|-------------------------|----------------------|


  C5    F5            Bb5
         PM         PM             PM----------------------|
|-------------------------|-----------------------------------||
|-------------------------|----------------------------------o||
|--5-------------------3--|--(3)------------------------------||
|--5--------3--(3)-----3--|--(3)---3--3--3--3---3-------3--3--||
|--3-----3--3--(3)--3--1--|--(1)---1--1--1--1---1-------1--1-o||
|--------3--3--(3)--3-----|-----------------------------------||
|
|                                                       ~~~~
|-------------------------|-------------10-13-(13)b15-(13)----||
|-10---------------10-----|----------11----------------------o||
|----12-10-12-(12)----10--|-(10)\-10--------------------------||
|-------------------------|-----------------------------------||
|-------------------------|----------------------------------o||
|-------------------------|-----------------------------------||
|
|                                                       ~~~~
|-------------------------|--------------6-10-(10)b12-(10)----||
|--6--5-----5--(5)--6-----|-----------6----------------------o||
|--------7-------------7--|--(7)\--7--------------------------||
|-------------------------|-----------------------------------||
|-------------------------|----------------------------------o||
|-------------------------|-----------------------------------||


   Verse
    D5                      N.C.
    Gtrs IV, V
||------------|-----------|-----------|--------------------|
||o-----------|-----------|-----------|--------------------|
||------------|-----------|-----------|--------------------|
||--0-0-------|-------0-0-|--------/8-|-(8)-7-5-0---0-3-5--|
||o-0-0-------|-------0-0-|-----------|-----------1--------|
||--0-0-------|-------0-0-|-----------|--------------------|


  N.C.                C5  N.C.
|---------|---------|-------------|----------------------||
|---------|---------|-------------|---------------------o||
|---------|---------|-5-5---------|---------5-(5)--------||
|---------|---------|-5-5------/3-|-(3)-2-3-------3-2-3--||
|---------|---------|-3-3---------|---------------------o||
|---------|---------|-------------|----------------------||


   Pre-Chorus
    $
    N.C.             D5
                     PM------------------|
||-----------------------|-----------------|
||o----------------------|-----------------|
||-----------------------|-----------------|
||-----------------------|-----------------|
||o------------------0-0-|-0-0-0-0-0-0-0-0-|
||--6-5-0-3b3.5-(3)--0-0-|-0-0-0-0-0-0-0-0-|


  N.C.             D5
                   PM------------------|
|----------------------|------------------|
|----------------------|------------------|
|----------------------|------------------|
|----------------------|------------------|
|------------------0-0-|-0-0-0-0-0-0-0-0--|
|-6-5-0-3b3.5-(3)--0-0-|-0-0-0-0-0-0-0-0--|


  Bb5              F5
  Gtrs IV, V
|--------------------|---------------------------|
|------------------6-|-(6)---8-10-(10)-13-(13)---|
|-3--5-7-(7)-9-(9)-x-|-------x--x-------x--------|
|-x--x-x-----x-----3-|-(3)---5--7--(7)-10-(10)---|
|-1--3-5-(5)-7-(7)---|---------------------------|
|--------------------|---------------------------|
|
| Gtr III
|--------------------|---------------------------|
|--------------------|---------------------------|
|-3--3----3--3--3----|---------------------------|
|-3--3----3--3--3--3-|-(3)-3-3------3---3---3--3-|
|-1--1----1--1--1--3-|-(3)-3-3------3---3---3--3-|
|------------------3-|-(3)-3-3------3---3---3--3-|


  A5                    Bb5
|-8--10-12-(12)-15-(15)-13-|-(13)------10--------||
|-x---x--x-------x-------x-|------------x-------o||
|-5---7--9--(9)-12-(12)-10-|-(10)-------7--------||
|--------------------------|---------------------||
|--------------------------|--------------------o||
|--------------------------|---------------------||
|
|--------------------------|---------------------||
|--------------------------|--------------------o||
|-2---2------2---2---2---3-|--(3)-3-3---3-3-3-3--||
|-2---2------2---2---2---3-|--(3)-3-3---3-3-3-3--||
|-0---0------0---0---0---1-|--(1)-1-1---1-1-1-1-o||
|--------------------------|---------------------||


 Chorus
  D5            Bb5                     C5            F5
  Gtrs III, IV
|-----------------|-------------------|-----------------|-------------------|
|-----------------|-------------------|-----------------|-------------------|
|-7---7---7-7-7-3-|-(3)-3-3---3-3-3-3-|-5---5---5-5-5---|-------------------|
|-7---7---7-7-7-3-|-(3)-3-3---3-3-3-3-|-5---5---5-5-5-3-|-(3)-3-3---3-3-3-3-|
|-5---5---5-5-5-1-|-(1)-1-1---1-1-1-1-|-3---3---3-3-3-3-|-(3)-3-3---3-3-3-3-|
|-----------------|-------------------|---------------3-|-(3)-3-3---3-3-3-3-|
|
| Gtr V
|-----------------|-------------------|-----------------|-------------------|
|-----------------|-------------------|-----------------|-------------------|
|-----7-------7---|-------3-------3---|-----5-------5---|-------------------|
|---7---7---7-----|-----3---3---3---3-|---5---5---5-----|-------7-------7---|
|-5-------5-----1-|-(1)-------1-------|-3-------3-------|-----3---3---3---3-|
|-----------------|-------------------|---------------3-|-(3)-------3-------|


  G5            A5           Bb5
|-----------------|-----------------------|
|-----------------|-----------------------|
|---------------2-|-(2)-2--2-3-(3)-3--3-3-|
|-5---5---5-5-5-2-|-(2)-2--2-3-(3)-3--3-3-|
|-5---5---5-5-5-0-|-(0)-0--0-1-(1)-1--1-1-|
|-5---5---5-5-5---|-----------------------|
|
|-----------------|-----------------------|
|-----------------|-----------------------|
|-----------------|-----------------------|
|-----8-------8---|-------10---------12---|
|---5---5---5-----|-----8----------8------|
|-5-------5-----7-|-(7)------8-(8)--------|


  C5
|-------------------------|--------------------------------|
|-------------------------|--------------------------------|
|--5--5--5--5--5--5--5--5-|-(5)--5--5--5--5---5-------5--5-|
|--5--5--5--5--5--5--5--5-|-(5)--5--5--5--5---5-------5--5-|
|--3--3--3--3--3--3--3--3-|-(3)--3--3--3--3---3-------3--3-|
|-------------------------|--------------------------------|
|
|-------------------------|--------------------------------|
|-------------------------|--------------------------------|
|-------------------------|--------------------------------|
|-------14----------14----|--------14----14-(14)b15-(14)---|
|----10----10----10----10-|-----10----10-------------------|
|-10----------10----------|-10-----------------------------|


  D5                   Bb5
|------------------------|---------------------|
|------------------------|---------------------|
|--7-----7-----7--7--7-3-|-(3)-3--3---3-3--3-3-|
|--7-----7-----7--7--7-3-|-(3)-3--3---3-3--3-3-|
|--5-----5-----5--5--5-1-|-(1)-1--1---1-1--1-1-|
|------------------------|---------------------|
|
|------------------------|---------------------|
|------------------------|---------------------|
|------------------------|---------------------|
|-------15----------15---|-------12-------12---|
|----12----12----12------|-----8----8---8----8-|
|-12----------12-------8-|-(8)--------8--------|


  C5                   F5
|------------------------|-------------------|
|------------------------|-------------------|
|--5-----5-----5--5--5---|-------------------|
|--5-----5-----5--5--5-3-|-(3)-3-3---3-3-3-3-|
|--3-----3-----3--3--3-3-|-(3)-3-3---3-3-3-3-|
|----------------------3-|-(3)-3-3---3-3-3-3-|
|
|------------------------|-------------------|
|------------------------|-------------------|
|------------------------|-------------------|
|-------14----------14---|-------7-------7---|
|----10----10----10------|-----3---3---3---3-|
|-10----------10-------3-|-(3)-------3-------|


  G5            A5           Bb5
|-----------------|-----------------------|
|-----------------|-----------------------|
|---------------2-|-(2)-2--2-3-(3)-3--3-3-|
|-5---5---5-5-5-2-|-(2)-2--2-3-(3)-3--3-3-|
|-5---5---5-5-5-0-|-(0)-0--0-1-(1)-1--1-1-|
|-5---5---5-5-5---|-----------------------|
|
|-----------------|-----------------------|
|-----------------|-----------------------|
|-----------------|-----------------------|
|-----8-------8---|-------10---------12---|
|---5---5---5-----|-----8----------8------|
|-5-------5-----7-|-(7)------8-(8)--------|


                                                  To Coda
  C5
|-------------------------|--------------------------------||
|-------------------------|--------------------------------||
|--5--5--5--5--5--5--5--5-|-(5)--5--5--5--5---5-------5--5-||
|--5--5--5--5--5--5--5--5-|-(5)--5--5--5--5---5-------5--5-||
|--3--3--3--3--3--3--3--3-|-(3)--3--3--3--3---3-------3--3-||
|-------------------------|--------------------------------||
|
|-------------------------|--------------------------------||
|-------------------------|--------------------------------||
|-------------------------|--------------------------------||
|-------14----------14----|--------14----14-(14)b15-(14)---||
|----10----10----10----10-|-----10----10-------------------||
|-10----------10----------|-10-----------------------------||


   Bridge
    D5     N.C.   Bb5                 N.C.   C5
    Gtr III
||-----------------------|----------------------|
||o----------------------|----------------------|
||--7---7---9-10---3-----|--(3)----3---5--7---5-|
||--7---7---x--x---3-----|--(3)----3---x--x---5-|
||o-5---5---7--8---1-----|--(1)----1---3--5---3-|
||-----------------------|----------------------|
|
|   Gtr IV
||-----------------------|----------------------|
||o-----------10--10b11==|=(10)r------10-11-----|
||-----10--12------------|--------10---------12-|
||-----------------------|----------------------|
||o----------------------|----------------------|
||-----------------------|----------------------|
|
|   Gtr V
|                            ~~~~~
||-----------------------|----------------------|
||o---------5--6---6-----|--(6)--------6--8---5-|
||------7----------------|---------7------------|
||-----------------------|----------------------|
||o----------------------|----------------------|
||-----------------------|----------------------|


                                                  Db5  D5
       PM|   PM------|   PM-----------|   PM|
|----------------------------|------------------------------|
|----------------------------|------------------------------|
|--(5)-----5-----------5-----|----------5-------5--6----7---|
|--(5)-5-5-5-5-5-5-5-5-5-5-5-|---5--5-5-5-5-5---5--6----7---|
|--(3)-3-3-3-3-3-3-3-3-3-3-3-|---3--3-3-3-3-3---3--4----5---|
|----------------------------|------------------------------|
|
|   ~~~~~~~~~~~~~~~~~~~~~~~~~~~~~~~~
|----------------------------|------------------------------|
|----------------------------|----------------/10-----------|
|-(12)-----------------------|-(12)---------------12-9-10---|
|----------------------------|------------------------------|
|----------------------------|------------------------------|
|----------------------------|------------------------------|
|
|   ~~~~~~~~~~~~~~~~~~~~~~~~~~~~~~~~
|----------------------------|------------------------------|
|--(5)-----------------------|--(5)------------/6--5--------|
|----------------------------|-----------------------5--7---|
|----------------------------|------------------------------|
|----------------------------|------------------------------|
|----------------------------|------------------------------|


  D5        N.C.   Bb5                 N.C.   Bb5
                                               PM
|-------------------------|----------------------|
|-------------------------|----------------------|
|--(7)---7---9-10---3-----|--(3)----3---5--7-----|
|--(7)---7---x--x---3-----|--(3)----3---x--x---3-|
|--(5)---5---7--8---1-----|--(1)----1---3--5---1-|
|-------------------------|----------------------|
|
|   ~~~~
|-------------------------|----------------------|
|--------------10--10b11==|=(10)r------10-11-----|
|-(10)--10--12------------|--------10---------12-|
|-------------------------|----------------------|
|-------------------------|----------------------|
|-------------------------|----------------------|
|
|   ~~~~                      ~~~~~
|-------------------------|----------------------|
|------------5--6---6-----|--(6)--------6--8-----|
|--(7)---7----------------|---------7----------7-|
|-------------------------|----------------------|
|-------------------------|----------------------|
|-------------------------|----------------------|


                                               D.S. al Coda
  C5    F5            Bb5
         PM         PM             PM----------------------|
|-------------------------|-----------------------------------||
|-------------------------|----------------------------------o||
|--5-------------------3--|--(3)------------------------------||
|--5--------3--(3)-----3--|--(3)---3--3--3--3---3-------3--3--||
|--3-----3--3--(3)--3--1--|--(1)---1--1--1--1---1-------1--1-o||
|--------3--3--(3)--3-----|-----------------------------------||
|
|                                                       ~~~~
|-------------------------|-------------10-13-(13)b15-(13)----||
|-10---------------10-----|----------11----------------------o||
|----12-10-12-(12)----10--|-(10)\-10--------------------------||
|-------------------------|-----------------------------------||
|-------------------------|----------------------------------o||
|-------------------------|-----------------------------------||
|
|                                                       ~~~~
|-------------------------|--------------6-10-(10)b12-(10)----||
|--6--5-----5--(5)--6-----|-----------6----------------------o||
|--------7-------------7--|--(7)\--7--------------------------||
|-------------------------|-----------------------------------||
|-------------------------|----------------------------------o||
|-------------------------|-----------------------------------||


 Breakdown
  Half-Time Q=81
  &
  D5
 6/8
|----------------------------------------------|
|----------------------------------------------|
|----------------------------------------------|
|--0-------------------------------------------|
|--0-------------------------------------------|
|--0-------------------------------------------|
|
|----------------------------------------------|
|----------------------------------------------|
|-12-(12)b14-(12)-(12)b14-(12)-(12)b14-(12)-10-|
|----------------------------------------------|
|----------------------------------------------|
|----------------------------------------------|
|
|----------------------------------------------|
|----------------------------------------------|
|--9--(9)b10--(9)--(9)b10--(9)--(9)b10--(9)--7-|
|----------------------------------------------|
|----------------------------------------------|
|----------------------------------------------|


  Bb5                                                  C5               F5       A5
|----------------------------------------------------|----------------|-------------------|
|----------------------------------------------------|----------------|-------------------|
|--3-----------------------------------------3--3----|--5-----5-------|-----------2--2--2-|
|--3-----------------------------------------3--3----|--5-----5-------|--3--------2--2--2-|
|--1-----------------------------------------1--1----|--3-----3-------|--3--------0--0--0-|
|----------------------------------------------------|----------------|--3----------------|
|
|----------------------------------------------------|----------------|-----------------9-|
|-13-(13)b15-(13)-(13)b15-(13)-(13)b15-(13)----------|----------10-11-|-13b15-13-11-10----|
|-------------------------------------------14-12h14-|-12---/12-------|-------------------|
|----------------------------------------------------|----------------|-------------------|
|----------------------------------------------------|----------------|-------------------|
|----------------------------------------------------|----------------|-------------------|
|
|----------------------------------------------------|----------------|-------------------|
|-10-(10)b11-(10)-(10)b11-(10)-(10)b11-(10)----------|----------------|-10b11-10-------10-|
|--------------------------------------------7--9h10-|--9----/9-10-12-|----------12-10----|
|----------------------------------------------------|----------------|-------------------|
|----------------------------------------------------|----------------|-------------------|
|----------------------------------------------------|----------------|-------------------|


  D5
|----------------------------------------------|
|----------------------------------------------|
|----------------------------------------------|
|--0-------------------------------------------|
|--0-------------------------------------------|
|--0-------------------------------------------|
|
|----------------------------------------------|
|----------------------------------------------|
|-12-(12)b14-(12)-(12)b14-(12)-(12)b14-(12)-10-|
|----------------------------------------------|
|----------------------------------------------|
|----------------------------------------------|
|
|----------------------------------------------|
|----------------------------------------------|
|--9--(9)b10--(9)--(9)b10--(9)--(9)b10--(9)--7-|
|----------------------------------------------|
|----------------------------------------------|
|----------------------------------------------|


  Bb5                                                  C5               F5       A5
|----------------------------------------------------|----------------|--------------------||
|----------------------------------------------------|----------------|--------------------||
|--3-----------------------------------------3--3----|--5-----5-------|-----------2--2--2--||
|--3-----------------------------------------3--3----|--5-----5-------|--3--------2--2--2--||
|--1-----------------------------------------1--1----|--3-----3-------|--3--------0--0--0--||
|----------------------------------------------------|----------------|--3-----------------||
|
|----------------------------------------------------|----------------|-----------9-10-12--||
|-13-(13)b15-(13)-(13)b15-(13)-(13)b15-(13)----------|----------10-11-|-13b15-13-----------||
|-------------------------------------------14-12h14-|-12---/12-------|--------------------||
|----------------------------------------------------|----------------|--------------------||
|----------------------------------------------------|----------------|--------------------||
|----------------------------------------------------|----------------|--------------------||
|
|----------------------------------------------------|----------------|-----------------9--||
|-10-(10)b11-(10)-(10)b11-(10)-(10)b11-(10)----------|----------------|-10b11-10-10-11-----||
|--------------------------------------------7--9h10-|--9----/9-10-12-|--------------------||
|----------------------------------------------------|----------------|--------------------||
|----------------------------------------------------|----------------|--------------------||
|----------------------------------------------------|----------------|--------------------||


 Interlude
  D5
        PM----|      PM--------|       PM----|     PM----|
|--------------------------------|-------------------------|
|--------------------------------|-------------------------|
|--------------------------------|-------------------------|
|-12\------------12\-------------|-12\---------12\---------|
|-12\---0-0-0-0--12\-0-0---0---0-|-12\-0-0-0-0-12\-0-0-0-0-|
|-12\---0-0-0-0--12\-0-0---0---0-|-12\-0-0-0-0-12\-0-0-0-0-|
|
|-12b13---------(12)-----(12)\---|-------------------------|
|--------------------------------|-------------------------|
|--------------------------------|-------------------------|
|--------------------------------|-------------------------|
|--------------------------------|-------------------------|
|--------------------------------|-------------------------|
|
|--9b10----------(9)------(9)\---|-------------------------|
|--------------------------------|-------------------------|
|--------------------------------|-------------------------|
|--------------------------------|-------------------------|
|--------------------------------|-------------------------|
|--------------------------------|-------------------------|


                                 E5F5
   PM----|  PM----|    PM----|
|-------------------|----------------|
|-------------------|----------------|
|-------------------|----------------|
|-------------------|----------0-2-3-|
|--0-0-0-0--0-0-0-0-|--0-0-0-0-0-2-3-|
|--0-0-0-0--0-0-0-0-|--0-0-0-0-0-2-3-|
|
|-------------------|----------------|
|-------------------|----------------|
|-------------------|----------------|
|-------------------|----------------|
|-------------------|----------------|
|-------------------|----------------|
|
|-------------------|----------------|
|-------------------|----------------|
|-------------------|----------------|
|-------------------|----------------|
|-------------------|----------------|
|-------------------|----------------|


  Bb5                             Bbsus2
  Gtr III
|-------------------------------|---------------------------------------|
|-------------------------------|---------------------------------------|
|-------------------------------|---------------------------------------|
|-8---8-8-8--8---8---8-8-8--8---|-10---10-10-10-10---10---10-10-10-10---|
|-8---8-8-8--8---8---8-8-8--8---|--8----8--8--8--8----8----8--8--8--8---|
|-8---8-8-8--8---8---8-8-8--8---|--8----8--8--8--8----8----8--8--8--8---|
|
| Gtr V
|---------6h10p6---------6h10p6-|-------------6h10p6-------------6h10p6-|
|-------------------------------|---------------------------------------|
|-------7--------------7--------|----------7------------------7---------|
|-----8--------------8----------|-------8------------------8------------|
|-5-8------------5-8------------|--5-8----------------5-8---------------|
|-------------------------------|---------------------------------------|


  D5
  Gtr III
      PM----|     PM----|       PM----|     PM----|
|-------------------------|-------------------------|
|-------------------------|-------------------------|
|-------------------------|-------------------------|
|-12\---------12\---------|-12\---------12\---------|
|-12\-0-0-0-0-12\-0-0-0-0-|-12\-0-0-0-0-12\-0-0-0-0-|
|-12\-0-0-0-0-12\-0-0-0-0-|-12\-0-0-0-0-12\-0-0-0-0-|


                                 E5F5
   PM----|  PM----|    PM----|
|-------------------|----------------|
|-------------------|----------------|
|-------------------|----------------|
|-------------------|----------0-2-3-|
|--0-0-0-0--0-0-0-0-|--0-0-0-0-0-2-3-|
|--0-0-0-0--0-0-0-0-|--0-0-0-0-0-2-3-|


  Bb5                             Bbsus2
  Gtr III
|-------------------------------|---------------------------------------||
|-------------------------------|---------------------------------------||
|-------------------------------|---------------------------------------||
|-8---8-8-8--8---8---8-8-8--8---|-10---10-10-10-10---10---10-10-10-10---||
|-8---8-8-8--8---8---8-8-8--8---|--8----8--8--8--8----8----8--8--8--8---||
|-8---8-8-8--8---8---8-8-8--8---|--8----8--8--8--8----8----8--8--8--8---||
|
| Gtr V
| PM----|        PM----|           PM-----|           PM-----|
|---------6h10p6---------6h10p6-|-------------6h10p6-------------6h10p6-||
|-------------------------------|---------------------------------------||
|-------7--------------7--------|----------7------------------7---------||
|-----8--------------8----------|-------8------------------8------------||
|-5-8------------5-8------------|--5-8----------------5-8---------------||
|-------------------------------|---------------------------------------||


 Guitar Break
  D5                          C/E
  Gtrs III, IV
|---------------------------|-----------------------|
|---------------------------|-----------------------|
|---------------------------|-----------------------|
|--0--0-0--0-0--0--0-0--0-0-|--2--2-2--2-2--2--2--2-|
|--0--0-0--0-0--0--0-0--0-0-|--3--3-3--3-3--3--3--3-|
|--0--0-0--0-0--0--0-0--0-0-|--2--2-2--2-2--2--2--2-|
|
| Gtr V
|--------------10-----------|--------------12-------|
|---------10------10--------|---------13------13----|
|----10----------------10---|----12--------------12-|
|-12------------------------|-14--------------------|
|---------------------------|-----------------------|
|---------------------------|-----------------------|


  F5                                       A/Db
|---------------------------|---------------------------||
|---------------------------|---------------------------||
|---------------------------|---------------6--6-6--6-6-||
|--3--3-3--3-3--3--3-3--3-3-|--3--3-3--3-3--7--7-7--7-7-||
|--3--3-3--3-3--3--3-3--3-3-|--3--3-3--3-3--4--4-4--4-4-||
|--3--3-3--3-3--3--3-3--3-3-|--3--3-3--3-3--------------||
|
|--------------13-----------|-13-----------12-----------||
|---------13------13--------|----13-----------14--------||
|----14----------------14---|---------14-----------12---||
|-15------------------------|---------------------------||
|---------------------------|---------------------------||
|---------------------------|---------------------------||


 Guitar Solo
  a Tempo Q=162
  D5    N.C.
 4/4
  Gtr III
                                                         ~~~~~~~
|-------------10----12----|-13---------------13-15-16--(16)b17-----|
|----------10----10----10-|----9-------13--------------------------|
|-------10----------------|---------13-----------------------------|
|-11-12-------------------|------15--------------------------------|
|-------------------------|----------------------------------------|
|-------------------------|----------------------------------------|
|
| Gtrs IV, V
|-------------------------|----------------------------------------|
|-------------------------|----------------------------------------|
|--7--7-------------------|----------------------------------------|
|--7--7-------------------|----------------------------------------|
|--5--5-------------------|---------------/8-------(8)---7-----5-7-|
|-------------------------|----------------------------------------|


  Bb5    N.C.
                                                                ~~
|-/20-18-----------------------|----------8-6-----13-----------------|
|--------18--------------------|--------------6-------13-------------|
|-----------19-(19)------------|--------7-------7--------10----------|
|-------------------20-(20)-19-|-(19)S8---------------------10-12----|
|------------------------------|-------------------------------------|
|------------------------------|-------------------------------------|
|
|------------------------------|-------------------------------------|
|------------------------------|-------------------------------------|
|---3--3-----------------------|-------------------------------------|
|---3--3-----------------------|--------------3---(3)----------------|
|---1--1-----------------------|---3--5---1---------------1-----3-5--|
|------------------------------|-------------------------------------|


  C5
                                                                              ~~
|-------------------------20-15-------18-15-------|-18--15-20-15-------------------|
|-------------11-14-13-11-------17----------17----|--------------17-15-------------|
|-------10-12----------------------17----------17-|--------------------17-15-------|
|-10-12-------------------------------------------|--------------------------17----|
|-------------------------------------------------|--------------------------------|
|-------------------------------------------------|--------------------------------|
|
|-------------------------------------------------|--------------------------------|
|-------------------------------------------------|--------------------------------|
|--5-----5-----------------------------5-----5----|-(5)----------------------------|
|--5-----5-----------------------------5-----5----|-(5)----------------------------|
|--3-----3-----------------------------3-----3----|-(3)----------------------------|
|-------------------------------------------------|--------------------------------|


  A5        Dbm        Em                                 Dbm
                                                                               ~~
|-----------------9-10-12--17-(17)-(17)b18---|-(17)---9-9-10---10-12--12---12s15----|
|--------------10----------------------------|--------------------------------------|
|----9---10-12-------------------------------|--------------------------------------|
|-11-----------------------------------------|--------------------------------------|
|--------------------------------------------|--------------------------------------|
|--------------------------------------------|--------------------------------------|
|
|--------------------------------------------|--------------------------------------|
|--------------------------------------------|--------------------------------------|
|--2---2-------------------------------------|---------------6----(6)----6-----6----|
|--2---2----------2----(2)--2--------------5-|--(5)-5--------2----(2)----2-----2----|
|--0---0----------4----(4)--4--------------7-|--(7)-7--------4----(4)----4-----4----|
|--------------------------------------------|--------------------------------------|


  D5    N.C.
|-17-13-13-12-------12-8-8--------------------|
|-------------13-----------10-8------------10-|
|----------------14-------------9-------10----|
|---------------------------------11-12-------|
|---------------------------------------------|
|---------------------------------------------|
|
|---------------------------------------------|
|---------------------------------------------|
|--7-----7------------------------------------|
|--7-----7------------------------------------|
|--5-----5------------------------------------|
|---------------------------------------------|


|-------------------13-10----------10-13--17-13-------13-17-20-17-------17-|
|-13-11-10-------10-------11----11-----------------15----------------18----|
|-------------10-------------12-----------------14----------------19-------|
|----------12--------------------------------------------------------------|
|--------------------------------------------------------------------------|
|--------------------------------------------------------------------------|
|
|--------------------------------------------------------------------------|
|--------------------------------------------------------------------------|
|--------------------------------------------------------------------------|
|--------------------------------------------------------------------------|
|----------------------------/8-------(8)--------7--------5--------7-------|
|--------------------------------------------------------------------------|


  Bb5  N.C.
|----------------15-18-15-15----15-18-15-15----15-|
|-------------18-------------18-------------18----|
|-19---(19)\--------------------------------------|
|-------------------------------------------------|
|-------------------------------------------------|
|-------------------------------------------------|
|
|-------------------------------------------------|
|-------------------------------------------------|
|--3-3--------------------------------------------|
|--3-3--------------------------------------------|
|--1-1--------------------------------------------|
|-------------------------------------------------|


|----10-13-10-10----10-13-10-10----10-------5-----5-8-6-5-------|
|-13-------------13-------------13--------6-----6---------8-6-5-|
|--------------------------------------7------7-----------------|
|---------------------------------------------------------------|
|---------------------------------------------------------------|
|---------------------------------------------------------------|
|
|---------------------------------------------------------------|
|---------------------------------------------------------------|
|---------------------------------------------------------------|
|-----------------------------3-------(3)-----------------------|
|--3--------5--------1------------------------1-----3-----5-----|
|---------------------------------------------------------------|


  C5
|-10b12-(10)-----------8-12-8-12-|-/15--10-12-10-/20-18-17-/19-17-16-/18-16-15-/17-15-14-/17-15-14-/16-14-13-|
|------------------5-8-----------|---------------------------------------------------------------------------|
|----------------7---------------|---------------------------------------------------------------------------|
|--------------8-----------------|---------------------------------------------------------------------------|
|--------------------------------|---------------------------------------------------------------------------|
|--------------------------------|---------------------------------------------------------------------------|
|
|--------------------------------|---------------------------------------------------------------------------|
|--------------------------------|---------------------------------------------------------------------------|
|--5------5------------5----5----|--(5)----------------------------------------------------------------------|
|--5------5------------5----5----|--(5)----------------------------------------------------------------------|
|--3------3------------3----3----|--(3)----------------------------------------------------------------------|
|--------------------------------|---------------------------------------------------------------------------|


  A5       Dbm             Em                  Dbm
|-12-13-15-18-(18)-17-(17)-12-|-(12)-15-(15)----------------10-12-13-15---||
|-14-15-17-20-(20)-18-(18)-14-|-(14)-17-(17)----8--10-11-13-11-13-15-17---||
|-----------------------------|-----------------9--10-12-14---------------||
|-----------------------------|-------------------------------------------||
|-----------------------------|-------------------------------------------||
|-----------------------------|-------------------------------------------||
|
|-----------------------------|-------------------------------------------||
|-----------------------------|-------------------------------------------||
|--2--2-----------------------|--------------6-(6)-----6-----6------------||
|--2--2-----2--(2)--2-------5-|--(5)--5------2-(2)-----2-----2------------||
|--0--0-----4--(4)--4-------7-|--(7)--7------4-(4)-----4-----4------------||
|-----------------------------|-------------------------------------------||


   Interlude
    D5                                                           Bb5
    Gtr III
     PM---|     PM--------|     PM----------|     PM--------|
||----------------------------------|--------------------------------|
||o---------------------------------|--------------------------------|
||-----------7---------------7------|----------7---------------7---3-|
||---7--7-7--7--7-7--7--7-7--7--7-7-|--7--7-7--7--7-7--7--7-7--7---3-|
||o--5--5-5--5--5-5--5--5-5--5--5-5-|--5--5-5--5--5-5--5--5-5--5---1-|
||----------------------------------|--------------------------------|
|
|   Gtr IV
||--10--8-----------10--8-----------|-10--8-----------10--8------/10-|
||o---------10--6-----------10--6---|---------10--6-----------10-----|
||----------------------------------|--------------------------------|
||----------------------------------|--------------------------------|
||o---------------------------------|--------------------------------|
||----------------------------------|--------------------------------|
|
|   Gtr V
||--13-12---10------13-12---10------|-13-12---10------13-12---10-/13-|
||o------------10--------------10---|------------10------------------|
||----------------------------------|--------------------------------|
||----------------------------------|--------------------------------|
||o---------------------------------|--------------------------------|
||----------------------------------|--------------------------------|


                                                                 C5
        PM|     PM--------|     PM----------|     PM--------|
|-----------------------------------|--------------------------------|
|-----------------------------------|--------------------------------|
|--(3)-------3---------------3------|----------3---------------3---5-|
|--(3)--3-3--3--3-3--3--3-3--3--3-3-|--3--3-3--3--3-3--3--3-3--3---5-|
|--(1)--1-1--1--1-1--1--1-1--1--1-1-|--1--1-1--1--1-1--1--1-1--1---3-|
|-----------------------------------|--------------------------------|
|
|-(10)--8----6------10--8----6------|-10--8----6------10--8----6-/12-|
|---------------6---------------6---|-------------6------------------|
|-----------------------------------|--------------------------------|
|-----------------------------------|--------------------------------|
|-----------------------------------|--------------------------------|
|-----------------------------------|--------------------------------|
|
|-(13)-12---10------13-12---10------|-13-12---10------13-12---10-/15-|
|--------------11--------------11---|------------11------------------|
|-----------------------------------|--------------------------------|
|-----------------------------------|--------------------------------|
|-----------------------------------|--------------------------------|
|-----------------------------------|--------------------------------|


  C5
        PM|     PM--------|     PM----------|     PM--------|      PM|
|-----------------------------------|----------------------------------|
|-----------------------------------|----------------------------------|
|--(5)-------5---------------5------|----------5---------------5-------|
|--(5)--5-5--5--5-5--5--5-5--5--5-5-|--5--5-5--5--5-5--5--5-5--5---5-5-|
|--(3)--3-3--3--3-3--3--3-3--3--3-3-|--3--3-3--3--3-3--3--3-3--3---3-3-|
|-----------------------------------|----------------------------------|
|
|-(12)-10----8------12-10----8------|-12-10----8------12-10----8-/13---|
|---------------8---------------8---|-------------8--------------------|
|-----------------------------------|----------------------------------|
|-----------------------------------|----------------------------------|
|-----------------------------------|----------------------------------|
|-----------------------------------|----------------------------------|
|
|-(15)-13---12------15-13---12------|-15-13---12------15-13---12-/17---|
|--------------13--------------13---|------------13--------------------|
|-----------------------------------|----------------------------------|
|-----------------------------------|----------------------------------|
|-----------------------------------|----------------------------------|
|-----------------------------------|----------------------------------|


  A5         Dbm             Em                Dbm
|-------------------------------|---------------------------------||
|-------------------------------|--------------------------------o||
|---2---2-----------------------|---------------6--(6)--6---6-----||
|---2---2-----2--(2)--2-------5-|--(5)--5-------2--(2)--2---2-----||
|---0---0-----4--(4)--4-------7-|--(7)--7-------4--(4)--4---4----o||
|-------------------------------|---------------------------------||
|
|                                                           ~~~~
|-(13)-15-12-13-(13)-15-(15)-13-|-(13)--9--(9)-10-(10)-12-(12)----||
|-------------------------------|--------------------------------o||
|-------------------------------|---------------------------------||
|-------------------------------|---------------------------------||
|-------------------------------|--------------------------------o||
|-------------------------------|---------------------------------||
|
|-(17)-18-15-17-(17)-18-(18)-17-|-(17)-12-(12)-13-(13)-15-(15)----||
|-------------------------------|--------------------------------o||
|-------------------------------|---------------------------------||
|-------------------------------|---------------------------------||
|-------------------------------|--------------------------------o||
|-------------------------------|---------------------------------||


 Guitar Solo
  D5           N.C.
  Gtrs I, II
    |  |  |
    /  /  /

  Gtr III
                                 ~~~~
|--12-10---------------------|-----------------|
|--------10---------------13-|-(13)------11-11-|
|-----------10----10-(10)----|-----------------|
|--------------12------------|-----------------|
|----------------------------|-----------------|
|----------------------------|-----------------|
|
| Gtr IV
|   ~~~                          ~~~~~~~~~~~~~~~
|-/13---------------------17-|-(17)------------|
|----------------------------|-----------------|
|----------------------------|-----------------|
|----------------------------|-----------------|
|----------------------------|-----------------|
|----------------------------|-----------------|
|
| Gtr V
|   ~~~                          ~~~~~~~~~~~~~~~
|-/10---------------------13-|-(13)------------|
|----------------------------|-----------------|
|----------------------------|-----------------|
|----------------------------|-----------------|
|----------------------------|-----------------|
|----------------------------|-----------------|


  Bb5             N.C.
    |   |   |
    /   /   /

                                      ~~~~
|---------------------------------|-----------------|
|-(11)-10-(10)-11-(11)-13-(13)S=6-|--(6)------6-6s8-|
|---------------------------------|-----------------|
|---------------------------------|-----------------|
|---------------------------------|-----------------|
|---------------------------------|-----------------|
|
|~~~~~~                               ~~~~
|-/10--------------------------13-|-(13)------------|
|---------------------------------|-----------------|
|---------------------------------|-----------------|
|---------------------------------|-----------------|
|---------------------------------|-----------------|
|---------------------------------|-----------------|
|
|~~~~~~                               ~~~~
|--/6--------------------------10-|-(10)------------|
|---------------------------------|-----------------|
|---------------------------------|-----------------|
|---------------------------------|-----------------|
|---------------------------------|-----------------|
|---------------------------------|-----------------|


  C5                   C5
    |  |  |          |  |     |
    /  /  /          o  /     /

                                   ~~~~~~~~~
|-------------------------|-------------------|
|--(8)-6-(6)-5-(5)-6-8----|-------------------|
|----------------------/7-|--(7)-5-5----(5)-5-|
|-------------------------|-------------------|
|-------------------------|-------------------|
|-------------------------|-------------------|
|
|   ~~~~                      ~~~~
|-/12------------------15-|-(15)--------------|
|-------------------------|-------------------|
|-------------------------|-------------------|
|-------------------------|-------------------|
|-------------------------|-------------------|
|-------------------------|-------------------|
|
|   ~~~~                      ~~~~
|--/8------------------12-|-(12)--------------|
|-------------------------|-------------------|
|-------------------------|-------------------|
|-------------------------|-------------------|
|-------------------------|-------------------|
|-------------------------|-------------------|


  A5      Dbm          Em              Dbm(type 2)
    | |    |  |  |      |     |  |      |   |  ||
    / /    /  /  /      /     /  /      /   /  //

|----------6-(6)-5-(5)----|------------/5--(5)--6-5-|
|-----5-8---------------8-|--(8)-6-(6)--------------|
|---6---------------------|-------------------------|
|-------------------------|-------------------------|
|-------------------------|-------------------------|
|-------------------------|-------------------------|
|
|-\12-----15-----------18-|-(18)-------17-(17)------|
|-------------------------|-------------------------|
|-------------------------|-------------------------|
|-------------------------|-------------------------|
|-------------------------|-------------------------|
|-------------------------|-------------------------|
|
|--/9-----12-----------15-|-(15)-------18-(18)------|
|-------------------------|-------------------------|
|-------------------------|-------------------------|
|-------------------------|-------------------------|
|-------------------------|-------------------------|
|-------------------------|-------------------------|


  D5         N.C.
    |  ||
    /  //

    ~~~~
|--(5)-------------10-12-|-(12)-13-(13)-12-(12)----------------|
|---------------10-------|----------------------13-(13)-13b15==|
|------------10----------|-------------------------------------|
|--------/12-------------|-------------------------------------|
|------------------------|-------------------------------------|
|------------------------|-------------------------------------|
|
|   ~~~~                     ~~~~~~~~~~~~~~~~~~~~~~~~~~~~~~~~~~~
|-/13-----------------17-|-(17)--------------------------------|
|------------------------|-------------------------------------|
|------------------------|-------------------------------------|
|------------------------|-------------------------------------|
|------------------------|-------------------------------------|
|------------------------|-------------------------------------|
|
|   ~~~~                     ~~~~~~~~~~~~~~~~~~~~~~~~~~~~~~~~~~~
|-/10-----------------13-|-(13)--------------------------------|
|------------------------|-------------------------------------|
|------------------------|-------------------------------------|
|------------------------|-------------------------------------|
|------------------------|-------------------------------------|
|------------------------|-------------------------------------|


  Bb5              N.C.
    |     |    |
    /     /    /

                                        ~~~~
|-----------------------------------|---------|
|-(13)r-(13)-(13)---13b15==(13)r----|---------|
|--------------------------------10-|-(10)----|
|-----------------------------------|---------|
|-----------------------------------|---------|
|-----------------------------------|---------|
|
|~~~~~~~                                ~~~~
|-/10----------------------------13-|-(13)----|
|-----------------------------------|---------|
|-----------------------------------|---------|
|-----------------------------------|---------|
|-----------------------------------|---------|
|-----------------------------------|---------|
|
|~~~~~~~                                ~~~~
|--/6----------------------------10-|-(10)----|
|-----------------------------------|---------|
|-----------------------------------|---------|
|-----------------------------------|---------|
|-----------------------------------|---------|
|-----------------------------------|---------|


  C5                               C5
    |  |  |                 |       |     |
    /  /  /                 o       /     /

                                          ~~~~
|-------------------------------------|----------------12-(12)s15-|
|-------------------------------------|---------------------------|
|---9-10-12---------------9--12-10--9-|--(9)------9-10------------|
|-----------10-(10)----10-------------|--------12-----------------|
|-------------------12----------------|---------------------------|
|-------------------------------------|---------------------------|
|
|   ~~~                                   ~~~~
|-/12------------------------------15-|-(15)----------------------|
|-------------------------------------|---------------------------|
|-------------------------------------|---------------------------|
|-------------------------------------|---------------------------|
|-------------------------------------|---------------------------|
|-------------------------------------|---------------------------|
|
|   ~~~                                   ~~~~
|--/8------------------------------12-|-(12)----------------------|
|-------------------------------------|---------------------------|
|-------------------------------------|---------------------------|
|-------------------------------------|---------------------------|
|-------------------------------------|---------------------------|
|-------------------------------------|---------------------------|


  A5                     Dbm             Em                            Dbm(type 2)
    |   |                 |   |   |       |           |          |      |   |  ||
    /   /                 /   /   /       /           /          /      /   /  //

|-(15)-12----------------12-(12)s17-(17)-12-------|-----------------17-18-(18)---17-16--||
|---------13--------------------------------13----|-------------------------------------||
|------------12--------------------------------12-|-------------------------------------||
|---------------14s10-----------------------------|--14s=10-----------------------------||
|---------------------12--------------------------|---------12-(12)---------------------||
|-------------------------------------------------|-------------------------------------||
|
|-\12--------------------15--------------18-------|-(18)---------------17-(17)----------||
|-------------------------------------------------|-------------------------------------||
|-------------------------------------------------|-------------------------------------||
|-------------------------------------------------|-------------------------------------||
|-------------------------------------------------|-------------------------------------||
|-------------------------------------------------|-------------------------------------||
|
|--/9--------------------12--------------15-------|-(15)---------------18-(18)----------||
|-------------------------------------------------|-------------------------------------||
|-------------------------------------------------|-------------------------------------||
|-------------------------------------------------|-------------------------------------||
|-------------------------------------------------|-------------------------------------||
|-------------------------------------------------|-------------------------------------||


 Breakdown
  Half-Time Q=81
  D5                 Bb5
  Gtrs IV, V
|------------------|-----------------|
|------------------|-----------------|
|------------------|-3-3-3--3-3-3-3--|
|--0-0-0--0-0-0-0--|-3-3-3--3-3-3-3--|
|--0-0-0--0-0-0-0--|-1-1-1--1-1-1-1--|
|--0-0-0--0-0-0-0--|-----------------|
|
| Gtr III
|  ~~
|-17---------------|-----------------|
|------------------|-----------------|
|------------------|-----------------|
|------------------|-----------------|
|------------------|-----------------|
|------------------|-----------------|


  C5                 F5
|------------------|-----------------------|
|------------------|-----------------------|
|-5-5-5-5-5-5-5-5--|-----------------------|
|-5-5-5-5-5-5-5-5--|-3-3-3-3-3-3-3-3-3-3-3-|
|-3-3-3-3-3-3-3-3--|-3-3-3-3-3-3-3-3-3-3-3-|
|------------------|-3-3-3-3-3-3-3-3-3-3-3-|
|
|------------------|-----------------------|
|------------------|-----------------------|
|------------------|-----------------------|
|------------------|-----------------------|
|------------------|-----------------------|
|------------------|-----------------------|


  G5                      A5     Bb5
  Gtrs IV, V
|-----------------------|-----------------|
|-----------------------|-----------------|
|-----------------------|-2-2-2--3-3-3-3--|
|-5-5-5-5-5-5-5-5-5-5-5-|-2-2-2--3-3-3-3--|
|-5-5-5-5-5-5-5-5-5-5-5-|-0-0-0--1-1-1-1--|
|-5-5-5-5-5-5-5-5-5-5-5-|-----------------|


  C5                                  Dbm6
|-----------------------|--------------------------|
|-----------------------|--------------------------|
|-5-5-5-5-5-5-5-5-5-5-5-|-5-5-5-5-5-5--------------|
|-5-5-5-5-5-5-5-5-5-5-5-|-5-5-5-5-5-5-7-7-7-7-7-7--|
|-3-3-3-3-3-3-3-3-3-3-3-|-3-3-3-3-3-3-4-4-4-4-4-4--|
|-----------------------|--------------------------|


  D5                Bb5               C5                 F5
|-----------------|-----------------|------------------|-----------------------|
|-----------------|-----------------|------------------|-----------------------|
|-----------------|-3-3-3--3-3-3-3--|-5-5-5-5-5-5-5-5--|-----------------------|
|-0-0-0--0-0-0-0--|-3-3-3--3-3-3-3--|-5-5-5-5-5-5-5-5--|-3-3-3-3-3-3-3-3-3-3-3-|
|-0-0-0--0-0-0-0--|-1-1-1--1-1-1-1--|-3-3-3-3-3-3-3-3--|-3-3-3-3-3-3-3-3-3-3-3-|
|-0-0-0--0-0-0-0--|-----------------|------------------|-3-3-3-3-3-3-3-3-3-3-3-|


  G5                      A5     Bb5
|-----------------------|-----------------|
|-----------------------|-----------------|
|-----------------------|-2-2-2--3-3-3-3--|
|-5-5-5-5-5-5-5-5-5-5-5-|-2-2-2--3-3-3-3--|
|-5-5-5-5-5-5-5-5-5-5-5-|-0-0-0--1-1-1-1--|
|-5-5-5-5-5-5-5-5-5-5-5-|-----------------|


  C5
|-----------------------|--------------------------||
|-----------------------|--------------------------||
|-5-5-5-5-5-5-5-5-5-5-5-|-5-5-5-5-5-5-5-5-5-5-5-5--||
|-5-5-5-5-5-5-5-5-5-5-5-|-5-5-5-5-5-5-5-5-5-5-5-5--||
|-3-3-3-3-3-3-3-3-3-3-3-|-3-3-3-3-3-3-3-3-3-3-3-3--||
|-----------------------|--------------------------||


 Bridge
  D5
 6/8
  Gtr III
                                                   PM|
|------------------------------------------------------|
|------------------------------------------------------|
|------------------------------------------------------|
|--0----------------------------------------(0)--------|
|--0----------------------------------------(0)----0-0-|
|--0----------------------------------------(0)----0-0-|
|
| Gtr IV
|------------------------------------------------------|
|------------------------------------------------------|
|-12-(12)b14-(12)-(12)b14-(12)-(12)b14-(12)-----10-----|
|------------------------------------------------------|
|------------------------------------------------------|
|------------------------------------------------------|
|
| Gtr V
|------------------------------------------------------|
|------------------------------------------------------|
|--9--(9)b10--(9)--(9)b10--(9)--(9)b10--(9)------7-----|
|------------------------------------------------------|
|------------------------------------------------------|
|------------------------------------------------------|


  Bb5                                                   C5                  F5       A5
                                                 PM|                  PM|
|-----------------------------------------------------|-------------------|--------------------|
|-----------------------------------------------------|-------------------|--------------------|
|--3----------------------------------------(3)-------|--5-------(5)------|-----------2--2--2--|
|--3----------------------------------------(3)--3--3-|--5-------(5)--5-5-|--3-----3--2--2--2--|
|--1----------------------------------------(1)--1--1-|--3-------(3)--3-3-|--3-----3--0--0--0--|
|-----------------------------------------------------|-------------------|--3-----3-----------|
|
|-----------------------------------------------------|-------------------|-----------------9--|
|-13-(13)b15-(13)-(13)b15-(13)-(13)b15-(13)-----------|----------10--11---|-13b15-13-11-10-----|
|-------------------------------------------14--12h14-|-12---/12----------|--------------------|
|-----------------------------------------------------|-------------------|--------------------|
|-----------------------------------------------------|-------------------|--------------------|
|-----------------------------------------------------|-------------------|--------------------|
|
|-----------------------------------------------------|-------------------|--------------------|
|-10-(10)b11-(10)-(10)b11-(10)-(10)b11-(10)-----------|-------------------|-10b11-10-------10--|
|--------------------------------------------7---9h10-|--9----/9-10--12---|----------12-10-----|
|-----------------------------------------------------|-------------------|--------------------|
|-----------------------------------------------------|-------------------|--------------------|
|-----------------------------------------------------|-------------------|--------------------|


  D5
                                                   PM|
|------------------------------------------------------|
|------------------------------------------------------|
|------------------------------------------------------|
|--0----------------------------------------(0)--------|
|--0----------------------------------------(0)----0-0-|
|--0----------------------------------------(0)----0-0-|
|
|------------------------------------------------------|
|------------------------------------------------------|
|-12-(12)b14-(12)-(12)b14-(12)-(12)b14-(12)-----10-----|
|------------------------------------------------------|
|------------------------------------------------------|
|------------------------------------------------------|
|
|------------------------------------------------------|
|------------------------------------------------------|
|--9--(9)b10--(9)--(9)b10--(9)--(9)b10--(9)------7-----|
|------------------------------------------------------|
|------------------------------------------------------|
|------------------------------------------------------|


  Bb5                                                   C5                  F5       A5
                                                 PM|                  PM|
|-----------------------------------------------------|-------------------|-------------------|
|-----------------------------------------------------|-------------------|-------------------|
|--3----------------------------------------(3)-------|--5-------(5)------|-----------2--2--2-|
|--3----------------------------------------(3)--3--3-|--5-------(5)--5-5-|--3-----3--2--2--2-|
|--1----------------------------------------(1)--1--1-|--3-------(3)--3-3-|--3-----3--0--0--0-|
|-----------------------------------------------------|-------------------|--3-----3----------|
|
|-----------------------------------------------------|-------------------|-----------9-10-12-|
|-13-(13)b15-(13)-(13)b15-(13)-(13)b15-(13)-----------|----------10--11---|-13b15-13----------|
|-------------------------------------------14--12h14-|-12---/12----------|-------------------|
|-----------------------------------------------------|-------------------|-------------------|
|-----------------------------------------------------|-------------------|-------------------|
|-----------------------------------------------------|-------------------|-------------------|
|
|-----------------------------------------------------|-------------------|-----------------9-|
|-10-(10)b11-(10)-(10)b11-(10)-(10)b11-(10)-----------|-------------------|-10b11-10-10-11----|
|--------------------------------------------7---9h10-|--9----/9-10--12---|-------------------|
|-----------------------------------------------------|-------------------|-------------------|
|-----------------------------------------------------|-------------------|-------------------|
|-----------------------------------------------------|-------------------|-------------------|


  D5
|-----------------|------------|----------|--------||
|-----------------|------------|----------|--------||
|-----------------|------------|----------|--------||
|--0--------------|--(0)-------|-(0)------|-(0)----||
|--0--------------|--(0)-------|-(0)------|-(0)----||
|--0--------------|--(0)-------|-(0)------|-(0)----||
|
|                     >
|-12b13====(12)---|-(12)r------|----------|--------||
|-----------------|------------|----------|--------||
|-----------------|------------|----------|--------||
|-----------------|------------|----------|--------||
|-----------------|------------|----------|--------||
|-----------------|------------|----------|--------||
|
|                     >
|--9b10=====(9)---|--(9)r------|----------|--------||
|-----------------|------------|----------|--------||
|-----------------|------------|----------|--------||
|-----------------|------------|----------|--------||
|-----------------|------------|----------|--------||
|-----------------|------------|----------|--------||


   Re-Intro
    Slowly Q.=48
    (Dm)               (Bb)          (C)            (F)   (E)
    Gtr I
||----------10-------|---------5---|--------------|-------0-------||
||o---10-------10----|---6---8---6-|---8---10-8---|-3-1-----2----o||
||-------10-------10-|-----7-------|-----9------9-|-----2-----0---||
||-------------------|-------------|--------------|---------------||
||o-8----------------|-5-----------|-7------------|--------------o||
||-------------------|-------------|--------------|---------------||
|
|   Gtr II
||-----------5-------|-------0-1---|---0------0---|---------------||
||o----6--------6----|---3-------3-|--------6-----|-------2------o||
||--------7--------7s|=3---3-------|-----5------5-|-3-2-----3-----||
||-------------------|-------------|--------------|-----3-----2---||
||o-5----------------|-1-----------|-3------------|--------------o||
||-------------------|-------------|--------------|---------------||


   Verse
    (Dm)               (Bb)          (C)            (F)   (E)
||----------10-------|---------5---|--------------|-------0-------||
||o---10-------10----|---6---8---6-|---8---10-8---|-3-1-----2----o||
||-------10-------10-|-----7-------|-----9------9-|-----2-----0---||
||-------------------|-------------|--------------|---------------||
||o-8----------------|-5-----------|-7------------|--------------o||
||-------------------|-------------|--------------|---------------||
|
||-----------5-------|-------0-1---|---0------0---|---------------||
||o----6--------6----|---3-------3-|--------6-----|-------2------o||
||--------7--------7s|=3---3-------|-----5------5-|-3-2-----3-----||
||-------------------|-------------|--------------|-----3-----2---||
||o-5----------------|-1-----------|-3------------|--------------o||
||-------------------|-------------|--------------|---------------||


  (Bb)                                    (Dm)
|----------10-------|----------10-------|---------10-------|---------10-------|
|-------11----11----|-------11----11----|------10----10----|------10----10----|
|----10----------10-|----10----------10-|---10----------10-|---10----------10-|
|-12----------------|-12----------------|------------------|------------------|
|-------------------|-------------------|-8----------------|-8----------------|
|-------------------|-------------------|------------------|------------------|
|
|-----------6-------|-----------6-------|----------5-------|----------0-------|
|--------6-----6----|--------6-----6----|-------6-----6----|-------6-----6----|
|-----7-----------7-|-----7-----------7-|----7-----------7-|----7-----------7-|
|--8----------------|--8----------------|-0----------------|-0----------------|
|-------------------|-------------------|------------------|------------------|
|-------------------|-------------------|------------------|------------------|


  (Db)                        (C)
|-------4-----|-6-----8-----|-------3-----|-5-----3-----||
|-----6---6---|---6-----6---|-----5---5---|---6-----6---||
|---6-------6-|-----6-----6-|---5-------5-|-----5-----5-||
|-6-----------|-------------|-5-----------|-------------||
|-------------|-------------|-------------|-------------||
|-------------|-------------|-------------|-------------||
|
|-------------|-------4-----|-------------|-------------||
|-------6-----|-8-----------|-------6-----|-5-----6-----||
|-----6---6---|---6-----6---|-----5---5---|---5-----5---||
|---6-------6-|-----6-----6-|---5-------5-|-----5-----5-||
|-4-----------|-------------|-3-----------|-------------||
|-------------|-------------|-------------|-------------||


   Guitar Solo/Outro
    (Dm)               (F)           (C)            (F)   (E)
                                                                  4x
||----------10-------|---------5---|--------------|-------0-------||
||o---10-------10----|---6---8---6-|---8---10-8---|-3-1-----2----o||
||-------10-------10-|-----7-------|-----9------9-|-----2-----0---||
||-------------------|-------------|--------------|---------------||
||o-8----------------|-5-----------|-7------------|--------------o||
||-------------------|-------------|--------------|---------------||
|
|                                                                 4x
||-----------5-------|-------0-1---|---0------0---|---------------||
||o----6--------6----|---3-------3-|--------6-----|-------2------o||
||--------7--------7s|=3---3-------|-----5------5-|-3-2-----3-----||
||-------------------|-------------|--------------|-----3-----2---||
||o-5----------------|-1-----------|-3------------|--------------o||
||-------------------|-------------|--------------|---------------||


Solo Guitar At End

Guitar Solo/Outro
  Gtr II
  ~~~~  ~~~~~~~~                        ~             PM
|-----------|---------------|---------------|---------------------------|
|-6---------|-6------6---8--|-5-6-5---------|---------------------------|
|---7-5h7---|------7---x----|-------5s7-5---|---------------------------|
|-----------|---------------|---------------|-8-7-5-7-------7h8-7-5-7h8-|
|-----------|---------------|---------------|---------5-7h8-------------|
|-----------|---------------|---------------|---------------------------|


|---------|---------|--------------|----------------------------------|
|-----5-6-|-----5-6-|-6s8-5--5-6-8-|-/11-10-11-10----------/10--------|
|---7-----|---7-----|--------------|--------------12-10-12------12-10-|
|-7-------|-8-------|--------------|----------------------------------|
|---------|---------|--------------|----------------------------------|
|---------|---------|--------------|----------------------------------|


   ~~~~~    ~~
|--------------------------|----------------|-----------10------------------------------------|
|--------------10----------|----------------|--------13-----13-----------------------10-------|
|-12-10-----------10-------|----------------|-----12-----------13-12-10-10b12-(10)------13-12-|
|-------10h12--------12-10-|-12b15-(12)-----|--14---------------------------------------------|
|--------------------------|----------------|-------------------------------------------------|
|--------------------------|----------------|-------------------------------------------------|


|----------------------------10s12-13-12-10----10-12-10--------------------|
|----------------------10-13----------------13----------13-10-13b15-(13)---|
|-13p12p10h12-13p12p10-----------------------------------------------------|
|--------------------------------------------------------------------------|
|--------------------------------------------------------------------------|
|--------------------------------------------------------------------------|


|-----/10-------------|------------------------------|-------|-----*|
|---------13-10-------|------------------------------|-------|-----*|
|---------------12-10-|-12s14s12p10----10-12s14--10--|-------|-----*|
|---------------------|-------------12---------------|-------|-----*|
|---------------------|------------------------------|-------|-----*|
|---------------------|------------------------------|-------|-----*|

thank you for the tabs bitches
comments
print report bad tab
47 comments total. Showing first comments.
-1 reply
avenged7foldrox wrote on October 19 2005, 01:10 pm

here you go

-1 reply
avenged7foldrox wrote on October 19 2005, 01:23 pm

weeeeeeeeeeeeeeeeeeeeeeeeeeeeeeeeeeeeeeeeeeeeeeeeeeeeeeeeeeeeeeeeeeeeeeeeeeeeeeeeeeeeeeeeeeeeeeeeeeeeeeeeeeeeeeeeeeeeeeeeeeeeeeeeeeeeeeeeeeeeeeeeeeeeeeeeeeeeeeeeeeeeeeeeeeeeeeeeeeeeeeeeeeeeeeeeeeeeeeeeeeeeeeeeeeeeeeeeeeeeeeeeeeeeeeeeeeeeeeeeeeeeeeeeeeeeeeeeeeeeeeeeeeeeeeeeeeeeeeeeeeeeeeeeeeeeeeeeeeeeeeeeeeeeeeeeeeeeeeeeeeeeeeeeeeeeeeeeeeeeeeeeeeeeeeeeeeeeeeeeeeeeeeeeeeeeeeeeeeeeeeeeeeeeeeeeeeeeeeeeeeeeeeeeeeeee

0 reply
xxMooneYxx wrote on October 19 2005, 06:01 pm

stupid ass, you labeled some songs wrong, and man what's the point? you just copied all our tabs...its pointless.

I want to post or [tab]
guest
You may want to rate the tab now too:
select rating
Please do not post tabs as comments. Select "correction" instead!