Oops, an error
Loading. Please wait.

Clairvoyant Disease Tab

ver2
ver2

Solo

Whole song

Interactive

More versions @911Tabs.com
33,911 views 45 this week
7 commentsread comments
1 2 3 4 5
excellent!
x 21
Autoscroll
+/-
esc
set tempo
stop
Contributor
Hey! There's an official Ultimate Guitar app which is ideal
for learning songs when you're away from computer. Get the app
WARNING: You are trying to view
                                    content from Ultimate-Guitar.com
                                    in an unauthorized application,
                                    which is prohibited.

                                    Please use an official Ultimate
                                    Guitar Tabs application for iPhone,
                                    iPad or Android to access legitimate
                                    chords, guitar, bass, and drum tabs
                                    from Ultimate-Guitar.com database.

                                    Type "ultimate guitar tabs" in Apple
                                    App Store's or Android Market's
                                    search to find the application.
Yea, the other tab is pretty much completely wrong so here's one that's pretty much completely right.

CLAIRVOYANT DISEASE
As recorded by Avenged Sevenfold
(From the 2004 Album WAKING THE FALLEN)
Words and Music by Avenged Sevenfold
Arranged by Avenged Sevenfold

Gtr I (D A D G B E) 
Gtr II (D A D G B E)
Gtr III (D A D G B E)
Gtr IV (D A D G B E)
Gtr V (D A D G B E)
Gtr VI (D A D G B E)

 Intro
  Slowly Q=69
  N.C.
 4/4
  Gtr I
|---------------------------|---------------|
|---------------------------|---------------|
|---------------------------|---------------|
|-7---5-7--/8-7-5-(5)-7-(7)S|=3----2--3-(3)S|
|---------------------------|---------------|
|---------------------------|---------------|
|
| Gtr II
|---------------------------|---------------|
|---------------------------|---------------|
|---------------------------|---------------|
|---------------------------|---------------|
|-8---7-8-/10-8-7-(7)-8-(8)S|=5----4--5-(5)S|
|---------------------------|---------------|


|---------------------------|-------------------||
|---------------------------|-------------------||
|---------------------------|-------------------||
|-7---5-7--/8-7-5-(5)-7-(7)S|=3---(3)S5---(5)\--||
|---------------------------|-------------------||
|---------------------------|-------------------||
|
|---------------------------|-------------------||
|---------------------------|-------------------||
|---------------------------|-------------------||
|---------------------------|-------------------||
|-8---7-8-/10-8-7-(7)-8-(8)S|=5---(5)S7---(7)\--||
|---------------------------|-------------------||


   Verse
    (Dmadd2)
    Gtr III
||---------0---------0------5--------0--(0)-----0-|
||o-----------6--(6)--------------6---------------|
||------2--------------2--------------------2-----|
||---0-------------------0-----0--------------0---|
||o-----------------------------------------------|
||------------------------------------------------|
|
|   Gtr IV
||--------12---------------------12---------------|
||o-----------------------------------------------|
||-----14----14-(14)----------14----14-(14)-------|
||--12---------------------12---------------------|
||o-----------------------------------------------|
||------------------------------------------------|


  (Bbmaj7add4)
                                           3x
|----------0--(0)-------5-----0------------||
|-------3---------3--------------3--------o||
|----3--------------3----------------0-----||
|--------------------------3---------------||
|-1-------------------1-------------------o||
|------------------------------------------||
|
|                                          3x
|------10--------------------10------------||
|-----------------------------------------o||
|---10----10-(10)---------10----10-(10)----||
|-8---------------------8------------------||
|-----------------------------------------o||
|------------------------------------------||


  (Dmadd2)
|--------0---------0------5--------0--(0)-----0-|
|-----------6--(6)--------------6---------------|
|-----2--------------2--------------------2-----|
|--0-------------------0-----0--------------0---|
|-----------------------------------------------|
|-----------------------------------------------|
|
|-------12---------------------12---------------|
|-----------------------------------------------|
|----14----14-(14)----------14----14-(14)-------|
|-12---------------------12---------------------|
|-----------------------------------------------|
|-----------------------------------------------|


  (Bbmaj7add4)          Bbadd4
|----------0--(0)-------^-0----||
|-------3---------3-----^-3----||
|----3--------------3---^-3----||
|------------------------------||
|-1-------------------1--------||
|------------------------------||
|
|------10---------------^10----||
|-----------------------^-8----||
|---10----10-(10)-------^10----||
|-8---------------------^-8----||
|------------------------------||
|------------------------------||


   Chorus
    $                                              To Coda
    D5         Em7D5         F6/D D5   BbD5  BbD5   AbD5  A5
    Gtrs I, II
     ~~~~~~~~~~~~~~~~~~~~~~~~~~~~~~~~~~~~~~~~~~~~~
||------------------------------|-----------------------------||
||o-15------------15------------|-15-----------15------------o||
||------------------------------|-----------------------------||
||------------------------------|-----------------------------||
||o-----------------------------|----------------------------o||
||------------------------------|-----------------------------||
|
|   Gtr V
|    PM|   PM|     PM|   PM|       PM|   PM|    PM|   PM|
||------------------------------|-----------------------------||
||o-----------------------------|----------------------------o||
||------------------------------|-----------------------------||
||-------0-----5\------0-----7\-|------3-----2----------------||
||o--0-0-0-0-0-7\--0-0-0-0-0-8\-|--0-0-1-0-0-1--0-0-7-0-0-7\-o||
||---0-0-0-0-0-0---0-0-0-0-0-0--|--0-0---0-0----0-0-6-0-0-7\--||


    D5                  Em7/D D5                 F6/D
    Gtr I
||--------------15b17---(15)--------15b17-(15)---(15)\-|
||o-------15-13---------------15-----------------------|
||----/14------------------------14--------------------|
||-----------------------------------------------------|
||o----------------------------------------------------|
||-----------------------------------------------------|
|
|   Gtr II
||--------------15b17---(15)--------15b17-(15)---(15)\-|
||o-------15-13---------------15-----------------------|
||----/14------------------------14--------------------|
||-----------------------------------------------------|
||o----------------------------------------------------|
||-----------------------------------------------------|
|
|   Gtr V
|   PM|          PM---|        PM|          PM-|
||-----------------------------------------------------|
||o----------------------------------------------------|
||-----------------------------------------------------|
||---------0--------------5\---------0-------------7\--|
||o-0---0--0-----0----0---7\---0--0--0------0--0---8\--|
||--0---0--0-----0----0---0----0--0--0------0--0---0---|


  D5    Bb5     D5    Bbb5    D5    Ab6     D5    A5
    ~~~           ~~~           ~~~           ~~~
|------------------------------------------------------------||
|-/15-----(15)\-/14-----(14)\-/13-----(13)\-/14------(14)\--o||
|------------------------------------------------------------||
|------------------------------------------------------------||
|-----------------------------------------------------------o||
|------------------------------------------------------------||
|
|   ~~~           ~~~           ~~~           ~~~
|------------------------------------------------------------||
|-----------------------------------------------------------o||
|-/15-----(15)\-/14-----(14)\-/13-----(13)\-/14------(14)\---||
|------------------------------------------------------------||
|-----------------------------------------------------------o||
|------------------------------------------------------------||
|
|   PM|           PM|           PM|           PM|
|------------------------------------------------------------||
|-----------------------------------------------------------o||
|------------------------------------------------------------||
|-------3-------------2--------------------------------------||
|---0-0-1---------0-0-1---------0-0-7---------0-0-7\--------o||
|---0-0-----------0-0-----------0-0-6---------0-0-7\---------||


   Verse
    N.C.
    Gtr II
||------------------------------------------|
||o-----------------------------------------|
||------------------------------------------|
||---------2--3--(3)-2h3-/5-----3--2--(2)-3-|
||o-----0-----------------------------------|
||---0--------------------------------------|
|
|   Gtr IV
||--------12-------------------12-----------|
||o-----------------------------------------|
||-----14----14-(14)--------14----14-(14)---|
||--12-------------------12-----------------|
||o-----------------------------------------|
||------------------------------------------|


                    ~
                                      3x
|-------------------------------------||
|------------------------------------o||
|-------3--5--(5)-5s7-----------------||
|----3--------------------------------||
|-1----------------------------------o||
|-------------------------------------||
|
|                                     3x
|------10----------------10-----------||
|------------------------------------o||
|---10----10-(10)-----10----10-(10)---||
|-8-----------------8-----------------||
|------------------------------------o||
|-------------------------------------||


                                                  D.S. al Coda
  N.C.                                                        Bb6add2
                                                                ~~~
|-----------------------------------------|--------------------------||
|-----------------------------------------|--------------------------||
|-----------------------------------------|-------3--5--(5)-5s==7----||
|--------2--3--(3)-2h3-/5-----3--2--(2)-3-|----3---------------------||
|-----0-----------------------------------|-1------------------------||
|--0--------------------------------------|--------------------------||
|
|-------12-------------------12-----------|------10-----------^10----||
|-----------------------------------------|-------------------^-8----||
|----14----14-(14)--------14----14-(14)---|---10----10-(10)---^10----||
|-12-------------------12-----------------|-8-----------------^-8----||
|-----------------------------------------|--------------------------||
|-----------------------------------------|--------------------------||


    &
    D5                  Em7/D D5                 F6/D
    Gtr I
||--------------15b17---(15)--------15b17-(15)---(15)\-|
||o-------15------------------15-----------------------|
||----/14----14------------------14--------------------|
||-----------------------------------------------------|
||o----------------------------------------------------|
||-----------------------------------------------------|
|
|   Gtr II
||--------------15b17---(15)--------15b17-(15)---(15)\-|
||o-------15------------------15-----------------------|
||----/14----14------------------14--------------------|
||-----------------------------------------------------|
||o----------------------------------------------------|
||-----------------------------------------------------|
|
|   Gtr V
|   PM|          PM---|        PM|          PM-|
||-----------------------------------------------------|
||o----------------------------------------------------|
||-----------------------------------------------------|
||---------0--------------5\---------0-------------7\--|
||o-0---0--0-----0----0---7\---0--0--0------0--0---8\--|
||--0---0--0-----0----0---0----0--0--0------0--0---0---|


  D5    Bb5     D5    Bbb5    D5    Ab6     D5    A5
    ~~~           ~~~           ~~~           ~~~
|------------------------------------------------------------||
|-/15-----(15)\-/14-----(14)\-/13-----(13)\-/14------(14)\--o||
|------------------------------------------------------------||
|------------------------------------------------------------||
|-----------------------------------------------------------o||
|------------------------------------------------------------||
|
|   ~~~           ~~~           ~~~           ~~~
|------------------------------------------------------------||
|-----------------------------------------------------------o||
|-/15-----(15)\-/14-----(14)\-/13-----(13)\-/14------(14)\---||
|------------------------------------------------------------||
|-----------------------------------------------------------o||
|------------------------------------------------------------||
|
|   PM|           PM|           PM|           PM|
|------------------------------------------------------------||
|-----------------------------------------------------------o||
|------------------------------------------------------------||
|-------3-------------2--------------------------------------||
|---0-0-1---------0-0-1---------0-0-7---------0-0-7\--------o||
|---0-0-----------0-0-----------0-0-6---------0-0-7\---------||


 Interlude
  Faster Q=142
  D5                      Bb5
  Gtrs I, II
                               PM--------|
|-----------------------|------------------|
|-----------------------|------------------|
|-----------------------|------------------|
|--0-----0-(0)--0---0-0-|-8----------------|
|--0-----0-(0)--0---0-0-|-8----8-8-8-8-8-8-|
|--0-----0-(0)--0---0-0-|-8----8-8-8-8-8-8-|
|
| Gtr V
|-----------------------|------------------|
|--------5--6p5h6p5-----|----/10---8---5---|
|-/7---7------------7---|------------------|
|----7----------------7-|-8----------------|
|-----------------------|------------------|
|-----------------------|------------------|


  D5                      Bb5
                               PM--------|
|-----------------------|------------------|
|-----------------------|------------------|
|-----------------------|------------------|
|--0-----0-(0)--0---0-0-|-8----------------|
|--0-----0-(0)--0---0-0-|-8----8-8-8-8-8-8-|
|--0-----0-(0)--0---0-0-|-8----8-8-8-8-8-8-|
|
|-----------------------|------------------|
|--------5--6p5h6p5-----|----/10---8---5---|
|-/7---7------------7---|----------------7-|
|----7----------------7-|-8----------------|
|-----------------------|------------------|
|-----------------------|------------------|


  C/E           D5E5  F5                  G5    D5E6    G6
|-------------------|-------------------|------------------|
|-------------------|-------------------|------------------|
|-------------------|-------------------|------------------|
|-2-2---2-(2)-2-0-2-|-3-3---3-(3)-3-3-3-|-5-5-5---2-(2)S5--|
|-3-3---3-(3)-3-0-2-|-3-3---3-(3)-3-3-3-|-5-5-5-0-4-(4)S7--|
|-2-2---2-(2)-2-0-2-|-3-3---3-(3)-3-3-3-|-5-5-5-0-2-(2)S5--|
|
|-6-5---------------|-5-----------------|------------------|
|-----8-6--5----6-8-|---8-6-5-------5-6-|-8-6-5---5-(5)S8--|
|-------------5-----|----------7--------|-------7----------|
|-------------------|-------------------|------------------|
|-------------------|-------------------|------------------|
|-------------------|-------------------|------------------|


  D5                      Bb5
                               PM--------------------|
|-----------------------|------------------------------|
|-----------------------|------------------------------|
|-----------------------|------------------------------|
|--0-----0-(0)--0---0-0-|-8----------------------------|
|--0-----0-(0)--0---0-0-|-8----8-8-8-8-8-8-8-8-8-8-8-8-|
|--0-----0-(0)--0---0-0-|-8----8-8-8-8-8-8-8-8-8-8-8-8-|
|
|-----------------------|------------------------------|
|--------5--6p5h6p5-----|----/10-------8-------5-------|
|-/7---7------------7---|------------------------------|
|----7----------------7-|-8----------------------------|
|-----------------------|------------------------------|
|-----------------------|------------------------------|


  D5                     Bb5
                              PM--------------------|
|----------------------|---------------------------------|
|----------------------|---------------------------------|
|----------------------|---------------------------------|
|--0----0-(0)--0---0-0-|-8-------------------------------|
|--0----0-(0)--0---0-0-|-8----8-8-8-8-8-8-8-8-8-8-8-8----|
|--0----0-(0)--0---0-0-|-8----8-8-8-8-8-8-8-8-8-8-8-8----|
|
|----------------------|---------------------------------|
|-------5--6p5h6p5-----|----/10-------8-------5----------|
|-/7--7------------7---|--------------------------7------|
|--------------------7-|-8-------------------------------|
|----------------------|---------------------------------|
|----------------------|---------------------------------|


  C/E           D5E5  F5                  G5    D5E6    G6
|-------------------|-------------------|------------------|
|-------------------|-------------------|------------------|
|-------------------|-------------------|------------------|
|-2-2---2-(2)-2-0-2-|-3-3---3-(3)-3-3-3-|-5-5-5---2-(2)S5--|
|-3-3---3-(3)-3-0-2-|-3-3---3-(3)-3-3-3-|-5-5-5-0-4-(4)S7--|
|-2-2---2-(2)-2-0-2-|-3-3---3-(3)-3-3-3-|-5-5-5-0-2-(2)S5--|
|
|-6-5---------------|-5-----------------|------------------|
|-----8-6--5----6-8-|---8-6-5-------5-6-|-8-6-5---5-(5)S8--|
|-------------5-----|----------7--------|-------7----------|
|-------------------|-------------------|------------------|
|-------------------|-------------------|------------------|
|-------------------|-------------------|------------------|


  D5 N.C.     D5        Dm
      PM--------------|
|-------------------|-----------------||
|-------------------|-----------------||
|-------------------|-----------------||
|-0-----------------|---3-3-3-3-3-3-3-||
|-0-----------0-0-0-|-0-5-5-5-5-5-5-5-||
|-0---0---0-0-0-0-0-|-0---------------||
|
|-------------------|-----------------||
|-6--(6)\-----------|-----------------||
|-------------------|-----------------||
|-------------------|-----------------||
|-------------------|-----------------||
|-------------------|-----------------||


 Guitar Solo
  Bb5
  Gtr VI
|-------------------------|--------------------------|
|-------------------------|--------------------------|
|-------------------------|--------------------------|
|--8--8--8--8--8--8--8--8-|--8---8--8--8--8--8--8--8-|
|--8--8--8--8--8--8--8--8-|--8---8--8--8--8--8--8--8-|
|--8--8--8--8--8--8--8--8-|--8---8--8--8--8--8--8--8-|
|
| Gtrs I, II
|-------------------------|--------------------------|
|-------------------------|--------------------------|
|-15-15-15-15-15-15-15-15-|-15--15-15-15-15s14-14s12-|
|--x--x--x--x--x--x--x--x-|--x---x--x--x--x-----x----|
|-13-13-13-13-13-13-13-13-|-13--13-13-13-13s12-12s10-|
|-------------------------|--------------------------|
|
| Gtr V
|  ~~~~~~~~~~~~~~~~~~~~~~~~~~~~~
|-/6----------------------|-(6)----------/6--5-------|
|-------------------------|---------------------8--6-|
|-------------------------|--------------------------|
|-------------------------|--------------------------|
|-------------------------|--------------------------|
|-------------------------|--------------------------|


  C5
|-----------------------------|-----------------------------|
|-----------------------------|-----------------------------|
|-----------------------------|-----------------------------|
|-10-10-10-10-10-10-10---10---|-10-10-10-10-10--10-10-10----|
|-10-10-10-10-10-10-10---10---|-10-10-10-10-10--10-10-10----|
|-10-10-10-10-10-10-10---10---|-10-10-10-10-10--10-10-10----|
|
|-----------------------------|-----------------------------|
|-----------------------------|-----------------------------|
|-12-12-12-12-12-12-12---12---|-12-12-12-12-12--12-12-12S===|
|--x--x--x--x--x--x--x----x---|--x--x--x--x--x---x--x--xS===|
|-10-10-10-10-10-10-10---10---|-10-10-10-10-10--10-10-10S===|
|-----------------------------|-----------------------------|
|
|  ~~                            ~~~~~~~~~~~~~~~
|-----------------------------|-----------------------------|
|--5-----------------5h6p===5-|------------------------6----|
|-----------------------------|--5----------(5)--5--7-------|
|-----------------------------|-----------------------------|
|-----------------------------|-----------------------------|
|-----------------------------|-----------------------------|


  F5                       D5   C/E
|-----------------------------|---------------------|
|-----------------------------|---------------------|
|-----------------------------|---------------------|
|--3-----3--3---3--3--3--3----|--2--2--2--2-2-2-2-2-|
|--3-----3--3---3--3--3--3--0-|--3--3--3--3-3-3-3-3-|
|--3-----3--3---3--3--3--3--0-|--2--2--2--2-2-2-2-2-|
|
|-----------------------------|---------------------|
|-----------------------------|---------------------|
|-14----14-14--14-14-14-14-12-|-12-12-12--9-9-9-9-9-|
|--x-----x--x---x--x--x--x--x-|--x--x--x--x-x-x-x-x-|
|-12----12-12--12-12-12-12-10-|-10-10-10--7-7-7-7-7-|
|-----------------------------|---------------------|
|
|           ~~~
|-----------------------------|---------------------|
|--8b10----(8)----------------|--5-------/6---5-----|
|-----------------------------|-------------------5-|
|-----------------------------|---------------------|
|-----------------------------|---------------------|
|-----------------------------|---------------------|


  D5
|-------------------------|--------------------------|
|-------------------------|--------------------------|
|-------------------------|--------------------------|
|--0--0--0--0--0--0--0--0-|--0---0--0--0--0--0--0--0-|
|--0--0--0--0--0--0--0--0-|--0---0--0--0--0--0--0--0-|
|--0--0--0--0--0--0--0--0-|--0---0--0--0--0--0--0--0-|
|
|-------------------------|--------------------------|
|-------------------------|--------------------------|
|-10-10-10-10-10-10-10-10-|-10--10-10-10-10-10-10-10-|
|--x--x--x--x--x--x--x--x-|--x---x--x--x--x--x--x--x-|
|--8--8--8--8--8--8--8--8-|--8---8--8--8--8--8--8--8-|
|-------------------------|--------------------------|
|
|  ~~~~~~~~~~~~~~~~~~~~~~~~~~~~~
|-------------------------|--------------------------|
|-------------------------|--------------------------|
|-/7----------------------|-(7)--------7--7--5--5----|
|-------------------------|------------------------8-|
|-------------------------|--------------------------|
|-------------------------|--------------------------|


  Bb5
|-----------------|-------------------------|
|-----------------|-------------------------|
|-----------------|-------------------------|
|-8-8-8-8-8-8-8-8-|--8--8--8---8--8-8---8-8-|
|-8-8-8-8-8-8-8-8-|--8--8--8---8--8-8---8-8-|
|-8-8-8-8-8-8-8-8-|--8--8--8---8--8-8---8-8-|
|
|-----------------|-------------------------|
|-----------------|-------------------------|
|-7-7-7-7-7-7-7-7-|--7--7--7---7--7-7---7-7-|
|-x-x-x-x-x-x-x-x-|--x--x--x---x--x-x---x-x-|
|-5-5-5-5-5-5-5-5-|--5--5--5---5--5-5---5-5-|
|-----------------|-------------------------|
|
| ~~~~~~~~~~~~~~~~~~~~~~
|-----------------|-------------------------|
|-----------------|-------------------------|
|-----------------|-------------------5---7-|
|-8---------------|-(8)---(8)\---/8---------|
|-----------------|-------------------------|
|-----------------|-------------------------|


  C5
|---------------------------|---------------------------|
|---------------------------|---------------------------|
|---------------------------|---------------------------|
|-10-10-10-10-10---10-10-10-|-10-10-10-10-10--10-10-10--|
|-10-10-10-10-10---10-10-10-|-10-10-10-10-10--10-10-10--|
|-10-10-10-10-10---10-10-10-|-10-10-10-10-10--10-10-10--|
|
|---------------------------|---------------------------|
|---------------------------|---------------------------|
|--9--9--9--9--9----9--9--9-|--9--9--9--9--9---9--9--9--|
|--x--x--x--x--x----x--x--x-|--x--x--x--x--x---x--x--x--|
|--7--7--7--7--7----7--7--7-|--7--7--7--7--7---7--7--7--|
|---------------------------|---------------------------|
|
|  ~~                                      ~~~
|---------------------------|------------------------5S=|
|-------------------------6-|--5--6--8--5-(5)-----------|
|--5----------(5)\----------|---------------------------|
|---------------------------|---------------------------|
|---------------------------|---------------------------|
|---------------------------|---------------------------|


  F5                           C/E
|----------------------------|-------------------------------|
|----------------------------|-------------------------------|
|----------------------------|-------------------------------|
|--3--3--3--3--3---3--3--3---|--2--2--2--2---2---2--2--2-----|
|--3--3--3--3--3---3--3--3---|--3--3--3--3---3---3--3--3-----|
|--3--3--3--3--3---3--3--3---|--2--2--2--2---2---2--2--2-----|
|
|----------------------------|-------------------------------|
|----------------------------|-------------------------------|
|-10-10-10-10-10--10-10-10---|--9--9--9--9---9---9--9--9-----|
|--x--x--x--x--x---x--x--x---|--x--x--x--x---x---x--x--x-----|
|--8--8--8--8--8---8--8--8---|--7--7--7--7---7---7--7--7-----|
|----------------------------|-------------------------------|
|
|--8--6--5-------------------|-13-12-10----------------------|
|-----------8-(8)--6--8-(8)\-|----------10-(10)-13-10-13b15==|
|----------------------------|-------------------------------|
|----------------------------|-------------------------------|
|----------------------------|-------------------------------|
|----------------------------|-------------------------------|


  D5
|---------------------------|----------------------------------||
|---------------------------|----------------------------------||
|---------------------------|----------------------------------||
|---0---0--0--0--0--0--0--0-|---0---0--0---0---0------0---0--0-||
|---0---0--0--0--0--0--0--0-|---0---0--0---0---0------0---0--0-||
|---0---0--0--0--0--0--0--0-|---0---0--0---0---0------0---0--0-||
|
|---------------------------|----------------------------------||
|---------------------------|----------------------------------||
|--10--10-10-10-10-10-10-10-|--10--10-10--10--10-----10--10-10-||
|---x---x--x--x--x--x--x--x-|---x---x--x---x---x------x---x--x-||
|---8---8--8--8--8--8--8--8-|---8---8--8---8---8------8---8--8-||
|---------------------------|----------------------------------||
|
|---------------------------|----------------------------------||
|-(13)----------------------|-(13)----13r(13)-13b15r(13)-13----||
|---------------------------|----------------------------------||
|---------------------------|----------------------------------||
|---------------------------|----------------------------------||
|---------------------------|----------------------------------||


 Verse
  Bb5
|-------------------------|---------------------------|
|-------------------------|---------------------------|
|-------------------------|---------------------------|
|--8--8--8--8--8--8--8--8-|---8---8--8--8--8--8--8--8-|
|--8--8--8--8--8--8--8--8-|---8---8--8--8--8--8--8--8-|
|--8--8--8--8--8--8--8--8-|---8---8--8--8--8--8--8--8-|
|
|-------------------------|---------------------------|
|-------------------------|---------------------------|
|-15-15-15-15-15-15-15-15-|--15--15-15-15-15s14-14s12-|
|--x--x--x--x--x--x--x--x-|---x---x--x--x--x-----x----|
|-13-13-13-13-13-13-13-13-|--13--13-13-13-13s12-12s10-|
|-------------------------|---------------------------|
|
|                             >
|  ~~~~~~~~~~~~~~~~~~~~~~~~~~~~~~
|-------------------------|---------------------------|
|-11----------------------|-(11)----------------------|
|-------------------------|---------------------------|
|-------------------------|---------------------------|
|-------------------------|---------------------------|
|-------------------------|---------------------------|


  C5
|-------------------------|--------------------------|
|-------------------------|--------------------------|
|-------------------------|--------------------------|
|-10-10-10-10-10-10-10-10-|-10-10-10-10-10-10-10-10--|
|-10-10-10-10-10-10-10-10-|-10-10-10-10-10-10-10-10--|
|-10-10-10-10-10-10-10-10-|-10-10-10-10-10-10-10-10--|
|
|-------------------------|--------------------------|
|-------------------------|--------------------------|
|-12-12-12-12-12-12-12-12-|-12-12-12-12-12-12-12-12S=|
|--x--x--x--x--x--x--x--x-|--x--x--x--x--x--x--x--xS=|
|-10-10-10-10-10-10-10-10-|-10-10-10-10-10-10-10-10S=|
|-------------------------|--------------------------|
|
|-------------------------|--------------------------|
|-------------------------|--------------------------|
|-------------------------|--------------------------|
|-------------------------|--------------------------|
|-------------------------|--------------------------|
|-------------------------|--------------------------|


  F5                        C/E
  Gtr VI
|-------------------------|--------------------|
|-------------------------|--------------------|
|-------------------------|--------------------|
|--3--3--3--3--3--3--3--3-|--2--2--2-2-2-2-2-2-|
|--3--3--3--3--3--3--3--3-|--3--3--3-3-3-3-3-3-|
|--3--3--3--3--3--3--3--3-|--2--2--2-2-2-2-2-2-|
|
| Gtrs I, II
|-------------------------|--------------------|
|-------------------------|--------------------|
|-14-14-14-14-14-14-14-12-|-12-12-12-9-9-9-9-9-|
|--x--x--x--x--x--x--x--x-|--x--x--x-x-x-x-x-x-|
|-12-12-12-12-12-12-12-10-|-10-10-10-7-7-7-7-7-|
|-------------------------|--------------------|


  D5
|-------------------------|-------------------------|
|-------------------------|-------------------------|
|-------------------------|-------------------------|
|--0--0--0--0--0--0--0--0-|--0--0--0--0--0--0--0--0-|
|--0--0--0--0--0--0--0--0-|--0--0--0--0--0--0--0--0-|
|--0--0--0--0--0--0--0--0-|--0--0--0--0--0--0--0--0-|
|
|-------------------------|-------------------------|
|-------------------------|-------------------------|
|-10-10-10-10-10-10-10-10-|-10-10-10-10-10-10-10-10-|
|--x--x--x--x--x--x--x--x-|--x--x--x--x--x--x--x--x-|
|--8--8--8--8--8--8--8--8-|--8--8--8--8--8--8--8--8-|
|-------------------------|-------------------------|


  Bb5
|-----------------|-----------------|
|-----------------|-----------------|
|-----------------|-----------------|
|-8-8-8-8-8-8-8-8-|-8-8-8-8-8-8-8-8-|
|-8-8-8-8-8-8-8-8-|-8-8-8-8-8-8-8-8-|
|-8-8-8-8-8-8-8-8-|-8-8-8-8-8-8-8-8-|
|
|-----------------|-----------------|
|-----------------|-----------------|
|-7-7-7-7-7-7-7-7-|-7-7-7-7-7-7-7-7-|
|-x-x-x-x-x-x-x-x-|-x-x-x-x-x-x-x-x-|
|-5-5-5-5-5-5-5-5-|-5-5-5-5-5-5-5-5-|
|-----------------|-----------------|


  C5
|-------------------------|-------------------------|
|-------------------------|-------------------------|
|-------------------------|-------------------------|
|-10-10-10-10-10-10-10-10-|-10-10-10-10-10-10-10-10-|
|-10-10-10-10-10-10-10-10-|-10-10-10-10-10-10-10-10-|
|-10-10-10-10-10-10-10-10-|-10-10-10-10-10-10-10-10-|
|
|-------------------------|-------------------------|
|-------------------------|-------------------------|
|--9--9--9--9--9--9--9--9-|--9--9--9--9--9--9--9--9-|
|--x--x--x--x--x--x--x--x-|--x--x--x--x--x--x--x--x-|
|--7--7--7--7--7--7--7--7-|--7--7--7--7--7--7--7--7-|
|-------------------------|-------------------------|


  D5                        C/E
|-------------------------|-----------------|
|-------------------------|-----------------|
|-------------------------|-----------------|
|-12-12-12-12-12-12-12-12-|-2-2-2-2-2-2-2-2-|
|-12-12-12-12-12-12-12-12-|-3-3-3-3-3-3-3-3-|
|-12-12-12-12-12-12-12-12-|-2-2-2-2-2-2-2-2-|
|
|-------------------------|-----------------|
|-------------------------|-----------------|
|-10-10-10-10-10-10-10-10-|-9-9-9-9-9-9-9-9-|
|--x--x--x--x--x--x--x--x-|-x-x-x-x-x-x-x-x-|
|--8--8--8--8--8--8--8--8-|-7-7-7-7-7-7-7-7-|
|-------------------------|-----------------|


  F5
|-------------------------|-------------------------|
|-------------------------|-------------------------|
|-------------------------|-------------------------|
|--3--3--3--3--3--3--3--3-|--3--3--3--3--3--3--3--3-|
|--3--3--3--3--3--3--3--3-|--3--3--3--3--3--3--3--3-|
|--3--3--3--3--3--3--3--3-|--3--3--3--3--3--3--3--3-|
|
|-------------------------|-------------------------|
|-------------------------|-------------------------|
|-10-10-10-10-10-10-10-10-|-10-10-10-10-10-10-10-10-|
|--x--x--x--x--x--x--x--x-|--x--x--x--x--x--x--x--x-|
|--8--8--8--8--8--8--8--8-|--8--8--8--8--8--8--8--8-|
|-------------------------|-------------------------|


  G5
|-------------------------|-------------------------|
|-------------------------|-------------------------|
|-------------------------|-------------------------|
|--5--5--5--5--5--5--5--5-|--5--5--5--5--5--5--5--5-|
|--5--5--5--5--5--5--5--5-|--5--5--5--5--5--5--5--5-|
|--5--5--5--5--5--5--5--5-|--5--5--5--5--5--5--5--5-|
|
|-------------------------|-------------------------|
|-------------------------|-------------------------|
|-15-15-15-15-15-15-15-15-|-15-15-15-15-15s14-14s12-|
|--x--x--x--x--x--x--x--x-|--x--x--x--x--x-----x----|
|-13-13-13-13-13-13-13-13-|-13-13-13-13-13s12-12s10-|
|-------------------------|-------------------------|


  C5
|-------------------------|--------------------------|
|-------------------------|--------------------------|
|-------------------------|--------------------------|
|-10-10-10-10-10-10-10-10-|-10-10-10-10-10-10-10-10--|
|-10-10-10-10-10-10-10-10-|-10-10-10-10-10-10-10-10--|
|-10-10-10-10-10-10-10-10-|-10-10-10-10-10-10-10-10--|
|
|-------------------------|--------------------------|
|-------------------------|--------------------------|
|-12-12-12-12-12-12-12-12-|-12-12-12-12-12-12-12-12S=|
|--x--x--x--x--x--x--x--x-|--x--x--x--x--x--x--x--xS=|
|-10-10-10-10-10-10-10-10-|-10-10-10-10-10-10-10-10S=|
|-------------------------|--------------------------|


  D5                        C/E
|-------------------------|--------------------|
|-------------------------|--------------------|
|-------------------------|--------------------|
|-12-12-12-12-12-12-12-12-|--2--2--2-2-2-2-2-2-|
|-12-12-12-12-12-12-12-12-|--3--3--3-3-3-3-3-3-|
|-12-12-12-12-12-12-12-12-|--2--2--2-2-2-2-2-2-|
|
|-------------------------|--------------------|
|-------------------------|--------------------|
|-14-14-14-14-14-14-14-12-|-12-12-12-9-9-9-9-9-|
|--x--x--x--x--x--x--x--x-|--x--x--x-x-x-x-x-x-|
|-12-12-12-12-12-12-12-10-|-10-10-10-7-7-7-7-7-|
|-------------------------|--------------------|


  F5
      PM-----------------------------------------|
|-------------------------|-------------------------||
|-------------------------|-------------------------||
|-------------------------|-------------------------||
|--3----------------------|-------------------------||
|--3--3--3--3--3--3--3--3-|--3--3--3--3--3--3--3--3-||
|--3--3--3--3--3--3--3--3-|--3--3--3--3--3--3--3--3-||
|
|-------------------------|-------------------------||
|-------------------------|-------------------------||
|-10-10-10-10-10-10-10-10-|-10-10-10-10-10-10-10-10-||
|--x--x--x--x--x--x--x--x-|--x--x--x--x--x--x--x--x-||
|--8--8--8--8--8--8--8--8-|--8--8--8--8--8--8--8--8-||
|-------------------------|-------------------------||


   Chorus
    a Tempo Q=69
    D5          Em7D5                    F6/D
    Gtr I
      ~~~~~~~~~~~~~~~~~~~~~~~~~~~~~~~~~~~~~~~
||------------------------------------------|
||o-/15------------15b18====(15)-(15)r------|
||------------------------------------------|
||------------------------------------------|
||o-----------------------------------------|
||------------------------------------------|
|
|   Gtr II
|     ~~~~~~~~~~~~~~~~~~~~~~~~~~~~~~~~~~~~~~~
||------------------------------------------|
||o-/15------------15b18====(15)-(15)r------|
||------------------------------------------|
||------------------------------------------|
||o-----------------------------------------|
||------------------------------------------|
|
|   Gtr V
|     PM|   PM|     PM----|        PM--|
||------------------------------------------|
||o-----------------------------------------|
||------------------------------------------|
||--------0-----5\------------0----------7\-|
||o---0-0-0-0-0-7\--0-----0---0----0---0-8\-|
||----0-0-0-0-0-0---0-----0---0----0---0-0--|


  D5    BbD5  BbD5      AbD5     A5
 ~~~~~~~~~~~~~~~~~~~~~~~~~~~~~~
|------------------------------------||
|-/11-------------------------------o||
|---------------12b14-----(12)-------||
|------------------------------------||
|-----------------------------------o||
|------------------------------------||
|
|~~~~~~~~~~~~~~~~~~~~~~~~~~~~~~
|------------------------------------||
|-/11-------------------------------o||
|---------------12b14-----(12)-------||
|------------------------------------||
|-----------------------------------o||
|------------------------------------||
|
|   PM|   PM|    PM---|     PM-|
|------------------------------------||
|-----------------------------------o||
|------------------------------------||
|-------3-----2----------------------||
|---0-0-1-0-0-1--0----0-7---0--0-7\-o||
|---0-0---0-0----0----0-6---0--0-7\--||


    D5                  Em7/D D5                 F6/D
||--------------15b17---(15)--------15b17-(15)---(15)\-|
||o-------15------------------15-----------------------|
||----/14----14------------------14--------------------|
||-----------------------------------------------------|
||o----------------------------------------------------|
||-----------------------------------------------------|
|
||--------------15b17---(15)--------15b17-(15)---(15)\-|
||o-------15------------------15-----------------------|
||----/14----14------------------14--------------------|
||-----------------------------------------------------|
||o----------------------------------------------------|
||-----------------------------------------------------|
|
|   PM|          PM---|        PM|          PM-|
||-----------------------------------------------------|
||o----------------------------------------------------|
||-----------------------------------------------------|
||---------0--------------5\---------0-------------7\--|
||o-0---0--0-----0----0---7\---0--0--0------0--0---8\--|
||--0---0--0-----0----0---0----0--0--0------0--0---0---|


  D5    Bb5     D5    Bbb5    D5    Ab6     D5    A5
    ~~~           ~~~           ~~~           ~~~
|------------------------------------------------------------||
|-/15-----(15)\-/14-----(14)\-/13-----(13)\-/14------(14)\--o||
|------------------------------------------------------------||
|------------------------------------------------------------||
|-----------------------------------------------------------o||
|------------------------------------------------------------||
|
|   ~~~           ~~~           ~~~           ~~~
|------------------------------------------------------------||
|-----------------------------------------------------------o||
|-/15-----(15)\-/14-----(14)\-/13-----(13)\-/14------(14)\---||
|------------------------------------------------------------||
|-----------------------------------------------------------o||
|------------------------------------------------------------||
|
|   PM|           PM|           PM|           PM|
|------------------------------------------------------------||
|-----------------------------------------------------------o||
|------------------------------------------------------------||
|-------3-------------2--------------------------------------||
|---0-0-1---------0-0-1---------0-0-7---------0-0-7\--------o||
|---0-0-----------0-0-----------0-0-6---------0-0-7\---------||


 Breakdown
  D5
  Gtrs I, II
|---------------------------|---------------------------|
|---------------------------|---------------------------|
|-9----------10S======7-----|-9----------10S======7-----|
|-x-----------xS======x-----|-x-----------xS======x-----|
|-7-----------8S======5-----|-7-----------8S======5-----|
|---------------------------|---------------------------|
|
| Gtr V
| PM----|     PM----|         PM----|     PM----|
|---------------------------|---------------------------|
|---------------------------|---------------------------|
|---------------------------|---------------------------|
|---------0-----------0-0---|---------0-----------0-0---|
|-0-0-0-0-0---0-0-0-0-0-0---|-0-0-0-0-0---0-0-0-0-0-0---|
|-0-0-0-0-0---0-0-0-0-0-0---|-0-0-0-0-0---0-0-0-0-0-0---|


  D5
|---------------------------|
|---------------------------|
|-9----------10S======7-----|
|-x-----------xS======x-----|
|-7-----------8S======5-----|
|---------------------------|
|
| PM----|     PM----|
|---------------------------|
|---------------------------|
|---------------------------|
|---------0-----------0-0---|
|-0-0-0-0-0---0-0-0-0-0-0---|
|-0-0-0-0-0---0-0-0-0-0-0---|


|-12-------------13----10---------(10)---(10)-------||
|-15b17----------16b18-13b15======(13)r==(13)-------||
|---------------------------------------------------||
|---------------------------------------------------||
|---------------------------------------------------||
|---------------------------------------------------||
|
|  PM-------|                 PM|      PM---------|
|---------------------------------------------------||
|---------------------------------------------------||
|---------------------------------------------------||
|-------------0-------------------------------------||
|--0----0-0-0-0---------------0-0------0---0--0-0-0-||
|--0----0-0-0-0---------------0-0------0---0--0-0-0-||


 Outro
  D5         (Dmadd2)
  Gtr V
              >
|----------|---------------------------------------|
|----------|---------------------------------------|
|----------|---------------------------------------|
|-0--------|-(0)-----------------------------------|
|-0--------|-(0)-----------------------------------|
|-0--------|-(0)-----------------------------------|
|
| Gtrs III, IV
|----------|-------0-------0-----5-----0-(0)-----0-|
|----------|---------6-(6)-----------6-------------|
|----------|-----2-----------2---------------2-----|
|----------|--0----------------0---0-----------0---|
|----------|---------------------------------------|
|----------|---------------------------------------|


  (Bbmaj7add4)
|-----------------------------------|
|-----------------------------------|
|-----------------------------------|
|-(0)-------------------------------|
|-(0)-------------------------------|
|-(0)-------------------------------|
|
|---------0-(0)-------5---0---------|
|-------3-------3-----------3-(3)---|
|-----3-----------3-----------------|
|-----------------------3-----------|
|--1----------------1---------------|
|-----------------------------------|


  (Dmadd2)                              (Bbmaj7add4)
  Gtrs III, IV
|-----0-------0-----5-----0-(0)-----0-|-------0-(0)-------5---0------|
|-------6-(6)-----------6-------------|-----3-------3-----------3----|
|---2-----------2---------------2-----|---3-----------3-----------0--|
|-0---------------0---0-----------0---|---------------------3--------|
|-------------------------------------|-1---------------1------------|
|-------------------------------------|------------------------------|


  (Dmadd2)
  Gtr III
|--------0---------0------5--------0--(0)-----0-|
|-----------6--(6)--------------6---------------|
|-----2--------------2--------------------2-----|
|--0-------------------0-----0--------------0---|
|-----------------------------------------------|
|-----------------------------------------------|
|
| Gtr IV
|-------12---------------------12---------------|
|-----------------------------------------------|
|----14----14-(14)----------14----14-(14)-------|
|-12---------------------12---------------------|
|-----------------------------------------------|
|-----------------------------------------------|
|
| Gtr II
|-----------------------------------------------|
|-----------------------------------------------|
|-----------------------------------------------|
|--------2--3--(3)---2h3-/5-----3--2--(2)-3-----|
|-----0-----------------------------------------|
|--0--------------------------------------------|


  (Bbmaj7add4)
|----------0--(0)-------5-----0----------|
|-------3---------3--------------3-------|
|----3--------------3----------------0---|
|--------------------------3-------------|
|-1-------------------1------------------|
|----------------------------------------|
|
|------10--------------------10----------|
|----------------------------------------|
|---10----10-(10)---------10----10-(10)--|
|-8---------------------8----------------|
|----------------------------------------|
|----------------------------------------|
|
|                       ~
|----------------------------------------|
|----------------------------------------|
|-------3--5--(5)-----5s7----------------|
|----3-----------------------------------|
|-1--------------------------------------|
|----------------------------------------|


  (Dmadd2)
|--------0---------0------5--------0--(0)-----0-|
|-----------6--(6)--------------6---------------|
|-----2--------------2--------------------2-----|
|--0-------------------0-----0--------------0---|
|-----------------------------------------------|
|-----------------------------------------------|
|
|-------12---------------------12---------------|
|-----------------------------------------------|
|----14----14-(14)----------14----14-(14)-------|
|-12---------------------12---------------------|
|-----------------------------------------------|
|-----------------------------------------------|
|
|-----------------------------------------------|
|-----------------------------------------------|
|-----------------------------------------------|
|--------2--3--(3)---2h3-/5-----3--2--(2)-3-----|
|-----0-----------------------------------------|
|--0--------------------------------------------|


  (Bbmaj7add4)          Bbadd4
|----------0--(0)-------^-0----*|
|-------3---------3-----^-3----*|
|----3--------------3---^-3----*|
|------------------------------*|
|-1-------------------1--------*|
|------------------------------*|
|
|------10---------------^10----*|
|-----------------------^-8----*|
|---10----10-(10)-------^10----*|
|-8---------------------^-8----*|
|------------------------------*|
|------------------------------*|
|
|                         ~~~
|------------------------------*|
|------------------------------*|
|-------3--5--(5)-----5s==7----*|
|----3-------------------------*|
|-1----------------------------*|
|------------------------------*|



Tablature Legend
----------------
 h   - hammer-on
 p   - pull-off
 b   - bend
 pb  - pre-bend
 r   - bend release (if no number after the r, then release immediately)
 /\  - slide into or out of (from/to "nowhere")
 s   - legato slide
 S   - shift slide
<n> - natural harmonic
[n]  - artificial harmonic
n(n) - tapped harmonic
 ~   - vibrato
 tr  - trill
 T   - tap
 TP  - trem. picking
 PM  - palm muting
\n/  - tremolo bar dip; n = amount to dip
 \n  - tremolo bar down
 n/  - tremolo bar up
/n\  - tremolo bar inverted dip
 =   - hold bend; also acts as connecting device for hammers/pulls
 <> - volume swell (louder/softer)
 x   - on rhythm slash represents muted slash
 o   - on rhythm slash represents single note slash
comments
print report bad tab
7 comments total. Showing first comments.
0 reply
kiefermatot wrote on December 31 2005, 05:11 pm

Awesome.

0 reply
NoideaDrivethru wrote on May 13 2006, 02:24 pm

Yeah dude, I think you pretty much hit the nail on the head for this one. Great tab.

0 reply
Lord Of Donkeys wrote on June 28 2007, 12:16 pm

nice work

I want to post or [tab]
guest
You may want to rate the tab now too:
select rating
Please do not post tabs as comments. Select "correction" instead!