Oops, an error
Loading. Please wait.

Critical Acclaim Tab

10,610 views 1 this week
1 commentread comment
1 2 3 4 5
accurate
x 9
Autoscroll
+/-
esc
set tempo
stop
Contributor
Difficulty
Tuning
intermediate
D A D G B E
WARNING: You are trying to view
                                    content from Ultimate-Guitar.com
                                    in an unauthorized application,
                                    which is prohibited.

                                    Please use an official Ultimate
                                    Guitar Tabs application for iPhone,
                                    iPad or Android to access legitimate
                                    chords, guitar, bass, and drum tabs
                                    from Ultimate-Guitar.com database.

                                    Type "ultimate guitar tabs" in Apple
                                    App Store's or Android Market's
                                    search to find the application.
Tuning: Drop D

Guitar 1: Lead - Left
Guitar 2: Lead - Right
Guitar 3: Rhythm
Guitar 4: Chorus Lead - Left
Guitar 5: Chorus Lead - Right
Guitar 6: Guitar Solo Harmony

Critical Acclaim:

Intro (0:23):

Guitar 1:

E |---------------------------15h17p15-------------------------------------|
B |---/18--15------/18-17---------------18-17-12--/17b-(18)-r17--15h17p15--|
G |------------14----------------------------------------------------------|
D |------------------------------------------------------------------------|
A |------------------------------------------------------------------------|
D |------------------------------------------------------------------------|

Guitar 2:

E |------------------------|
B |------------------------|
G |--------5~--3~--5~------|
D |---0~---5~--3~--5~--0~--|
A |---0~---3~--1~--3~--0~--|
D |---0~---------------0~--|

Guitar 3:

E |------------------------|
B |------------------------|
G |--------5~--3~--5~------|
D |---0~---5~--3~--5~--0~--|
A |---0~---3~--1~--3~--0~--|
D |---0~---------------0~--|

Guitar 1:

E |---------------------------15h17p15-------------------------------------|
B |---/18--15------/18-17---------------18-17-12--/17b-(18)-r17--15h17p15--|
G |------------14----------------------------------------------------------|
D |------------------------------------------------------------------------|
A |------------------------------------------------------------------------|
D |------------------------------------------------------------------------|

Guitar 2:

E |--/17--13------/22--20-------------------------------/15b-(16)-r15--13h15p13--|
B |-----------15------------17h18p17--15--13-------------------------------------|
G |------------------------------------------14----------------------------------|
D |------------------------------------------------------------------------------|
A |------------------------------------------------------------------------------|
D |------------------------------------------------------------------------------|


Guitar 3:

E |------------------------|
B |------------------------|
G |--------5~--3~--5~------|
D |---0~---5~--3~--5~--0~--|
A |---0~---3~--1~--3~--0~--|
D |---0~---------------0~--|

Post-Intro (0:45):

Guitar 1:

E |-----------------|
B |---19b-(21)-x24--|
G |-----------------|
D |-----------------|
A |-----------------|
D |-----------------|

Guitar 2:

E |-----------------|
B |---17b-(19)-x24--|
G |-----------------|
D |-----------------|
A |-----------------|
D |-----------------|

Guitar 3:

E |------------------------|
B |------------------------|
G |------------------------|
D |------------------------| x 12
A |------------------------|
D |---0-0-0-0-0-0-0-0-0-0--|
       . . . . . . . . . .

Pre-Verse (0:56):

Guitar 1:

E |-----------------------------|       |-------------------------------------------|
B |-------------------17--------|       |---17--------17--------17--------17--------|
G |-------------------20b-(22)--|       |---20b-(22)--20b-(20)--20b-(22)--20b-(20)--|
D |-----------------------------| x 5   |-------------------------------------------|
A |-----------------------------|       |-------------------------------------------|
D |---0-0-0-0-0-0-0-------------|       |-------------------------------------------|
      . . . . . . .

Guitar 2:

E |---------------------14--------|      |---14--------14--------14--------14--------|
B |---------------------17b-(19)--|      |---17b-(19)--17b-(17)--17b-(19)--17b-(17)--|
G |-------------------------------|      |-------------------------------------------|
D |-------------------------------| x 5  |-------------------------------------------|
A |-------------------------------|      |-------------------------------------------|
D |---0-0-0-0-0-0-0---------------|      |-------------------------------------------|
      . . . . . . .

Guitar 3:

E |------------------|
B |------------------|
G |------------------|
D |------------------| x 5
A |------------------|
D |---0-0-0-0-0-0-0--|
      . . . . . . .

Verse (1:06):

Guitar 1:

E |------------------------------|
B |------------------------------|
G |------------------------------|
D |--0------1--0---0-------1--1--| x 4
A |--0------1--0---0-------1--1--|
D |--0--0-0-1--0---0---0-0-1--1--|
        . .            . .

Guitar 2:

E |------------------------------|
B |------------------------------|
G |------------------------------|
D |--0------1--0---0-------1--1--| x 4
A |--0------1--0---0-------1--1--|
D |--0--0-0-1--0---0---0-0-1--1--|
        . .            . .

Pre-Chorus (1:20):

Guitar 1:

E |--------------------------------|
B |--------------------------------|
G |--------------------------------|
D |--0------1--0---0---------1--1--| x 3
A |--0------1--0---0---------1--1--|
D |--0--0-0-1--0---0-0-0-0-0-1--1--|
        . .          . . . .

E |---13--10----------12--10----------------------------------------------------------|
B |------------10---------------10------------------------------10--13--13b-(15)-r13--|
G |----------------10---------------10--9-------9-------9--10-------------------------|
D |------------------------------------------11-----12--------------------------------|
A |-----------------------------------------------------------------------------------|
D |-----------------------------------------------------------------------------------|

Guitar 2:

E |--------------------------------|
B |--------------------------------|
G |--------------------------------|
D |--0------1--0---0---------1--1--| x 3
A |--0------1--0---0---------1--1--|
D |--0--0-0-1--0---0-0-0-0-0-1--1--|
        . .          . . . .

E |--17--13----------16--13----------------------------------------------12b-(13)-r12--|
B |-----------15---------------15------------------------------------10----------------|
G |---------------14---------------14--13------12--10------------10--------------------|
D |----------------------------------------14-----------11--12-------------------------|
A |------------------------------------------------------------------------------------|
D |------------------------------------------------------------------------------------|

Guitar 3:

E |--------------------------------|
B |--------------------------------|
G |--------------------------------|
D |--0------1--0---0---------1--1--| x 4
A |--0------1--0---0---------1--1--|
D |--0--0-0-1--0---0-0-0-0-0-1--1--|
        . .          . . . .

Chorus (1:34):

Guitar 4:

E |----------------------------------------|
B |----------------------------------------|
G |--7--7\9--9/7--7-(7)/10\9--6--7--9--10--|
D |--x--x-x--x-x--x-(x)-x--x--x--x--x---x--|
A |--5--5\7--7/5--5-(5)/8\-7--4--5--7---8--|
D |----------------------------------------|

Guitar 5:

E |---------------------------------------|
B |---------------------------------------|
G |--7--7/9--9\7--7-(7)/10\9--9-10-12-14--|
D |--x--x-x--x-x--x-(x)-x--x--x--x--x--x--|
A |--5--5/7--7\5--5-(5)/8\-7--7--8-10-12--|
D |---------------------------------------|

Guitar 3:

E |------------------|
B |------------------|
G |------------------|
D |--0~--2~--8~--7~--|
A |--0~--3~--8~--7~--|
D |--0~--2~--8~--7~--|

Post-Chorus (1:48):

Guitar 1:

E |-------------------------|
B |-------------------------|
G |-------Dive-Bombs--------|
D |-------------------------|
A |-------------------------|
D |-------------------------|

Guitar 2:

E |------------------------------|
B |------------------------------|
G |------------------------------|
D |---1--0-----------------1--0--| x 2
A |---1--0-----------------1--0--|
D |---1--0-0-0-0-0-0-0-0-0-1--0--|
           . . . . . . . .

E |----------------------------------------------|
B |----------------------------------------------|
G |----------------------------------------------|
D |---1--0-----------------1--0------------------| x 2
A |---1--0-----------------1--0------------------|
D |---1--0-0-0-0-0-0-0-0-0-1--0-0-0-0-0-0-0-0-0--|
           . . . . . . . .      . . . . . . . .

E |-----------------------------------------------------|
B |-----------------------------------------------------|
G |-----------------------------------------------------|
D |---1--0-----------------1--0------------------1/3\1--|
A |---1--0-----------------1--0------------------1/3\1--|
D |---1--0-0-0-0-0-0-0-0-0-1--0-0-0-0-0-0-0-0-0--1/3\1--|
           . . . . . . . .      . . . . . . . .








Guitar 3:

E |------------------------------|
B |------------------------------|
G |------------------------------|
D |---1--0-----------------1--0--| x 2
A |---1--0-----------------1--0--|
D |---1--0-0-0-0-0-0-0-0-0-1--0--|
           . . . . . . . .

E |---------------------------------------------|
B |---------------------------------------------|
G |---------------------------------------------|
D |---1--0-----------------1--0-----------------| x 2
A |---1--0-----------------1--0-----------------|
D |---1--0-0-0-0-0-0-0-0-0-1--0-0-0-0-0-0-0-0-0-|
           . . . . . . . .      . . . . . . . .

E |----------------------------------------------------|
B |----------------------------------------------------|
G |----------------------------------------------------|
D |---1--0-----------------1--0-----------------1/3\1--|
A |---1--0-----------------1--0-----------------1/3\1--|
D |---1--0-0-0-0-0-0-0-0-0-1--0-0-0-0-0-0-0-0-0-1/3\1--|
           . . . . . . . .      . . . . . . . .

Pre-Verse:

Verse:

Chorus:

Post-Chorus:

Bridge (3:06):

Guitar 1:

E |----------------------------------------------------------------------------------|
B |----------------------------------------------------------------------------------|
G |---------5---------------------------------------------5------7-------------------|
D |--5------5-x4---3------8------8-7-6------5------5------5-x4---7-x4---0------5-----|
A |--5-x4---3------3-x4---8-x4---8-7-6-x3---6-x2---5-x2---3------5------0-x4---5-x8--|
D |--5-------------3------8------8-7-6------5------5--------------------0------5-----|

Guitar 2:

E |----------------------------------------------------------------------------------|
B |----------------------------------------------------------------------------------|
G |---------5---------------------------------------------5------7-------------------|
D |--5------5-x4---3------8------8-7-6------5------5------5-x4---7-x4---0------5-----|
A |--5-x4---3------3-x4---8-x4---8-7-6-x3---6-x2---5-x2---3------5------0-x4---5-x8--|
D |--5-------------3------8------8-7-6------5------5--------------------0------5-----|

Guitar Solo 1 (3:27):

E |--/10-8-7--------/8---8/15-11--------11\------------------|
B |-----------8--------8---------13----------/13-11-10-------|
G |----------------------------------12-----------------10v--|
D |----------------------------------------------------------|
A |----------------------------------------------------------|
D |----------------------------------------------------------|





E |--/6---6--8/13--11-10--------------------------------------------------|
B |-----6----------------11------11-13-----13b-(15)-r(14)-b(16)-r(14)-13--|
G |--------------------------10---------10--------------------------------|
D |-----------------------------------------------------------------------|
A |-----------------------------------------------------------------------|
D |-----------------------------------------------------------------------|

E |-----------------------------------12--|
B |--15-16-15--13--15b-(16)-r15-14-15-----|
G |---------------------------------------|
D |---------------------------------------|
A |---------------------------------------|
D |---------------------------------------|

Guitar 2:

E |------------------------------------------------------------------------------|
B |------------------------------------------------------------------------------|
G |---------5---------------------------------------------5----------------------|
D |--5------5-x4---3------8------8-7-6------5------5------5-x4---7---------------|
A |--5-x4---3------3-x4---8-x4---8-7-6-x3---6-x2---5-x2---3------7-x16-----------|
D |--5-------------3------8------8-7-6------5------5-------------7---------------|

Guitar 3:

E |------------------------------------------------------------------------------|
B |------------------------------------------------------------------------------|
G |---------5---------------------------------------------5----------------------|
D |--5------5-x4---3------8------8-7-6------5------5------5-x4---7---------------|
A |--5-x4---3------3-x4---8-x4---8-7-6-x3---6-x2---5-x2---3------7-x16-----------|
D |--5-------------3------8------8-7-6------5------5-------------7---------------|

Post-Chorus:

Guitar Solo 2 (3:55)

Guitar 1:

E |-----------------------------|
B |-----------------------------|
G |--/7-8-10-8-7-8-10-8-10p8p7--|
D |-----------------------------|
A |-----------------------------|
D |-----------------------------|





E |-----------------------------|
B |--/7-8-12-8-7-8-12-8-12p8p7--|
G |-----------------------------|
D |-----------------------------|
A |-----------------------------|
D |-----------------------------|

E |-------------------------------------------|
B |--/13-14-17-14-13-14-17--13h14h17-x8-<13>--|
G |-------------------------------------------|
D |-------------------------------------------|
A |-------------------------------------------|
D |-------------------------------------------|

E |----------------------------------------------15-13---------13-16b-(17)-r16--|
B |---------14-----------14---------14/17-15-14---------14-15-------------------|
G |--/14-15-----15-14-15-----14-15----------------------------------------------|
D |-----------------------------------------------------------------------------|
A |-----------------------------------------------------------------------------|
D |-----------------------------------------------------------------------------|

Guitar 2:

E |----------------------------------------------|
B |--/7--8--10--8--7--8--10----10-11-10-8--------|
G |----------------------------------------11-8--|
D |----------------------------------------------|
A |----------------------------------------------|
D |----------------------------------------------|

E |------------------------------------------------------|
B |--10-8--------8---------------------------------------|
G |---------11-8----11-8-7--11-8-7-8---------------------|
D |-----------------------------------8-7-8-7------7-----|
A |--------------------------------------------10-----9--|
D |------------------------------------------------------|

E |---------------------------------------------------|
B |--/12--13--16--13--12--13--16----------------------|
G |--------------------------------12-13-16-12-13-16--|
D |---------------------------------------------------|
A |---------------------------------------------------|
D |---------------------------------------------------|

E |--------------------------------------------------|
B |--12-13-15-13-12----------------------------------|
G |------------------13-16-13-12---------------------|
D |-------------------------------15-13-12-13-12-----|
A |----------------------------------------------15--|
D |--------------------------------------------------|






E |------------------------------------------------|
B |--17--18--20--18--17--18--20--17h18h20-x8-<17>--|
G |------------------------------------------------|
D |------------------------------------------------|
A |------------------------------------------------|
D |------------------------------------------------|

E |---------------------------------------------------18-17----15-18-20b-(21)-r20--|
B |-/14--15--17--15--14--15--17--14--15--17/20-18-17--------17---------------------|
G |--------------------------------------------------------------------------------|
D |--------------------------------------------------------------------------------|
A |--------------------------------------------------------------------------------|
D |--------------------------------------------------------------------------------|

Guitar 6:

E |-----------------------------|
B |--/7-8-10-8-7-8-10-8-10p8p7--|
G |-----------------------------|
D |-----------------------------|
A |-----------------------------|
D |-----------------------------|

E |------------------------------------|
B |--12-13-16-13-12-13-16-13-16p13p12--|
G |------------------------------------|
D |------------------------------------|
A |------------------------------------|
D |------------------------------------|


E |-----------------------------------------|
B |--17-18-20-18-17-18-20-17h18h20-x8-<17>--|
G |-----------------------------------------|
D |-----------------------------------------|
A |-----------------------------------------|
D |-----------------------------------------|

Guitar 3:

E |-------------------------|
B |-------------------------|
G |-------------------------|
D |--1--0-------------------| x 3
A |--1--0-------------------|
D |--1--0--0-0-0-0-0-0-0-0--|
           . . . . . . . .

E |-----------------------|
B |-----------------------|
G |-----------------------|
D |--1--0-----------1--0--|
A |--1--0-----------1--0--|
D |--1--0--0-0-0-0--1--0--|
           . . . .


E |-------------------------|
B |-------------------------|
G |-------------------------|
D |--5--5-------------------| x 3
A |--6--5-------------------|
D |--5--5--5-5-5-5-5-5-5-5--|
           . . . . . . . .

E |----------------------|
B |----------------------|
G |----------------------|
D |--5--5----------5--5--|
A |--6--5----------6--5--|
D |--5--5--5-5-5-5-5--5--|
           . . . .


E |-----------------------------------|
B |-----------------------------------|
G |-----------------------------------|
D |--10--10---------------------------| x 3
A |--11--10---------------------------|
D |--10--10--10-10-10-10-10-10-10-10--|
             .  .  .  .  .  .  .  .

E |------------------------------|
B |------------------------------|
G |------------------------------|
D |--10--10--------------10--10--|
A |--11--10--------------11--10--|
D |--10--10--10-10-10-10-10--10--|
             .  .  .  .


E |-------------------------|
B |-------------------------|
G |-------------------------|
D |--7--7-------------------| x 3
A |--8--7-------------------|
D |--7--7--7-7-7-7-7-7-7-7--|
           . . . . . . . .

E |----------------------|
B |----------------------|
G |----------------------|
D |--7--7----------7--7--|
A |--8--7----------8--7--|
D |--7--7--7-7-7-7-7--7--|
           . . . .

Pre-Chorus:

Chorus:

Outro (4:52):

Guitar 1:

E |--------------------------------------------|
B |--7~--/7-9-10-7-9\5-/12-12-12-12-10-9/10\7--|
G |--------------------------------------------|
D |--------------------------------------------|
A |--------------------------------------------|
D |--------------------------------------------|

E |-----------------------------|
B |--/7-9-10-7-9~--/9-10-12-14--|
G |-----------------------------|
D |-----------------------------|
A |-----------------------------|
D |-----------------------------|

Guitar 2:

E |-------------------------------------|
B |--7~-/7-9-10-7-9\5-/9-9-9-9-7-5/7\3--|
G |-------------------------------------|
D |-------------------------------------|
A |-------------------------------------|
D |-------------------------------------|

E |--------------------------|
B |--/3-5-7-3-6~--/6-7-9-10--|
G |--------------------------|
D |--------------------------|
A |--------------------------|
D |--------------------------|

Guitar 4:

E |-----------------------------------------|
B |-----------------------------------------|
G |--7~--7--9--10--7--9\5--7--6---6-7-9-10--|
D |--x~--x--x---x--x--x-x--x--x---x-x-x--x--|
A |--5~--5--7---8--5--7\3--5--4---4-5-7--8--|
D |-----------------------------------------|

Guitar 5:

E |-------------------------------------------|
B |-------------------------------------------|
G |--7~--7--9--10--7--9\5--7--9---9-10-12-14--|
D |--x~--x--x---x--x--x-x--x--x---x--x--x--x--|
A |--5~--5--7---8--5--7\3--5--7---7--8-10-12--|
D |-------------------------------------------|

Guitar 3:

E |------------------|
B |------------------|
G |------------------|
D |--0~--2~--8~--7~--|
A |--0~--3~--8~--7~--|
D |--0~--2~--8~--7~--|

Post-Intro:

This is my first tab so go easy on me, this sounds perfect to me but if you see any 
mistakes or just want to critisize me then leave a comment.
comments
print report bad tab
1 comment total.
+1 reply
Avivka24 wrote on June 10 2013, 12:05 pm

18-17-12--/17b-(18)-r17--15h17p15

should be
18-17-13--/17b-(18)-r17--15h17p15

in my opinion

I want to post or [tab]
guest
You may want to rate the tab now too:
select rating
Please do not post tabs as comments. Select "correction" instead!