Oops, an error
Loading. Please wait.

Danger Line Tab

ver2
ver2
More versions @911Tabs.com
101,841 views 256 this week
12 commentsread comments
1 2 3 4 5
excellent!
x 24
Autoscroll
+/-
esc
set tempo
stop
Contributor
Difficulty
Tuning
advanced
D A D G B E
Hey! There's an official Ultimate Guitar app which is ideal
for learning songs when you're away from computer. Get the app
WARNING: You are trying to view
                                    content from Ultimate-Guitar.com
                                    in an unauthorized application,
                                    which is prohibited.

                                    Please use an official Ultimate
                                    Guitar Tabs application for iPhone,
                                    iPad or Android to access legitimate
                                    chords, guitar, bass, and drum tabs
                                    from Ultimate-Guitar.com database.

                                    Type "ultimate guitar tabs" in Apple
                                    App Store's or Android Market's
                                    search to find the application.
I've completed my Danger Line tab. It was a lot harder than Nightmare, but it's done.
I tried to get every note down precisely and I am very satisfied with it.
I don't think it could be more  but thats for you to decide. Hope you all enjoy it.


Legend:  /    = slide from lower frets
         \    = slide from higher frets
         ~    = virbato
         .    = palm mute
         b    = bend string
         r    = release bend
        ===   = tremelo pick
      |--3--| = all notes within this symbol are triplets
                (I only noted the ones the would've been hard to understand with out it)
                (The ones with S3 = 16th note triplets)
                (The ones with T3 = 32th note triplets)
        X2    = play multiple times
______________________________________________________________

All guitars are tuned down to Drop D (D,A,D,G,B,E)

Guitar 1 (Lead Guitar/Left ear parts of harmonies)
Guitar 2 (Rythym Guitar/Right ear parts of harmonies)
Guitar 3 (Overdubbed Rythym)
Guitar 4 (Overdubbed left ear parts of harmonies)
Guitar 5 (Overdubbed right ear parts of harmonies)
_________________________________________________________

INTRO (PART I)

Guitar 3
E|-------------------------------------------------|
B|-------------------------------------------------|
G|-------------------------------------------------|
D|-------------------------------------------------|
A|-------------------------------------------------|
D|-0-----0-0-0-0-----0-0-0-0-----0-0-0-0-----0-----|
   .     . . . .     . . . .     . . . .     .


E|-----------------------------------------------|
B|-----------------------------------------------|
G|-----------------------------------------------|
D|-----------------------------------------------|
A|-----------------------------------------------|
D|-0-----0-0-0-0-----0-0-0-0-----0-----0-----0000|
   .     . . . .     . . . .     .     .     ....


E|-------------------------------------------------|
B|-------------------------------------------------|
G|-------------------------------------------------|
D|-------------------------------------------------|
A|-------------------------------------------------|
D|-0-----0-0-0-0-----0-0-0-0-----0-----0-----0-0-0-|
   .     . . . .     . . . .     .     .     . . .


E|-----------------------------------------------|
B|-----------------------------------------------|
G|-----------------------------------------------|
D|-----------------------------------------------|
A|-----------------------------------------------|
D|-0-----0-0-0-0-----0-0-0-0-----0-----0-----0000|
   .     . . . .     . . . .     .     .     ....


Guitar 1
E|--------13-13-13-13-----12-12-12-12-----10-----12-----13-----|
B|-------------------------------------------------------------|
G|-------------------------------------------------------------|
D|-------------------------------------------------------------|
A|-------------------------------------------------------------|
D|-------------------------------------------------------------|


Guitar 2
E|-------------------------------------------------------|
B|--------10-10-10-10-----8-8-8-8-----6-----8-----10-----|
G|-------------------------------------------------------|
D|-------------------------------------------------------|
A|-------------------------------------------------------|
D|-------------------------------------------------------|


Guitar 3
E|-------------------------------------------------|
B|-------------------------------------------------|
G|-------------------------------------------------|
D|-------------------------------------------------|
A|-------------------------------------------------|
D|-0-----0-0-0-0-----0-0-0-0-----0-----0-----0-----|
   .     . . . .     . . . .     .     .     .


Guitar 1
E|-13-----13-13-13-13-----12-12-12-12-----10-----12-----13-----|
B|-------------------------------------------------------------|
G|-------------------------------------------------------------|
D|-------------------------------------------------------------|
A|-------------------------------------------------------------|
D|-------------------------------------------------------------|


Guitar 2
E|-------------------------------------------------------|
B|-10-----10-10-10-10-----8-8-8-8-----6-----8-----10-----|
G|-------------------------------------------------------|
D|-------------------------------------------------------|
A|-------------------------------------------------------|
D|-------------------------------------------------------|


Guitar 3
E|-----------------------------------------------|
B|-----------------------------------------------|
G|-----------------------------------------------|
D|-----------------------------------------------|
A|-----------------------------------------------|
D|-0-----0-0-0-0-----0-0-0-0-----0-----0-----0000|
   .     . . . .     . . . .     .     .     ....


Guitar 1
E|-15-----18-18-18-18-----17-17-17-17-----15-----17-----18-----|
B|-------------------------------------------------------------|
G|-------------------------------------------------------------|
D|-------------------------------------------------------------|
A|-------------------------------------------------------------|
D|-------------------------------------------------------------|


Guitar 2
E|-6-----10-10-10-10-----8-8-8-8-----6-----8-----10-----|
B|------------------------------------------------------|
G|------------------------------------------------------|
D|------------------------------------------------------|
A|------------------------------------------------------|
D|------------------------------------------------------|


Guitar 3
E|-------------------------------------------------|
B|-------------------------------------------------|
G|-------------------------------------------------|
D|-------------------------------------------------|
A|-------------------------------------------------|
D|-0-----0-0-0-0-----0-0-0-0-----0-----0-----0-0-0-|
   .     . . . .     . . . .     .     .     . . .


Guitar 1
E|-18-----18-18-18-18-----15-----20-----18-----17-15-13----------|
B|------------------------------------------------------17-15-13-|
G|---------------------------------------------------------------|
D|---------------------------------------------------------------|
A|---------------------------------------------------------------|
D|---------------------------------------------------------------|


Guitar 2
E|-10-----10-10-10-10-----6-----17-----15-----13-12-10----------|
B|-----------------------------------------------------13-11-10-|
G|--------------------------------------------------------------|
D|--------------------------------------------------------------|
A|--------------------------------------------------------------|
D|--------------------------------------------------------------|


Guitar 3
E|-----------------------------------------------|
B|-----------------------------------------------|
G|-----------------------------------------------|
D|-----------------------------------------------|
A|-----------------------------------------------|
D|-0-----0-0-0-0-----0-0-0-0---------------------|
   .     . . . .     . . . .


INTRO (PART II)

Guitar 1
E|---------------------------------------------------------14--15~----|
B|-/15~-----10/18--17--15-------------------10/17------17-------------|
G|-------------------------14h15p14-13~------------14-----------------|
D|--------------------------------------------------------------------|
A|--------------------------------------------------------------------|
D|--------------------------------------------------------------------|


Guitar 2
E|-------------------------------------------------------------|
B|-------------------------------------------------------------|
G|-/10~--------------------------------------------------------|
D|-------------------------------------------------------------|
A|-------------------------------------------------------------|
D|-------------------------------------------------------------|


Guitar 3
E|-----------------------------------------------------------------|
B|-----------------------------------------------------------------|
G|-----------------------------------------------------------------|
D|-0---0---0---0---0---0---0---0---6---6---6---6---6---6---6---6---|
A|-0---0---0---0---0---0---0---0---7---7---7---7---7---7---7---7---|
D|-0---0---0---0---0---0---0---0---6---6---6---6---6---6---6---6---|



Guitar 1
E|---------------------------------------------------------|
B|-10/23--22--20--15--15b~-----------------16-18b20~-------|
G|--------------------------------14-15-17-----------------|
D|--------------------------15-16--------------------------|
A|---------------------------------------------------------|
D|---------------------------------------------------------|


Guitar 2
E|-------------------------------------------------------------|
B|-------------------------------------------------------------|
G|-------------------------------------------------------------|
D|-------------------------------------------------------------|
A|-------------------------------------------------------------|
D|-------------------------------------------------------------|


Guitar 3
E|-----------------------------------------------------------------|
B|-----------------------------------------------------------------|
G|-----------------------------------------------------------------|
D|-5---5---5---5---5---5---5---5---1---1---1---1---1---1---1---1---|
A|-5---5---5---5---5---5---5---5---1---1---1---1---1---1---1---1---|
D|-5---5---5---5---5---5---5---5---1---1---1---1---1---1---1---1---|



Guitar 1
E|-10-----13-13-13-13-----12-12-12-12-----10-----12-----13------|
B|--------------------------------------------------------------|
G|--------------------------------------------------------------|
D|--------------------------------------------------------------|
A|--------------------------------------------------------------|
D|--------------------------------------------------------------|


Guitar 2
E|-13-----17-17-17-17-----15-15-15-15-----13-----15-----17-----|
B|-------------------------------------------------------------|
G|-------------------------------------------------------------|
D|-------------------------------------------------------------|
A|-------------------------------------------------------------|
D|-------------------------------------------------------------|


Guitar 3
E|---------------------------------|
B|---------------------------------|
G|---------------------------------|
D|-0---0---0---0---0---0---0---0---|
A|-0---0---0---0---0---0---0---0---|
D|-0---0---0---0---0---0---0---0---|


Guitar 4
E|-13p10----13p10----13p10----13p10----17p13----17p13----17p13----17p13----|
B|-------10-------10-------10-------10-------15-------15-------15-------15-|
G|-------------------------------------------------------------------------|
D|-------------------------------------------------------------------------|
A|-------------------------------------------------------------------------|
D|-------------------------------------------------------------------------|


Guitar 5
E|-17p13----17p13----17p13----17p13----22p17----22p17----22p17----22p17----|
B|-------15-------15-------15-------15-------18-------18-------18-------18-|
G|-------------------------------------------------------------------------|
D|-------------------------------------------------------------------------|
A|-------------------------------------------------------------------------|
D|-------------------------------------------------------------------------|



Guitar 1
E|-12-----16-16-16-16-----12-12-12-12------------12-----16-----|
B|----------------------------------------12-------------------|
G|-------------------------------------------------------------|
D|-------------------------------------------------------------|
A|-------------------------------------------------------------|
D|-------------------------------------------------------------|


Guitar 2
E|-16-----19-19-19-19-----16-16-16-16------------16-----19-----|
B|----------------------------------------17-------------------|
G|-------------------------------------------------------------|
D|-------------------------------------------------------------|
A|-------------------------------------------------------------|
D|-------------------------------------------------------------|


Guitar 3
E|---------------------------------|
B|---------------------------------|
G|---------------------------------|
D|-6---6---6---6---6---6---6---6---|
A|-7---7---7---7---7---7---7---7---|
D|-6---6---6---6---6---6---6---6---|


Guitar 4
E|-16p12----16p12----16p12----16p12----19p16----19p16----19p16----19p16----|
B|-------12-------12-------12-------12-------17-------17-------17-------17-|
G|-------------------------------------------------------------------------|
D|-------------------------------------------------------------------------|
A|-------------------------------------------------------------------------|
D|-------------------------------------------------------------------------|


Guitar 5
E|-19p16----19p16----19p16----19p16----24p19----24p19----24p19----24p19----|
B|-------17-------17-------17-------17-------21-------21-------21-------21-|
G|-------------------------------------------------------------------------|
D|-------------------------------------------------------------------------|
A|-------------------------------------------------------------------------|
D|-------------------------------------------------------------------------|



Guitar 1
E|-15-----18-18-18-18-----17-17-17-17-----15-----17-----18-----|
B|-------------------------------------------------------------|
G|-------------------------------------------------------------|
D|-------------------------------------------------------------|
A|-------------------------------------------------------------|
D|-------------------------------------------------------------|


Guitar 2
E|-18-----22-22-22-22-----20-20-20-20-----18-----20-----22-----|
B|-------------------------------------------------------------|
G|-------------------------------------------------------------|
D|-------------------------------------------------------------|
A|-------------------------------------------------------------|
D|-------------------------------------------------------------|


Guitar 3
E|---------------------------------|
B|---------------------------------|
G|---------------------------------|
D|-5---5---5---5---5---5---5---5---|
A|-5---5---5---5---5---5---5---5---|
D|-5---5---5---5---5---5---5---5---|


Guitar 4
E|-18p15----18p15----18p15----18p15----22p18----22p18----22p18----22p18----|
B|-------15-------15-------15-------15-------20-------20-------20-------20-|
G|-------------------------------------------------------------------------|
D|-------------------------------------------------------------------------|
A|-------------------------------------------------------------------------|
D|-------------------------------------------------------------------------|


Guitar 5
E|-22p18----22p18----22p18----22p18----15p11----15p11----15p11----15p11----|
B|-------20-------20-------20-------20-------11-------11-------11-------11-|
G|-------------------------------------------------------------------------|
D|-------------------------------------------------------------------------|
A|-------------------------------------------------------------------------|
D|-------------------------------------------------------------------------|



Guitar 1
E|-15-----15-----17-----18-----12-----12-----13-----15-----|
B|---------------------------------------------------------|
G|---------------------------------------------------------|
D|---------------------------------------------------------|
A|---------------------------------------------------------|
D|---------------------------------------------------------|


Guitar 2
E|-18-----18-----20-----22-----15-----15-----17-----18-----|
B|---------------------------------------------------------|
G|---------------------------------------------------------|
D|---------------------------------------------------------|
A|---------------------------------------------------------|
D|---------------------------------------------------------|


Guitar 3
E|---------------------------------|
B|---------------------------------|
G|---------------------------------|
D|-1---1---1---1---1---1---1---1---|
A|-1---1---1---1---1---1---1---1---|
D|-1---1---1---1---1---1---1---1---|


Guitar 4
E|-15p11----15p11----15p11----15p11----18p15----18p15----18p15----18p15----|
B|-------11-------11-------11-------11-------16-------16-------16-------16-|
G|-------------------------------------------------------------------------|
D|-------------------------------------------------------------------------|
A|-------------------------------------------------------------------------|
D|-------------------------------------------------------------------------|


Guitar 5
E|-18p15----18p15----18p15----18p15----23p18----23p18----23p18----23p18----|
B|-------16-------16-------16-------16-------20-------20-------20-------20-|
G|-------------------------------------------------------------------------|
D|-------------------------------------------------------------------------|
A|-------------------------------------------------------------------------|
D|-------------------------------------------------------------------------|



VERSE I

Guitar 1
E|-------------------------------------|
B|-------------------------------------|
G|-------------------------------------|
D|-------------------------------------|
A|-/5---5-/3---3-----------------------|
D|---------------6---6-5---5-3---5-----|


Guitars 1 & 2
E|-----------------------------------------------------------------------------|
B|-----------------------------------------------------------------------------|
G|-----------------------------------------------------------------------------|
D|-----------------------------------------------------------------------------|
A|-----------------------------------------------------------------------------|
D|-0-----0----0-0-0---0-----0----0-0-0---0-----0----0-0-0---0-----0----0-0-0---|
   .     .    . . .   .     .    . . .   .     .    . . .   .     .    . . .


E|-----------------------------------------------------------------------------|
B|-----------------------------------------------------------------------------|
G|-----------------------------------------------------------------------------|
D|-----------------------------------------------------------------------------|
A|-----------------------------------------------------------------------------|
D|-5-----5----5-5-5---5-----5----5-5-5---5-----5----5-5-5---5-----5----5-5-5---|
   .     .    . . .   .     .    . . .   .     .    . . .   .     .    . . .


E|-------------------------------------------------------------|
B|-------------------------------------------------------------|
G|-------------------------------------------------------------|
D|-------------------------------------------------------------|
A|-------------------------------------------------------------|
D|-0---0---3---0-----0-0-0-0-0-0-0---0---3---0-----0-0-0-0-0-0-|
   .   .   .   .     . . . . . . .   .   .   .     . . . . . .


E|---------------------------------------------------------------|
B|---------------------------------------------------------------|
G|---------------------------------------------------------------|
D|---------------------------------------------------------------|
A|---------------------------------------------------------------|
D|-0---0---3---0-----0-0-0-0-0-0-0---0---3---0---0---0---3---0---|
   .   .   .   .     . . . . . . .   .   .   .   .   .   .   .


E|-------------------------------------------------------------|
B|-------------------------------------------------------------|
G|-------------------------------------------------------------|
D|-------------------------------------------------------------|
A|-------------------------------------------------------------|
D|-5---5---8---5-----5-5-5-5-5-5-5---5---8---5-----5-5-5-5-5-5-|
   .   .   .   .     . . . . . . .   .   .   .     . . . . . .


E|---------------------------------------------------------------|
B|---------------------------------------------------------------|
G|---------------------------------------------------------------|
D|---------------------------------------------------------------|
A|---------------------------------------------------------------|
D|-5---5---8---5-----5-5-5-5-5-5-5---5---8---5---5---5---8---5---|
   .   .   .   .     . . . . . . .   .   .   .   .   .   .   .


Guitar 1
E|-17-12----12\-0t5/9p5t9/12p9/18~--17~---|
B|-------14-------------------------------|
G|----------------------------------------|
D|----------------------------------------|
A|----------------------------------------|
D|----------------------------------------|


Guitar 2
E|-12-9----9\------------------------------|
B|------10----2t5/10p5t10/14p10/15~--14~---|
G|-----------------------------------------|
D|-----------------------------------------|
A|-----------------------------------------|
D|-----------------------------------------|



CHORUS

Guitar 1
E|---------------------------------15-/18--18--17--17--15--17--18--|
B|-15-/18--18--17--17--15--17--18----------------------------------|
G|-----------------------------------------------------------------|
D|-----------------------------------------------------------------|
A|-----------------------------------------------------------------|
D|-----------------------------------------------------------------|


Guitar 2
E|-----------------------------------------------------------------|
B|---------------------------------11-/15--15--13--13--11--13--15--|
G|-10-/14--14--12--12--10--12--14----------------------------------|
D|-----------------------------------------------------------------|
A|-----------------------------------------------------------------|
D|-----------------------------------------------------------------|


Guitar 3
E|-----------------------------------------------------------------|
B|-----------------------------------------------------------------|
G|-----------------------------------------------------------------|
D|-0---0-0-0---0-0-0---0-0-0---0-0-5---5-5-5---5-5-5---5-5-5---5-5-|
A|-0---0-0-0---0-0-0---0-0-0---0-0-5---5-5-5---5-5-5---5-5-5---5-5-|
D|-0---0-0-0---0-0-0---0-0-0---0-0-5---5-5-5---5-5-5---5-5-5---5-5-|



Guitar 1                          |-------------S3--------------|
E|-------------8--10--12-12----10--------------13-16-17-13-----------|
B|-8-8--10--11------------------------------15-------------15--------|
G|---------------------------------------14-------------------14\----|
D|------------------------------------15-----------------------------|
A|---------------------------------17--------------------------------|
D|-------------------------------------------------------------------|


Guitar 2                             |----------------S3-----------------|
E|---------------12--13--15-15----13--------------10-12-13-10---------------|
B|-11-11--13--15-------------------------------10-------------10------------|
G|------------------------------------------10-------------------10---------|
D|---------------------------------------12-------------------------12------|
A|------------------------------------12-------------------------------12---|
D|--------------------------------------------------------------------------|


Guitar 3
E|-----------------------------------------------------------------|
B|-----------------------------------------------------------------|
G|-----------------------------------------------------------------|
D|-5---5-5-5---5-5-5---5-5-5---5-5-0---0-0-0---0-0-0---0-0-0---0-0-|
A|-5---5-5-5---5-5-5---5-5-5---5-5-0---0-0-0---0-0-0---0-0-0---0-0-|
D|-5---5-5-5---5-5-5---5-5-5---5-5-0---0-0-0---0-0-0---0-0-0---0-0-|



Guitar 1
E|---------------------------------15-/18--18--17--17--15--17--18--|
B|-15-/18--18--17--17--15--17--18----------------------------------|
G|-----------------------------------------------------------------|
D|-----------------------------------------------------------------|
A|-----------------------------------------------------------------|
D|-----------------------------------------------------------------|


Guitar 2
E|-----------------------------------------------------------------|
B|---------------------------------11-/15--15--13--13--11--13--15--|
G|-10-/14--14--12--12--10--12--14----------------------------------|
D|-----------------------------------------------------------------|
A|-----------------------------------------------------------------|
D|-----------------------------------------------------------------|


Guitar 3
E|-----------------------------------------------------------------|
B|-----------------------------------------------------------------|
G|-----------------------------------------------------------------|
D|-0---0-0-0---0-0-0---0-0-0---0-0-5---5-5-5---5-5-5---5-5-5---5-5-|
A|-0---0-0-0---0-0-0---0-0-0---0-0-5---5-5-5---5-5-5---5-5-5---5-5-|
D|-0---0-0-0---0-0-0---0-0-0---0-0-5---5-5-5---5-5-5---5-5-5---5-5-|



Guitar 1                          |-------------S3--------------|
E|-------------8--10--12-12----10--------------13-16-17-13-----------|
B|-8-8--10--11------------------------------15-------------15--------|
G|---------------------------------------14-------------------14\----|
D|------------------------------------15-----------------------------|
A|---------------------------------17--------------------------------|
D|-------------------------------------------------------------------|


Guitar 2                             |----------------S3-----------------|
E|---------------12--13--15-15----13--------------10-12-13-10---------------|
B|-11-11--13--15-------------------------------10-------------10------------|
G|------------------------------------------10-------------------10---------|
D|---------------------------------------12-------------------------12------|
A|------------------------------------12-------------------------------12---|
D|--------------------------------------------------------------------------|


Guitar 3
E|-----------------------------------------------------------------|
B|-----------------------------------------------------------------|
G|-----------------------------------------------------------------|
D|-5---5-5-5---5-5-5---5-5-5---5-5-0---0-0-0---0-0-0---0-0-0---0-0-|
A|-5---5-5-5---5-5-5---5-5-5---5-5-0---0-0-0---0-0-0---0-0-0---0-0-|
D|-5---5-5-5---5-5-5---5-5-5---5-5-0---0-0-0---0-0-0---0-0-0---0-0-|



Guitar 1
E|-13p10----13p10----13p10----13p10----17p13----17p13----17p13----17p13----|
B|-------10-------10-------10-------10-------15-------15-------15-------15-|
G|-------------------------------------------------------------------------|
D|-------------------------------------------------------------------------|
A|-------------------------------------------------------------------------|
D|-------------------------------------------------------------------------|


Guitar 2
E|-17p13----17p13----17p13----17p13----22p17----22p17----22p17----22p17----|
B|-------15-------15-------15-------15-------18-------18-------18-------18-|
G|-------------------------------------------------------------------------|
D|-------------------------------------------------------------------------|
A|-------------------------------------------------------------------------|
D|-------------------------------------------------------------------------|


Guitar 3
E|---------------------------------|
B|---------------------------------|
G|---------------------------------|
D|-0---0---0---0---0---0---0---0---|
A|-0---0---0---0---0---0---0---0---|
D|-0---0---0---0---0---0---0---0---|



Guitar 1
E|-16p12----16p12----16p12----16p12----19p16----19p16----19p16----19p16----|
B|-------12-------12-------12-------12-------17-------17-------17-------17-|
G|-------------------------------------------------------------------------|
D|-------------------------------------------------------------------------|
A|-------------------------------------------------------------------------|
D|-------------------------------------------------------------------------|


Guitar 2
E|-19p16----19p16----19p16----19p16----24p19----24p19----24p19----24p19----|
B|-------17-------17-------17-------17-------21-------21-------21-------21-|
G|-------------------------------------------------------------------------|
D|-------------------------------------------------------------------------|
A|-------------------------------------------------------------------------|
D|-------------------------------------------------------------------------|


Guitar 3
E|---------------------------------|
B|---------------------------------|
G|---------------------------------|
D|-6---6---6---6---6---6---6---6---|
A|-7---7---7---7---7---7---7---7---|
D|-6---6---6---6---6---6---6---6---|



Guitar 1
E|-18p15----18p15----18p15----18p15----22p18----22p18----22p18----22p18----|
B|-------15-------15-------15-------15-------20-------20-------20-------20-|
G|-------------------------------------------------------------------------|
D|-------------------------------------------------------------------------|
A|-------------------------------------------------------------------------|
D|-------------------------------------------------------------------------|


Guitar 2
E|-22p18----22p18----22p18----22p18----15p11----15p11----15p11----15p11----|
B|-------20-------20-------20-------20-------11-------11-------11-------11-|
G|-------------------------------------------------------------------------|
D|-------------------------------------------------------------------------|
A|-------------------------------------------------------------------------|
D|-------------------------------------------------------------------------|


Guitar 3
E|---------------------------------|
B|---------------------------------|
G|---------------------------------|
D|-5---5---5---5---5---5---5---5---|
A|-5---5---5---5---5---5---5---5---|
D|-5---5---5---5---5---5---5---5---|



Guitar 1
E|-15p11----15p11----15p11----15p11----18p15----18p15----18p15----18p15----|
B|-------11-------11-------11-------11-------16-------16-------16-------16-|
G|-------------------------------------------------------------------------|
D|-------------------------------------------------------------------------|
A|-------------------------------------------------------------------------|
D|-------------------------------------------------------------------------|


Guitar 2
E|-18p15----18p15----18p15----18p15----23p18----23p18----23p18----23p18----|
B|-------16-------16-------16-------16-------20-------20-------20-------20-|
G|-------------------------------------------------------------------------|
D|-------------------------------------------------------------------------|
A|-------------------------------------------------------------------------|
D|-------------------------------------------------------------------------|


Guitar 3
E|---------------------------------|
B|---------------------------------|
G|---------------------------------|
D|-1---1---1---1---1---1---1---1---|
A|-1---1---1---1---1---1---1---1---|
D|-1---1---1---1---1---1---1---1---|



VERSE II

Guitar 1
E|-------------------------------------|
B|-------------------------------------|
G|-------------------------------------|
D|-------------------------------------|
A|-/5---5-/3---3-----------------------|
D|---------------6---6-5---5-3---5-----|


Guitars 1 & 2
E|-----------------------------------------------------------------------------|
B|-----------------------------------------------------------------------------|
G|-----------------------------------------------------------------------------|
D|-----------------------------------------------------------------------------|
A|-----------------------------------------------------------------------------|
D|-0-----0----0-0-0---0-----0----0-0-0---0-----0----0-0-0---0-----0----0-0-0---|
   .     .    . . .   .     .    . . .   .     .    . . .   .     .    . . .


E|-----------------------------------------------------------------------------|
B|-----------------------------------------------------------------------------|
G|-----------------------------------------------------------------------------|
D|-----------------------------------------------------------------------------|
A|-----------------------------------------------------------------------------|
D|-5-----5----5-5-5---5-----5----5-5-5---5-----5----5-5-5---5-----5----5-5-5---|
   .     .    . . .   .     .    . . .   .     .    . . .   .     .    . . .


E|-------------------------------------------------------------|
B|-------------------------------------------------------------|
G|-------------------------------------------------------------|
D|-------------------------------------------------------------|
A|-------------------------------------------------------------|
D|-0---0---3---0-----0-0-0-0-0-0-0---0---3---0-----0-0-0-0-0-0-|
   .   .   .   .     . . . . . . .   .   .   .     . . . . . .


E|---------------------------------------------------------------|
B|---------------------------------------------------------------|
G|---------------------------------------------------------------|
D|---------------------------------------------------------------|
A|---------------------------------------------------------------|
D|-0---0---3---0-----0-0-0-0-0-0-0---0---3---0---0---0---3---0---|
   .   .   .   .     . . . . . . .   .   .   .   .   .   .   .


E|-------------------------------------------------------------|
B|-------------------------------------------------------------|
G|-------------------------------------------------------------|
D|-------------------------------------------------------------|
A|-------------------------------------------------------------|
D|-5---5---8---5-----5-5-5-5-5-5-5---5---8---5-----5-5-5-5-5-5-|
   .   .   .   .     . . . . . . .   .   .   .     . . . . . .


E|---------------------------------------------------------------|
B|---------------------------------------------------------------|
G|---------------------------------------------------------------|
D|---------------------------------------------------------------|
A|---------------------------------------------------------------|
D|-5---5---8---5-----5-5-5-5-5-5-5---5---8---5---5---5---8---5---|
   .   .   .   .     . . . . . . .   .   .   .   .   .   .   .


Guitar 1                               |---T3---|
E|-------------------|---S3---|---T3---|---13-15/18~--17~-----|
B|----------|---S3---|18-17-18-15-14-15-17--------------------|
G|-|---S3---|15-14-15-----------------------------------------|
D|-/15-14-15--------------------------------------------------|
A|------------------------------------------------------------|
D|------------------------------------------------------------|


Guitar 2
E|----------------------------|---T3---|---T3---|-----------|
B|----------|---S3---|---S3---|15-14----------14-15~--14~---|
G|-|---S3---|12-11-12/15-14-15-------14-15-16---------------|
D|-/12-11-12------------------------------------------------|
A|----------------------------------------------------------|
D|----------------------------------------------------------|



CHORUS

Guitar 1
E|---------------------------------15-/18--18--17--17--15--17--18--|
B|-15-/18--18--17--17--15--17--18----------------------------------|
G|-----------------------------------------------------------------|
D|-----------------------------------------------------------------|
A|-----------------------------------------------------------------|
D|-----------------------------------------------------------------|


Guitar 2
E|-----------------------------------------------------------------|
B|---------------------------------11-/15--15--13--13--11--13--15--|
G|-10-/14--14--12--12--10--12--14----------------------------------|
D|-----------------------------------------------------------------|
A|-----------------------------------------------------------------|
D|-----------------------------------------------------------------|


Guitar 3
E|-----------------------------------------------------------------|
B|-----------------------------------------------------------------|
G|-----------------------------------------------------------------|
D|-0---0-0-0---0-0-0---0-0-0---0-0-5---5-5-5---5-5-5---5-5-5---5-5-|
A|-0---0-0-0---0-0-0---0-0-0---0-0-5---5-5-5---5-5-5---5-5-5---5-5-|
D|-0---0-0-0---0-0-0---0-0-0---0-0-5---5-5-5---5-5-5---5-5-5---5-5-|



Guitar 1                          |-------------S3--------------|
E|-------------8--10--12-12----10--------------13-16-17-13-----------|
B|-8-8--10--11------------------------------15-------------15--------|
G|---------------------------------------14-------------------14\----|
D|------------------------------------15-----------------------------|
A|---------------------------------17--------------------------------|
D|-------------------------------------------------------------------|


Guitar 2                             |----------------S3-----------------|
E|---------------12--13--15-15----13--------------10-12-13-10---------------|
B|-11-11--13--15-------------------------------10-------------10------------|
G|------------------------------------------10-------------------10---------|
D|---------------------------------------12-------------------------12------|
A|------------------------------------12-------------------------------12---|
D|--------------------------------------------------------------------------|


Guitar 3
E|-----------------------------------------------------------------|
B|-----------------------------------------------------------------|
G|-----------------------------------------------------------------|
D|-5---5-5-5---5-5-5---5-5-5---5-5-0---0-0-0---0-0-0---0-0-0---0-0-|
A|-5---5-5-5---5-5-5---5-5-5---5-5-0---0-0-0---0-0-0---0-0-0---0-0-|
D|-5---5-5-5---5-5-5---5-5-5---5-5-0---0-0-0---0-0-0---0-0-0---0-0-|



Guitar 1
E|---------------------------------15-/18--18--17--17--15--17--18--|
B|-15-/18--18--17--17--15--17--18----------------------------------|
G|-----------------------------------------------------------------|
D|-----------------------------------------------------------------|
A|-----------------------------------------------------------------|
D|-----------------------------------------------------------------|


Guitar 2
E|-----------------------------------------------------------------|
B|---------------------------------11-/15--15--13--13--11--13--15--|
G|-10-/14--14--12--12--10--12--14----------------------------------|
D|-----------------------------------------------------------------|
A|-----------------------------------------------------------------|
D|-----------------------------------------------------------------|


Guitar 3
E|-----------------------------------------------------------------|
B|-----------------------------------------------------------------|
G|-----------------------------------------------------------------|
D|-0---0-0-0---0-0-0---0-0-0---0-0-5---5-5-5---5-5-5---5-5-5---5-5-|
A|-0---0-0-0---0-0-0---0-0-0---0-0-5---5-5-5---5-5-5---5-5-5---5-5-|
D|-0---0-0-0---0-0-0---0-0-0---0-0-5---5-5-5---5-5-5---5-5-5---5-5-|



Guitar 1                          |-------------S3--------------|
E|-------------8--10--12-12----10--------------13-16-17-13-----------|
B|-8-8--10--11------------------------------15-------------15--------|
G|---------------------------------------14-------------------14\----|
D|------------------------------------15-----------------------------|
A|---------------------------------17--------------------------------|
D|-------------------------------------------------------------------|


Guitar 2                             |----------------S3-----------------|
E|---------------12--13--15-15----13--------------10-12-13-10---------------|
B|-11-11--13--15-------------------------------10-------------10------------|
G|------------------------------------------10-------------------10---------|
D|---------------------------------------12-------------------------12------|
A|------------------------------------12-------------------------------12---|
D|--------------------------------------------------------------------------|


Guitar 3
E|-----------------------------------------------------------------|
B|-----------------------------------------------------------------|
G|-----------------------------------------------------------------|
D|-5---5-5-5---5-5-5---5-5-5---5-5-0---0-0-0---0-0-0---0-0-0---0-0-|
A|-5---5-5-5---5-5-5---5-5-5---5-5-0---0-0-0---0-0-0---0-0-0---0-0-|
D|-5---5-5-5---5-5-5---5-5-5---5-5-0---0-0-0---0-0-0---0-0-0---0-0-|


INTERLUDE

Guitar 1               |----------------S3-----------------|
E|----------------------------------------------10-11-10----11~----------|
B|-------------------------------------11----11----------13--------------|
G|----------------------------12----12----12-----------------------------|
D|-12~--12-/15--13~--------12----12--------------------------------------|
A|----------------------13-----------------------------------------------|
D|-----------------------------------------------------------------------|


Guitar 2               |-----------S3------------|
E|---------------------------------------6-8-6----6~----------|
B|---------------------------------8---8-------10-------------|
G|-10~--10-/14--12~----------7---7---7------------------------|
D|-------------------------8---8------------------------------|
A|----------------------10------------------------------------|
D|------------------------------------------------------------|


Guitar 3
E|-----------------------------------------------------------------|
B|-----------------------------------------------------------------|
G|-3---3-3-3---3-3-3---3-3-3---3-3---------------------------------|
D|-3---3-3-3---3-3-3---3-3-3---3-3-1---1-1-1---1-1-1---1-1-1---1-1-|
A|-1---1-1-1---1-1-1---1-1-1---1-1-1---1-1-1---1-1-1---1-1-1---1-1-|
D|---------------------------------1---1-1-1---1-1-1---1-1-1---1-1-|


BRIDGE

Guitar 1
E|---------------------------------------------------------------------------------------------|
B|---------------------------------------------------------------------------------------------|
G|-15---15-15-15-15-15-15-15---15-15-15-15-15-15-10---10-10-10-10-10-10-10---10-10-10-10-10-10-|
D|---------------------------------------------------------------------------------------------|
A|-13---13-13-13-13-13-13-13---13-13-13-13-13-13--8----8--8--8--8--8--8--8----8--8--8--8--8--8-|
D|---------------------------------------------------------------------------------------------|


Guitar 2
E|-----------------------------------------------------------------|
B|-----------------------------------------------------------------|
G|-3---3-3-3-3-3-3-3---3-3-3-3-3-3---------------------------------|
D|-3---3-3-3-3-3-3-3---3-3-3-3-3-3-3---3-3-3-3-3-3-3---3-3-3-3-3-3-|
A|-1---1-1-1-1-1-1-1---1-1-1-1-1-1-3---3-3-3-3-3-3-3---3-3-3-3-3-3-|
D|---------------------------------3---3-3-3-3-3-3-3---3-3-3-3-3-3-|



Guitar 1
E|----------------------------------------------------------------------|
B|----------------------------------------------------------------------|
G|-9---9-9-9-9-9-9-9---9-9-9-9-9-9-7---7-7-9---9-9-10--10-10-14---14-14-|
D|----------------------------------------------------------------------|
A|-7---7-7-7-7-7-7-7---7-7-7-7-7-7-5---5-5-7---7-7-8----8--8-12---12-12-|
D|----------------------------------------------------------------------|


Guitar 2
E|-----------------------------------------------------------------|
B|-----------------------------------------------------------------|
G|-----------------------------------------------------------------|
D|-2---2-2-2-2-2-2-2---2-2-2-2-2-2-0---0-0-0-0-0-0-0---0-0-0-0-0-0-|
A|-3---3-3-3-3-3-3-3---3-3-3-3-3-3-0---0-0-0-0-0-0-0---0-0-0-0-0-0-|
D|-2---2-2-2-2-2-2-2---2-2-2-2-2-2-0---0-0-0-0-0-0-0---0-0-0-0-0-0-|



Guitar 1
E|-------------------------------------------------------------------------------------------|
B|-------------------------------------------------------------------------------------------|
G|-15---15-15-15-15-15-15-15---15-15-14---14-14-10---10-10-10-10-10-10-10---10-10-12---12-12-|
D|-------------------------------------------------------------------------------------------|
A|-13---13-13-13-13-13-13-13---13-13-12---12-12--8----8--8--8--8--8--8--8----8--8-10---10-10-|
D|-------------------------------------------------------------------------------------------|


Guitar 2
E|-----------------------------------------------------------------|
B|-----------------------------------------------------------------|
G|-3---3-3-3-3-3-3-3---3-3-3-3-3-3---------------------------------|
D|-3---3-3-3-3-3-3-3---3-3-3-3-3-3-3---3-3-3-3-3-3-3---3-3-3-3-3-3-|
A|-1---1-1-1-1-1-1-1---1-1-1-1-1-1-3---3-3-3-3-3-3-3---3-3-3-3-3-3-|
D|---------------------------------3---3-3-3-3-3-3-3---3-3-3-3-3-3-|



Guitar 1
E|-------------------------------------------------------------------------------|
B|-------------------------------------------------------------------------------|
G|-9---9-9-9-9-9-9-9---9-9-9-9-9-9-13---13-13-13-13-13-13-13---13-13-13-13-13-13-|
D|-------------------------------------------------------------------------------|
A|-7---7-7-7-7-7-7-7---7-7-7-7-7-7-11---11-11-11-11-11-11-11---11-11-11-11-11-11-|
D|-------------------------------------------------------------------------------|


Guitar 2
E|-----------------------------------------------------------------|
B|-----------------------------------------------------------------|
G|-2---2-2-2-2-2-2-2---2-2-2-2-2-2-2---2-2-2-2-2-2-2---2-2-2-2-2-2-|
D|-2---2-2-2-2-2-2-2---2-2-2-2-2-2-2---2-2-2-2-2-2-2---2-2-2-2-2-2-|
A|-0---0-0-0-0-0-0-0---0-0-0-0-0-0-4---4-4-4-4-4-4-4---4-4-4-4-4-4-|
D|-----------------------------------------------------------------|



Guitar 3
E|-----------------------------------------------------|
B|-----------------------------------------------------|
G|-----------------------------------------------------|
D|-3---------3---------3-----3---------3---------3-----|
A|-1-1-1-1-1-1-1-1-1-1-1-1-1-1-1-1-1-1-1-1-1-1-1-1-1-1-|
D|-----------------------------------------------------|



Guitar 1
E|---------------15-17-18-17-15--------------------------15-17-18-17-15-----------|
B|------------15----------------15--------------------15----------------15--------|
G|---------15----------------------15--------------15----------------------15-----|
D|------17----------------------------17\-------17----------------------------17\-|
A|-/17-------------------------------------/17------------------------------------|
D|--------------------------------------------------------------------------------|


Guitar 2
E|---------------18-20-22-20-18--------------------------18-21-22-21-18-----------|
B|------------20----------------20--------------------20----------------20--------|
G|---------19----------------------19--------------19----------------------19-----|
D|------20----------------------------20\-------20----------------------------20\-|
A|-/22-------------------------------------/22------------------------------------|
D|--------------------------------------------------------------------------------|


Guitar 3
E|-----------------------------------------------------|
B|-----------------------------------------------------|
G|-----------------------------------------------------|
D|-----------------------------------------------------|
A|-3---------3---------3-----3---------3---------3-----|
D|-3-3-3-3-3-3-3-3-3-3-3-3-3-3-3-3-3-3-3-3-3-3-3-3-3-3-|



Guitar 1
E|---------------------------------------------------|
B|---------------------------------------------------|
G|---------------------------------------------------|
D|-/10~----------------------------------------------|
A|---------------------------------------------------|
D|---------------------------------------------------|


Guitar 2
E|---------------------------------------------------|
B|---------------------------------------------------|
G|---------------------------------------------------|
D|-/14~----------------------------------------------|
A|---------------------------------------------------|
D|---------------------------------------------------|


Guitar 3
E|-----------------------------------------------------|
B|-----------------------------------------------------|
G|-----------------------------------------------------|
D|-----------------------------------------------------|
A|-3---------3---------3-----3---------3---------3-----|
D|-2-2-2-2-2-2-2-2-2-2-2-2-2-2-2-2-2-2-2-2-2-2-2-2-2-2-|



Guitar 1
E|------------10-12-13-12-10---------------------------10-12-13-12-10--------------|
B|---------10----------------10---------------------10----------------10-----------|
G|------10----------------------10---------------10----------------------10--------|
D|-/12-----------------------------12---------12----------------------------12-----|
A|------------------------------------12\8/12----------------------------------12\-|
D|---------------------------------------------------------------------------------|


Guitar 2
E|------------13-15-17-15-13--------------------------13-15-17-15-13-------------|
B|---------15----------------15--------------------15----------------15----------|
G|------14----------------------14--------------14----------------------14-------|
D|---------------------------------15----15---------------------------------17\--|
A|-/17--------------------------------17----17-----------------------------------|
D|-------------------------------------------------------------------------------|


Guitar 3
E|-----------------------------------------------------|
B|-----------------------------------------------------|
G|-----------------------------------------------------|
D|-----------------------------------------------------|
A|-0---------0---------0-----0---------0---------0-----|
D|-0-0-0-0-0-0-0-0-0-0-0-0-0-0-0-0-0-0-0-0-0-0-0-0-0-0-|



Guitar 1
E|---------------------------------------------------|
B|---------------------------------------------------|
G|---------------------------------------------------|
D|-/12~----------------------------------------------|
A|---------------------------------------------------|
D|---------------------------------------------------|


Guitar 2
E|---------------------------------------------------|
B|---------------------------------------------------|
G|-/15~----------------------------------------------|
D|---------------------------------------------------|
A|---------------------------------------------------|
D|---------------------------------------------------|


Guitar 3
E|-----------------------------------------------------|
B|-----------------------------------------------------|
G|-----------------------------------------------------|
D|-3---------3---------3-----3---------3---------3-----|
A|-1-1-1-1-1-1-1-1-1-1-1-1-1-1-1-1-1-1-1-1-1-1-1-1-1-1-|
D|-----------------------------------------------------|



Guitar 1
E|---------------15-17-18-17-15----------------------------15-17-18-17-15-----------|
B|------------15----------------15----------------------15----------------15--------|
G|---------15----------------------15----------------15----------------------15-----|
D|------17----------------------------17\---------17----------------------------17\-|
A|-/17---------------------------------------/17------------------------------------|
D|----------------------------------------------------------------------------------|


Guitar 2
E|---------------18-20-22-20-18--------------------------18-21-22-21-18-----------|
B|------------20----------------20--------------------20----------------20--------|
G|---------19----------------------19--------------19----------------------19-----|
D|------20----------------------------20\-------20----------------------------20\-|
A|-/22-------------------------------------/22------------------------------------|
D|--------------------------------------------------------------------------------|


Guitar 3
E|-----------------------------------------------------|
B|-----------------------------------------------------|
G|-----------------------------------------------------|
D|-----------------------------------------------------|
A|-3---------3---------3-----3---------3---------3-----|
D|-3-3-3-3-3-3-3-3-3-3-3-3-3-3-3-3-3-3-3-3-3-3-3-3-3-3-|



Guitar 1
E|---------------------------------------------------|
B|---------------------------------------------------|
G|---------------------------------------------------|
D|-/13~----------------------------------------------|
A|---------------------------------------------------|
D|---------------------------------------------------|


Guitar 2
E|---------------------------------------------------|
B|---------------------------------------------------|
G|-/14~----------------------------------------------|
D|---------------------------------------------------|
A|---------------------------------------------------|
D|---------------------------------------------------|


Guitar 3
E|-----------------------------------------------------|
B|-----------------------------------------------------|
G|-----------------------------------------------------|
D|-2---------2---------2-----2---------2---------2-----|
A|-0-0-0-0-0-0-0-0-0-0-0-0-0-0-0-0-0-0-0-0-0-0-0-0-0-0-|
D|-----------------------------------------------------|



Guitar 1
E|---------------------------------------------------|
B|---------------------------------------------------|
G|-/14~-------/18~-----------------------------------|
D|---------------------------------------------------|
A|---------------------------------------------------|
D|---------------------------------------------------|


Guitar 2
E|---------------------------------------------------|
B|---------------------------------------------------|
G|-/18~----------------------------------------------|
D|------------/19~-----------------------------------|
A|---------------------------------------------------|
D|---------------------------------------------------|


Guitar 3
E|-------------------------------------------------------|
B|-------------------------------------------------------|
G|-------------------------------------------------------|
D|-2---------2---------2-----2-2/6--6--6--6--6--6--6--6--|
A|-4-4-4-4-4-4-4-4-4-4-4-4-4-4-4/7--7--7--7--7--7--7--7--|
D|-------------------------------------------------------|


[BREAKDOWN]


SOLO


Guitar 1
E|-----------------------------------13--17-b18r17~--15~------|
B|-13b15-----15b17r15b18---15--13~----------------------------|
G|------------------------------------------------------------|
D|------------------------------------------------------------|
A|------------------------------------------------------------|
D|------------------------------------------------------------|


E|-15b17-----15p13----13h15--13h15--13~--------/17--18~------------|
B|-----------------15--------------------------------------15~-----|
G|-----------------------------------------------------------------|
D|-----------------------------------------------------------------|
A|-----------------------------------------------------------------|
D|-----------------------------------------------------------------|


E|-/18---17~-------------13--/17~-------17--h18p17p16-17~-----|
B|---------------13~------------------------------------------|
G|------------------------------------------------------------|
D|------------------------------------------------------------|
A|------------------------------------------------------------|
D|------------------------------------------------------------|


E|-12-13-15---13---12p13h12-----------------------------------|
B|--------------------------15~-----15b17r15b18---15--13~-----|
G|------------------------------------------------------------|
D|------------------------------------------------------------|
A|------------------------------------------------------------|
D|------------------------------------------------------------|


E|-13--17-b18r17---15-17-18--18-18b20---17b18r17~------|
B|-----------------------------------------------------|
G|-----------------------------------------------------|
D|-----------------------------------------------------|
A|-----------------------------------------------------|
D|-----------------------------------------------------|

(Harmony comes in)
E|------------------13-18---17---15\-13~--------13-17---15---13-/17~------|
B|-15b17r15~-----15--------------------------13---------------------------|
G|------------------------------------------------------------------------|
D|------------------------------------------------------------------------|
A|------------------------------------------------------------------------|
D|------------------------------------------------------------------------|


Guitar 2
E|------------------------------------------------------------------------|
B|------------------15-18---17---15-------------15-18---17---15--14~------|
G|------/15~-----15------------------14~-----15---------------------------|
D|------------------------------------------------------------------------|
A|------------------------------------------------------------------------|
D|------------------------------------------------------------------------|



Guitar 1
E|-17-18-20-20b22~-----------------17-18-20-21b23~----------------|
B|------------------------------18--------------------------------|
G|----------------------------------------------------------------|
D|----------------------------------------------------------------|
A|----------------------------------------------------------------|
D|----------------------------------------------------------------|


Guitar 2
E|----12-13/17~---------------------------------------------------|
B|-14------------------------------14-15-17-17b18~----------------|
G|------------------------------14--------------------------------|
D|----------------------------------------------------------------|
A|----------------------------------------------------------------|
D|----------------------------------------------------------------|


Thats it. Thanks for checking out my tab! :)
comments
print report bad tab
12 comments total. Showing first comments.
+2 reply
tylerendres wrote on September 10 2010, 12:23 am

song is excellent! ;)

0 reply
jacobvsmith wrote on September 13 2010, 12:43 pm

2nd line of your solo I think is missing some notes before the 18.

0 reply
Guitar Skater wrote on September 13 2010, 09:14 pm

excellent tab but the dual super shred before chours 2 is a little off

I want to post or [tab]
guest
You may want to rate the tab now too:
select rating
Please do not post tabs as comments. Select "correction" instead!