Oops, an error
Loading. Please wait.

Danger Line Tab

ver3
ver3
More versions @911Tabs.com
1,431 views 9 this week
no commentswrite comment
1 2 3 4 5
excellent!
x 1
Autoscroll
+/-
esc
set tempo
stop
Contributor
Difficulty
advanced
WARNING: You are trying to view
                                    content from Ultimate-Guitar.com
                                    in an unauthorized application,
                                    which is prohibited.

                                    Please use an official Ultimate
                                    Guitar Tabs application for iPhone,
                                    iPad or Android to access legitimate
                                    chords, guitar, bass, and drum tabs
                                    from Ultimate-Guitar.com database.

                                    Type "ultimate guitar tabs" in Apple
                                    App Store's or Android Market's
                                    search to find the application.
Song: Danger Line
Artist: Avenged Sevenfold
Tuning: Dropped D

INTRO

Guitar 3
E|-------------------------------------------------|
B|-------------------------------------------------|
G|-------------------------------------------------|
D|-------------------------------------------------|
A|-0-----0-0-0-0-----0-0-0-0-----0-0-0-0-----0-----|
D|-0-----0-0-0-0-----0-0-0-0-----0-0-0-0-----0-----|
   *     * * * *     * * * *     * * * *     *

Guitar 3
E|-------------------------------------------------|
B|-------------------------------------------------|
G|-------------------------------------------------|
D|-------------------------------------------------|
A|-0-----0-0-0-0-----0-0-0-0-----0-----0-----0000--|
D|-0-----0-0-0-0-----0-0-0-0-----0-----0-----0000--|
   *     * * * *     * * * *     *     *     ****

Guitar 3
E|-------------------------------------------------|
B|-------------------------------------------------|
G|-------------------------------------------------|
D|-------------------------------------------------|
A|-0-----0-0-0-0-----0-0-0-0-----0-----0-----0-0-0-|
D|-0-----0-0-0-0-----0-0-0-0-----0-----0-----0-0-0-|
   *     * * * *     * * * *     *     *     * * *

Guitar 3
E|-------------------------------------------------|
B|-------------------------------------------------|
G|-------------------------------------------------|
D|-------------------------------------------------|
A|-0-----0-0-0-0-----0-0-0-0-----0-----0-----0000--|
D|-0-----0-0-0-0-----0-0-0-0-----0-----0-----0000--|
   *     * * * *     * * * *     *     *     ****

Guitar 1
E|--------13-13-13-13-----12-12-12-12-----10-----12-----13-----|
B|-------------------------------------------------------------|
G|-------------------------------------------------------------|
D|-------------------------------------------------------------|
A|-------------------------------------------------------------|
D|-------------------------------------------------------------|
                                                               |
Guitar 2                                                       |
E|-------------------------------------------------------------|
B|--------10-10-10-10-----8--8--8--8------6------8------10-----|
G|-------------------------------------------------------------|
D|-------------------------------------------------------------|
A|-------------------------------------------------------------|
D|-------------------------------------------------------------|
                                                    ___________/
Guitar 3                                           /
E|-------------------------------------------------|
B|-------------------------------------------------|
G|-------------------------------------------------|
D|-------------------------------------------------|
A|-0-----0-0-0-0-----0-0-0-0-----0-----0-----0-----|
D|-0-----0-0-0-0-----0-0-0-0-----0-----0-----0-----|
   *     * * * *     * * * *     *     *     *


Guitar 1
E|--------13-13-13-13-----12-12-12-12-----10-----12-----13-----|
B|-------------------------------------------------------------|
G|-------------------------------------------------------------|
D|-------------------------------------------------------------|
A|-------------------------------------------------------------|
D|-------------------------------------------------------------|
                                                               |
Guitar 2                                                       |
E|-------------------------------------------------------------|
B|--------10-10-10-10-----8--8--8--8------6------8------10-----|
G|-------------------------------------------------------------|
D|-------------------------------------------------------------|
A|-------------------------------------------------------------|
D|-------------------------------------------------------------|
                                                    ___________/
Guitar 3                                           /
E|-------------------------------------------------|
B|-------------------------------------------------|
G|-------------------------------------------------|
D|-------------------------------------------------|
A|-0-----0-0-0-0-----0-0-0-0-----0-----0-----0000--|
D|-0-----0-0-0-0-----0-0-0-0-----0-----0-----0000--|
   *     * * * *     * * * *     *     *     ****

Guitar 1
E|/15-----18-18-18-18-----17-17-17-17-----15-----17-----18-----|
B|-------------------------------------------------------------|
G|-------------------------------------------------------------|
D|-------------------------------------------------------------|
A|-------------------------------------------------------------|
D|-------------------------------------------------------------|
                                                               |
Guitar 2                                                       |
E|/6------10-10-10-10-----8--8--8--8------6------8------10-----|
B|-------------------------------------------------------------|
G|-------------------------------------------------------------|
D|-------------------------------------------------------------|
A|-------------------------------------------------------------|
D|-------------------------------------------------------------|
                                                    ___________/
Guitar 3                                           /
E|-------------------------------------------------|
B|-------------------------------------------------|
G|-------------------------------------------------|
D|-------------------------------------------------|
A|-0-----0-0-0-0-----0-0-0-0-----0-----0-----0-0-0-|
D|-0-----0-0-0-0-----0-0-0-0-----0-----0-----0-0-0-|
   *     * * * *     * * * *     *     *     * * *

Guitar 1
E|-18-----18-18-18-18-----15-----20-----18-----17-15-13----------|
B|------------------------------------------------------17-15-13-|
G|---------------------------------------------------------------|
D|---------------------------------------------------------------|
A|---------------------------------------------------------------|
D|---------------------------------------------------------------|
                                                                 |
Guitar 2                                                         |
E|-10-----10-10-10-10-----6------17-----15-----13-12-10----------|
B|------------------------------------------------------13-11-10-|
G|---------------------------------------------------------------|
D|---------------------------------------------------------------|
A|---------------------------------------------------------------|
D|---------------------------------------------------------------|
                                                     ____________/
Guitar 3                                            /
E|-------------------------------------------------|
B|-------------------------------------------------|
G|-------------------------------------------------|
D|-------------------------------------------------|
A|-0-----0-0-0-0-----0-0-0-0-----------------------|
D|-0-----0-0-0-0-----0-0-0-0-----------------------|
   *     * * * *     * * * *

Guitar 1
E|---------------------------------------------------------14--15~----|
B|-/15~-----10/18--17--15-------------------10/17------17-------------|
G|-------------------------14h15p14-13~------------14-----------------|
D|--------------------------------------------------------------------|
A|--------------------------------------------------------------------|
D|--------------------------------------------------------------------|
                                                                      |
Guitar 2                                                              |
E|--------------------------------------------------------------------|
B|--------------------------------------------------------------------|
G|-/10~---------------------------------------------------------------|
D|--------------------------------------------------------------------|
A|--------------------------------------------------------------------|
D|--------------------------------------------------------------------|
                                                                      |
Guitar 3                                                              |
E|--------------------------------------------------------------------|
B|--------------------------------------------------------------------|
G|--------------------------------------------------------------------|
D|-0---0---0---0---0---0---0---0---6---6---6---6---6---6---6---6------|
A|-0---0---0---0---0---0---0---0---5---5---5---5---5---5---5---5------|
D|-0---0---0---0---0---0---0---0---6---6---6---6---6---6---6---6------|



Guitar 1
E|-----------------------------------------------------------------|
B|-10/23--22--20--15--15b~-----------------16-18b20~---------------|
G|--------------------------------14-15-17-------------------------|
D|--------------------------15-16----------------------------------|
A|-----------------------------------------------------------------|
D|-----------------------------------------------------------------|
                                                                   |
Guitar 2                                                           |
E|-----------------------------------------------------------------|
B|-----------------------------------------------------------------|
G|-----------------------------------------------------------------|
D|-5---5---5---5---5---5---5---5---1---1---1---1---1---1---1---1---|
A|-5---5---5---5---5---5---5---5---1---1---1---1---1---1---1---1---|
D|-5---5---5---5---5---5---5---5---1---1---1---1---1---1---1---1---|



Guitar 1
E|-10-----13-13-13-13-----12-12-12-12-----10-----12-----13------|
B|--------------------------------------------------------------|
G|--------------------------------------------------------------|
D|--------------------------------------------------------------|
A|--------------------------------------------------------------|
D|--------------------------------------------------------------|
                                                                |
Guitar 2                                                        |
E|-13-----17-17-17-17-----15-15-15-15-----13-----15-----17------|
B|--------------------------------------------------------------|
G|--------------------------------------------------------------|
D|--------------------------------------------------------------|
A|--------------------------------------------------------------|
D|--------------------------------------------------------------|
                                    ____________________________/
Guitar 3                           /
E|---------------------------------|
B|---------------------------------|
G|---------------------------------|
D|-0---0---0---0---0---0---0---0---|
A|-0---0---0---0---0---0---0---0---|
D|-0---0---0---0---0---0---0---0---|
                                   \_______________________________________
Guitar 4                                                                   \
E|-13p10----13p10----13p10----13p10----17p13----17p13----17p13----17p13----|
B|-------10-------10-------10-------10-------15-------15-------15-------15-|
G|-------------------------------------------------------------------------|
D|-------------------------------------------------------------------------|
A|-------------------------------------------------------------------------|
D|-------------------------------------------------------------------------|
                                                                           |
Guitar 5                                                                   |
E|-17p13----17p13----17p13----17p13----22p17----22p17----22p17----22p17----|
B|-------15-------15-------15-------15-------18-------18-------18-------18-|
G|-------------------------------------------------------------------------|
D|-------------------------------------------------------------------------|
A|-------------------------------------------------------------------------|
D|-------------------------------------------------------------------------|



Guitar 1
E|-12-----16-16-16-16-----12-12-12-12------------12-----16-----|
B|----------------------------------------12-------------------|
G|-------------------------------------------------------------|
D|-------------------------------------------------------------|
A|-------------------------------------------------------------|
D|-------------------------------------------------------------|
                                                               |
Guitar 2                                                       |
E|-16-----19-19-19-19-----16-16-16-16------------16-----19-----|
B|----------------------------------------17-------------------|
G|-------------------------------------------------------------|
D|-------------------------------------------------------------|
A|-------------------------------------------------------------|
D|-------------------------------------------------------------|
                                    ___________________________/
Guitar 3                           /
E|---------------------------------|
B|---------------------------------|
G|---------------------------------|
D|-6---6---6---6---6---6---6---6---|
A|-5---5---5---5---5---5---5---5---|
D|-6---6---6---6---6---6---6---6---|
                                   \_______________________________________
Guitar 4                                                                   \
E|-16p12----16p12----16p12----16p12----19p16----19p16----19p16----19p16----|
B|-------12-------12-------12-------12-------17-------17-------17-------17-|
G|-------------------------------------------------------------------------|
D|-------------------------------------------------------------------------|
A|-------------------------------------------------------------------------|
D|-------------------------------------------------------------------------|
                                                                           |
Guitar 5                                                                   |
E|-19p16----19p16----19p16----19p16----24p19----24p19----24p19----24p19----|
B|-------17-------17-------17-------17-------21-------21-------21-------21-|
G|-------------------------------------------------------------------------|
D|-------------------------------------------------------------------------|
A|-------------------------------------------------------------------------|
D|-------------------------------------------------------------------------|



Guitar 1
E|-15-----18-18-18-18-----17-17-17-17-----15-----17-----18-----|
B|-------------------------------------------------------------|
G|-------------------------------------------------------------|
D|-------------------------------------------------------------|
A|-------------------------------------------------------------|
D|-------------------------------------------------------------|
                                                               |
Guitar 2                                                       |
E|-18-----22-22-22-22-----20-20-20-20-----18-----20-----22-----|
B|-------------------------------------------------------------|
G|-------------------------------------------------------------|
D|-------------------------------------------------------------|
A|-------------------------------------------------------------|
D|-------------------------------------------------------------|
                                    ___________________________/
Guitar 3                           /
E|---------------------------------|
B|---------------------------------|
G|---------------------------------|
D|-5---5---5---5---5---5---5---5---|
A|-5---5---5---5---5---5---5---5---|
D|-5---5---5---5---5---5---5---5---|
                                   \_______________________________________
Guitar 4                                                                   \
E|-18p15----18p15----18p15----18p15----22p18----22p18----22p18----22p18----|
B|-------15-------15-------15-------15-------20-------20-------20-------20-|
G|-------------------------------------------------------------------------|
D|-------------------------------------------------------------------------|
A|-------------------------------------------------------------------------|
D|-------------------------------------------------------------------------|
                                                                           |
Guitar 5                                                                   |
E|-22p18----22p18----22p18----22p18----15p11----15p11----15p11----15p11----|
B|-------20-------20-------20-------20-------11-------11-------11-------11-|
G|-------------------------------------------------------------------------|
D|-------------------------------------------------------------------------|
A|-------------------------------------------------------------------------|
D|-------------------------------------------------------------------------|



Guitar 1
E|-15-----15-----17-----18-----12-----12-----13-----15-----|
B|---------------------------------------------------------|
G|---------------------------------------------------------|
D|---------------------------------------------------------|
A|---------------------------------------------------------|
D|---------------------------------------------------------|
                                                           |
Guitar 2                                                   |
E|-18-----18-----20-----22-----15-----15-----17-----18-----|
B|---------------------------------------------------------|
G|---------------------------------------------------------|
D|---------------------------------------------------------|
A|---------------------------------------------------------|
D|---------------------------------------------------------|
                                    _______________________/
Guitar 3                           /
E|---------------------------------|
B|---------------------------------|
G|---------------------------------|
D|-1---1---1---1---1---1---1---1---|
A|-1---1---1---1---1---1---1---1---|
D|-1---1---1---1---1---1---1---1---|
                                   \_______________________________________
Guitar 4                                                                   \
E|-15p11----15p11----15p11----15p11----18p15----18p15----18p15----18p15----|
B|-------11-------11-------11-------11-------16-------16-------16-------16-|
G|-------------------------------------------------------------------------|
D|-------------------------------------------------------------------------|
A|-------------------------------------------------------------------------|
D|-------------------------------------------------------------------------|
                                                                           |
Guitar 5                                                                   |
E|-18p15----18p15----18p15----18p15----23p18----23p18----23p18----23p18----|
B|-------16-------16-------16-------16-------20-------20-------20-------20-|
G|-------------------------------------------------------------------------|
D|-------------------------------------------------------------------------|
A|-------------------------------------------------------------------------|
D|-------------------------------------------------------------------------|


VERSE 1

Guitar 1
E|-------------------------------------|
B|-------------------------------------|
G|-------------------------------------|
D|-------------------------------------|
A|-/5---5-/3---3-----------------------|
D|---------------6---6-5---5-3---5-----|


Guitars 1+2
E|-----------------------------------------------------------------------------|
B|-----------------------------------------------------------------------------|
G|-----------------------------------------------------------------------------|
D|-----------------------------------------------------------------------------|
A|-----------------------------------------------------------------------------|
D|-0-----0----0-0-0---0-----0----0-0-0---0-----0----0-0-0---0-----0----0-0-0---|
   *     *    * * *   *     *    * * *   *     *    * * *   *     *    * * *


E|-----------------------------------------------------------------------------|
B|-----------------------------------------------------------------------------|
G|-----------------------------------------------------------------------------|
D|-----------------------------------------------------------------------------|
A|-----------------------------------------------------------------------------|
D|-5-----5----5-5-5---5-----5----5-5-5---5-----5----5-5-5---5-----5----5-5-5---|
   *     *    * * *   *     *    * * *   *     *    * * *   *     *    * * *


E|-------------------------------------------------------------|
B|-------------------------------------------------------------|
G|-------------------------------------------------------------|
D|-------------------------------------------------------------|
A|-------------------------------------------------------------|
D|-0---0---3---0-----0-0-0-0-0-0-0---0---3---0-----0-0-0-0-0-0-|
   *   *   *   *     * * * * * * *   *   *   *     * * * * * *


E|---------------------------------------------------------------|
B|---------------------------------------------------------------|
G|---------------------------------------------------------------|
D|---------------------------------------------------------------|
A|---------------------------------------------------------------|
D|-0---0---3---0-----0-0-0-0-0-0-0---0---3---0---0---0---3---0---|
   *   *   *   *     * * * * * * *   *   *   *   *   *   *   *


E|-------------------------------------------------------------|
B|-------------------------------------------------------------|
G|-------------------------------------------------------------|
D|-------------------------------------------------------------|
A|-------------------------------------------------------------|
D|-5---5---8---5-----5-5-5-5-5-5-5---5---8---5-----5-5-5-5-5-5-|
   *   *   *   *     * * * * * * *   *   *   *     * * * * * *


E|---------------------------------------------------------------|
B|---------------------------------------------------------------|
G|---------------------------------------------------------------|
D|---------------------------------------------------------------|
A|---------------------------------------------------------------|
D|-5---5---8---5-----5-5-5-5-5-5-5---5---8---5---5---5---8---5---|
   *   *   *   *     * * * * * * *   *   *   *   *   *   *   *


Guitar 1
E|-17-12----12\-0h5/9-p5h9-/12p9-/18~--17~---|
B|-------14----------------------------------|
G|-------------------------------------------|
D|-------------------------------------------|
A|-------------------------------------------|
D|-------------------------------------------|
                                             |
Guitar 2                                     |
E|-12-9-----9\-------------------------------|
B|-------10-----2h5/10p5h10/14p10/15~--14~---|
G|-------------------------------------------|
D|-------------------------------------------|
A|-------------------------------------------|
D|-------------------------------------------|


CHORUS I

Guitar 1
E|---------------------------------15-/18--18--17--17--15--17--18--|
B|-15-/18--18--17--17--15--17--18----------------------------------|
G|-----------------------------------------------------------------|
D|-----------------------------------------------------------------|
A|-----------------------------------------------------------------|
D|-----------------------------------------------------------------|
                                                                   |
Guitar 2                                                           |
E|-----------------------------------------------------------------|
B|---------------------------------11-/15--15--13--13--11--13--15--|
G|-10-/14--14--12--12--10--12--14----------------------------------|
D|-----------------------------------------------------------------|
A|-----------------------------------------------------------------|
D|-----------------------------------------------------------------|
                                                                   |
Guitar 3                                                           |
E|-----------------------------------------------------------------|
B|-----------------------------------------------------------------|
G|-----------------------------------------------------------------|
D|-0---0-0-0---0-0-0---0-0-0---0-0-5---5-5-5---5-5-5---5-5-5---5-5-|
A|-0---0-0-0---0-0-0---0-0-0---0-0-5---5-5-5---5-5-5---5-5-5---5-5-|
D|-0---0-0-0---0-0-0---0-0-0---0-0-5---5-5-5---5-5-5---5-5-5---5-5-|



Guitar 1                                                           
E|---------------8---10--12-12----10--------------13-16-17-13---------------|
B|-8--8---10--11-------------------------------15-------------15------------|
G|------------------------------------------14-------------------14\--------|
D|---------------------------------------15---------------------------------|
A|------------------------------------17------------------------------------|
D|--------------------------------------------------------------------------|
                                                                            |
Guitar 2                                                                    |
E|---------------12--13--15-15----13--------------10-12-13-10---------------|
B|-11-11--13--15-------------------------------10-------------10------------|
G|------------------------------------------10-------------------10---------|
D|---------------------------------------12-------------------------12------|
A|------------------------------------12-------------------------------12---|
D|--------------------------------------------------------------------------|
                                                                    ________/
Guitar 3                                                           /
E|-----------------------------------------------------------------|
B|-----------------------------------------------------------------|
G|-----------------------------------------------------------------|
D|-5---5-5-5---5-5-5---5-5-5---5-5-0---0-0-0---0-0-0---0-0-0---0-0-|
A|-5---5-5-5---5-5-5---5-5-5---5-5-0---0-0-0---0-0-0---0-0-0---0-0-|
D|-5---5-5-5---5-5-5---5-5-5---5-5-0---0-0-0---0-0-0---0-0-0---0-0-|



Guitar 1
E|---------------------------------15-/18--18--17--17--15--17--18--|
B|-15-/18--18--17--17--15--17--18----------------------------------|
G|-----------------------------------------------------------------|
D|-----------------------------------------------------------------|
A|-----------------------------------------------------------------|
D|-----------------------------------------------------------------|
        |
Guitar 2        |
E|-----------------------------------------------------------------|
B|---------------------------------11-/15--15--13--13--11--13--15--|
G|-10-/14--14--12--12--10--12--14----------------------------------|
D|-----------------------------------------------------------------|
A|-----------------------------------------------------------------|
D|-----------------------------------------------------------------|
                                                                       |        
Guitar 3                                                           |
E|-----------------------------------------------------------------|
B|-----------------------------------------------------------------|
G|-----------------------------------------------------------------|
D|-0---0-0-0---0-0-0---0-0-0---0-0-5---5-5-5---5-5-5---5-5-5---5-5-|
A|-0---0-0-0---0-0-0---0-0-0---0-0-5---5-5-5---5-5-5---5-5-5---5-5-|
D|-0---0-0-0---0-0-0---0-0-0---0-0-5---5-5-5---5-5-5---5-5-5---5-5-|



Guitar 1                                                           
E|---------------8---10--12-12----10--------------13-16-17-13---------------|
B|-8--8---10--11-------------------------------15-------------15------------|
G|------------------------------------------14-------------------14\--------|
D|---------------------------------------15---------------------------------|
A|------------------------------------17------------------------------------|
D|--------------------------------------------------------------------------|
                                                                            |
Guitar 2                                                                    |
E|---------------12--13--15-15----13--------------10-12-13-10---------------|
B|-11-11--13--15-------------------------------10-------------10------------|
G|------------------------------------------10-------------------10---------|
D|---------------------------------------12-------------------------12------|
A|------------------------------------12-------------------------------12---|
D|--------------------------------------------------------------------------|
                                                                    ________/
Guitar 3                                                           /
E|-----------------------------------------------------------------|
B|-----------------------------------------------------------------|
G|-----------------------------------------------------------------|
D|-5---5-5-5---5-5-5---5-5-5---5-5-0---0-0-0---0-0-0---0-0-0---0-0-|
A|-5---5-5-5---5-5-5---5-5-5---5-5-0---0-0-0---0-0-0---0-0-0---0-0-|
D|-5---5-5-5---5-5-5---5-5-5---5-5-0---0-0-0---0-0-0---0-0-0---0-0-|


Bridge

Guitar 1
E|-13p10----13p10----13p10----13p10----17p13----17p13----17p13----17p13----|
B|-------10-------10-------10-------10-------15-------15-------15-------15-|
G|-------------------------------------------------------------------------|
D|-------------------------------------------------------------------------|
A|-------------------------------------------------------------------------|
D|-------------------------------------------------------------------------|
                                                                           |
Guitar 2                                                                   |
E|-17p13----17p13----17p13----17p13----22p17----22p17----22p17----22p17----|
B|-------15-------15-------15-------15-------18-------18-------18-------18-|
G|-------------------------------------------------------------------------|
D|-------------------------------------------------------------------------|
A|-------------------------------------------------------------------------|
D|-------------------------------------------------------------------------|
                                    _______________________________________/
Guitar 3                           /
E|---------------------------------|
B|---------------------------------|
G|---------------------------------|
D|-0---0---0---0---0---0---0---0---|
A|-0---0---0---0---0---0---0---0---|
D|-0---0---0---0---0---0---0---0---|



Guitar 1
E|-16p12----16p12----16p12----16p12----19p16----19p16----19p16----19p16----|
B|-------12-------12-------12-------12-------17-------17-------17-------17-|
G|-------------------------------------------------------------------------|
D|-------------------------------------------------------------------------|
A|-------------------------------------------------------------------------|
D|-------------------------------------------------------------------------|
                                                                           |
Guitar 2                                                                   |
E|-19p16----19p16----19p16----19p16----24p19----24p19----24p19----24p19----|
B|-------17-------17-------17-------17-------21-------21-------21-------21-|
G|-------------------------------------------------------------------------|
D|-------------------------------------------------------------------------|
A|-------------------------------------------------------------------------|
D|-------------------------------------------------------------------------|
                                    _______________________________________/
Guitar 3                           /
E|---------------------------------|
B|---------------------------------|
G|---------------------------------|
D|-6---6---6---6---6---6---6---6---|
A|-5---5---5---5---5---5---5---5---|
D|-6---6---6---6---6---6---6---6---|



Guitar 1
E|-18p15----18p15----18p15----18p15----22p18----22p18----22p18----22p18----|
B|-------15-------15-------15-------15-------20-------20-------20-------20-|
G|-------------------------------------------------------------------------|
D|-------------------------------------------------------------------------|
A|-------------------------------------------------------------------------|
D|-------------------------------------------------------------------------|
                                                                           |
Guitar 2                                                                   |
E|-22p18----22p18----22p18----22p18----15p11----15p11----15p11----15p11----|
B|-------20-------20-------20-------20-------11-------11-------11-------11-|
G|-------------------------------------------------------------------------|
D|-------------------------------------------------------------------------|
A|-------------------------------------------------------------------------|
D|-------------------------------------------------------------------------|
                                    _______________________________________/
Guitar 3                           /
E|---------------------------------|
B|---------------------------------|
G|---------------------------------|
D|-5---5---5---5---5---5---5---5---|
A|-5---5---5---5---5---5---5---5---|
D|-5---5---5---5---5---5---5---5---|



Guitar 1
E|-15p11----15p11----15p11----15p11----18p15----18p15----18p15----18p15----|
B|-------11-------11-------11-------11-------16-------16-------16-------16-|
G|-------------------------------------------------------------------------|
D|-------------------------------------------------------------------------|
A|-------------------------------------------------------------------------|
D|-------------------------------------------------------------------------|
                                                                           |
Guitar 2                                                                   |
E|-18p15----18p15----18p15----18p15----23p18----23p18----23p18----23p18----|
B|-------16-------16-------16-------16-------20-------20-------20-------20-|
G|-------------------------------------------------------------------------|
D|-------------------------------------------------------------------------|
A|-------------------------------------------------------------------------|
D|-------------------------------------------------------------------------|
                                    _______________________________________/
Guitar 3                           /
E|---------------------------------|
B|---------------------------------|
G|---------------------------------|
D|-1---1---1---1---1---1---1---1---|
A|-1---1---1---1---1---1---1---1---|
D|-1---1---1---1---1---1---1---1---|



VERSE II

Guitar 1
E|-------------------------------------|
B|-------------------------------------|
G|-------------------------------------|
D|-------------------------------------|
A|-/5---5-/3---3-----------------------|
D|---------------6---6-5---5-3---5-----|


Guitars 1 & 2
E|-----------------------------------------------------------------------------|
B|-----------------------------------------------------------------------------|
G|-----------------------------------------------------------------------------|
D|-----------------------------------------------------------------------------|
A|------------------------------------------------------------------------------|
D|-0-----0----0-0-0---0-----0----0-0-0---0-----0----0-0-0---0-----0----0-0-0---|
   *     *    * * *   *     *    * * *   *     *    * * *   *     *    * * *


E|-----------------------------------------------------------------------------|
B|-----------------------------------------------------------------------------|
G|-----------------------------------------------------------------------------|
D|-----------------------------------------------------------------------------|
A|-----------------------------------------------------------------------------|
D|-5-----5----5-5-5---5-----5----5-5-5---5-----5----5-5-5---5-----5----5-5-5---|
   *     *    * * *   *     *    * * *   *     *    * * *   *     *    * * *


E|-------------------------------------------------------------|
B|-------------------------------------------------------------|
G|-------------------------------------------------------------|
D|-------------------------------------------------------------|
A|-------------------------------------------------------------|
D|-0---0---3---0-----0-0-0-0-0-0-0---0---3---0-----0-0-0-0-0-0-|
   *   *   *   *     * * * * * * *   *   *   *     * * * * * *


E|---------------------------------------------------------------|
B|---------------------------------------------------------------|
G|---------------------------------------------------------------|
D|---------------------------------------------------------------|
A|---------------------------------------------------------------|
D|-0---0---3---0-----0-0-0-0-0-0-0---0---3---0---0---0---3---0---|
   *   *   *   *     * * * * * * *   *   *   *   *   *   *   *


E|-------------------------------------------------------------|
B|-------------------------------------------------------------|
G|-------------------------------------------------------------|
D|-------------------------------------------------------------|
A|-------------------------------------------------------------|
D|-5---5---8---5-----5-5-5-5-5-5-5---5---8---5-----5-5-5-5-5-5-|
   *   *   *   *     * * * * * * *   *   *   *     * * * * * *


E|---------------------------------------------------------------|
B|---------------------------------------------------------------|
G|---------------------------------------------------------------|
D|---------------------------------------------------------------|
A|---------------------------------------------------------------|
D|-5---5---8---5-----5-5-5-5-5-5-5---5---8---5---5---5---8---5---|
   *   *   *   *     * * * * * * *   *   *   *   *   *   *   *


Guitar 1
E|-----------------------------------------13-15/18~--17~---|
B|--------------------18-17-18-15-14-15-17------------------|
G|-----------15-14-15---------------------------------------|
D|-/15-14-15------------------------------------------------|
A|----------------------------------------------------------|
D|----------------------------------------------------------|
                                                            |
Guitar 2                                                    |
E|----------------------------------------------------------|
B|-----------------------------15-14----------14-15~--14~---|
G|-----------12-11-12/15-14-15-------14-15-16---------------|
D|-/12-11-12------------------------------------------------|
A|----------------------------------------------------------|
D|----------------------------------------------------------|



CHORUS II

Guitar 1
E|---------------------------------15-/18--18--17--17--15--17--18--|
B|-15-/18--18--17--17--15--17--18----------------------------------|
G|-----------------------------------------------------------------|
D|-----------------------------------------------------------------|
A|-----------------------------------------------------------------|
D|-----------------------------------------------------------------|
                                                                   |
Guitar 2                                                           |
E|-----------------------------------------------------------------|
B|---------------------------------11-/15--15--13--13--11--13--15--|
G|-10-/14--14--12--12--10--12--14----------------------------------|
D|-----------------------------------------------------------------|
A|-----------------------------------------------------------------|
D|-----------------------------------------------------------------|
                                                                   |
Guitar 3                                                           |
E|-----------------------------------------------------------------|
B|-----------------------------------------------------------------|
G|-----------------------------------------------------------------|
D|-0---0-0-0---0-0-0---0-0-0---0-0-5---5-5-5---5-5-5---5-5-5---5-5-|
A|-0---0-0-0---0-0-0---0-0-0---0-0-5---5-5-5---5-5-5---5-5-5---5-5-|
D|-0---0-0-0---0-0-0---0-0-0---0-0-5---5-5-5---5-5-5---5-5-5---5-5-|



Guitar 1                                                           
E|---------------8---10--12-12----10--------------13-16-17-13---------------|
B|-8--8---10--11-------------------------------15-------------15------------|
G|------------------------------------------14-------------------14\--------|
D|---------------------------------------15---------------------------------|
A|------------------------------------17------------------------------------|
D|--------------------------------------------------------------------------|
                                                                            |
Guitar 2                                                                    |
E|---------------12--13--15-15----13--------------10-12-13-10---------------|
B|-11-11--13--15-------------------------------10-------------10------------|
G|------------------------------------------10-------------------10---------|
D|---------------------------------------12-------------------------12------|
A|------------------------------------12-------------------------------12---|
D|--------------------------------------------------------------------------|
                                                                    ________/
Guitar 3                                                           /
E|-----------------------------------------------------------------|
B|-----------------------------------------------------------------|
G|-----------------------------------------------------------------|
D|-5---5-5-5---5-5-5---5-5-5---5-5-0---0-0-0---0-0-0---0-0-0---0-0-|
A|-5---5-5-5---5-5-5---5-5-5---5-5-0---0-0-0---0-0-0---0-0-0---0-0-|
D|-5---5-5-5---5-5-5---5-5-5---5-5-0---0-0-0---0-0-0---0-0-0---0-0-|



Guitar 1
E|---------------------------------15-/18--18--17--17--15--17--18--|
B|-15-/18--18--17--17--15--17--18----------------------------------|
G|-----------------------------------------------------------------|
D|-----------------------------------------------------------------|
A|-----------------------------------------------------------------|
D|-----------------------------------------------------------------|
        |
Guitar 2        |
E|-----------------------------------------------------------------|
B|---------------------------------11-/15--15--13--13--11--13--15--|
G|-10-/14--14--12--12--10--12--14----------------------------------|
D|-----------------------------------------------------------------|
A|-----------------------------------------------------------------|
D|-----------------------------------------------------------------|
                                                                       |        
Guitar 3                                                           |
E|-----------------------------------------------------------------|
B|-----------------------------------------------------------------|
G|-----------------------------------------------------------------|
D|-0---0-0-0---0-0-0---0-0-0---0-0-5---5-5-5---5-5-5---5-5-5---5-5-|
A|-0---0-0-0---0-0-0---0-0-0---0-0-5---5-5-5---5-5-5---5-5-5---5-5-|
D|-0---0-0-0---0-0-0---0-0-0---0-0-5---5-5-5---5-5-5---5-5-5---5-5-|



Guitar 1                                                           
E|---------------8---10--12-12----10--------------13-16-17-13---------------|
B|-8--8---10--11-------------------------------15-------------15------------|
G|------------------------------------------14-------------------14\--------|
D|---------------------------------------15---------------------------------|
A|------------------------------------17------------------------------------|
D|--------------------------------------------------------------------------|
                                                                            |
Guitar 2                                                                    |
E|---------------12--13--15-15----13--------------10-12-13-10---------------|
B|-11-11--13--15-------------------------------10-------------10------------|
G|------------------------------------------10-------------------10---------|
D|---------------------------------------12-------------------------12------|
A|------------------------------------12-------------------------------12---|
D|--------------------------------------------------------------------------|
                                                                    ________/
Guitar 3                                                           /
E|-----------------------------------------------------------------|
B|-----------------------------------------------------------------|
G|-----------------------------------------------------------------|
D|-5---5-5-5---5-5-5---5-5-5---5-5-0---0-0-0---0-0-0---0-0-0---0-0-|
A|-5---5-5-5---5-5-5---5-5-5---5-5-0---0-0-0---0-0-0---0-0-0---0-0-|
D|-5---5-5-5---5-5-5---5-5-5---5-5-0---0-0-0---0-0-0---0-0-0---0-0-|


Solo lick...

Guitar 1
E|----------------------------------------------10-11-10----11~----|
B|-------------------------------------11----11----------13--------|
G|----------------------------12----12----12-----------------------|
D|-12~--12-/15--13~--------12----12--------------------------------|
A|----------------------13-----------------------------------------|
D|-----------------------------------------------------------------|
                                                                   |
Guitar 2                                                           |
E|----------------------------------------------6--8--6-----6~-----|
B|-------------------------------------8-----8-----------10--------|
G|-10~--10-/14--12~-----------7-----7-----7------------------------|
D|-------------------------8-----8---------------------------------|
A|----------------------10-----------------------------------------|
D|-----------------------------------------------------------------|
                                                                   |
Guitar 3                                                           |
E|-----------------------------------------------------------------|
B|-----------------------------------------------------------------|
G|-3---3-3-3---3-3-3---3-3-3---3-3---------------------------------|
D|-3---3-3-3---3-3-3---3-3-3---3-3-1---1-1-1---1-1-1---1-1-1---1-1-|
A|-1---1-1-1---1-1-1---1-1-1---1-1-1---1-1-1---1-1-1---1-1-1---1-1-|
D|---------------------------------1---1-1-1---1-1-1---1-1-1---1-1-|


BRIDGE

Guitar 1
E|---------------------------------------------------------------------------------------------|
B|---------------------------------------------------------------------------------------------|
G|-15---15-15-15-15-15-15-15---15-15-15-15-15-15-10---10-10-10-10-10-10-10---10-10-10-10-10-10-|
D|---------------------------------------------------------------------------------------------|
A|-13---13-13-13-13-13-13-13---13-13-13-13-13-13--8----8--8--8--8--8--8--8----8--8--8--8--8--8-|
D|---------------------------------------------------------------------------------------------|
                                                                                               |
Guitar 2                                                                                       |
E|---------------------------------------------------------------------------------------------|
B|---------------------------------------------------------------------------------------------|
G|-3----3--3--3--3--3--3--3----3--3--3--3--3--3------------------------------------------------|
D|-3----3--3--3--3--3--3--3----3--3--3--3--3--3--3----3--3--3--3--3--3--3----3--3--3--3--3--3--|
A|-1----1--1--1--1--1--1--1----1--1--1--1--1--1--3----3--3--3--3--3--3--3----3--3--3--3--3--3--|
D|-----------------------------------------------3----3--3--3--3--3--3--3----3--3--3--3--3--3--|



Guitar 1
E|-----------------------------------------------------------------------|
B|-----------------------------------------------------------------------|
G|-9---9-9-9-9-9-9-9---9-9-9-9-9-9-7---7-7-9---9-9-10--10-10-14----14-14-|
D|-----------------------------------------------------------------------|
A|-7---7-7-7-7-7-7-7---7-7-7-7-7-7-5---5-5-7---7-7-8----8--8-12----12-12-|
D|-----------------------------------------------------------------------|
                                                                         |
Guitar 2                                                                 |
E|-----------------------------------------------------------------------|
B|-----------------------------------------------------------------------|
G|-----------------------------------------------------------------------|
D|-2---2-2-2-2-2-2-2---2-2-2-2-2-2-0---0-0-0-0-0-0-0---0--0--0--0--0--0--|
A|-2---2-2-2-2-2-2-2---2-2-2-2-2-2-0---0-0-0-0-0-0-0---0--0--0--0--0--0--|
D|-2---2-2-2-2-2-2-2---2-2-2-2-2-2-0---0-0-0-0-0-0-0---0--0--0--0--0--0--|



Guitar 1
E|--------------------------------------------------------------------------------------------|
B|--------------------------------------------------------------------------------------------|
G|-15---15-15-15-15-15-15-15---15-15-14---14-14-10---10-10-10-10-10-10-10---10-10-12----12-12-|
D|--------------------------------------------------------------------------------------------|
A|-13---13-13-13-13-13-13-13---13-13-12---12-12--8----8--8--8--8--8--8--8----8--8-10----10-10-|
D|--------------------------------------------------------------------------------------------|
                                                                                              |
Guitar 2                                                                                      |
E|--------------------------------------------------------------------------------------------|
B|--------------------------------------------------------------------------------------------|
G|-3----3--3--3--3--3--3--3----3--3--3--3--3--3-----------------------------------------------|
D|-3----3--3--3--3--3--3--3----3--3--3--3--3--3--3---3--3--3--3--3--3--3----3--3--3--3--3--3--|
A|-1----1--1--1--1--1--1--1----1--1--1--1--1--1--3---3--3--3--3--3--3--3----3--3--3--3--3--3--|
D|-----------------------------------------------3---3--3--3--3--3--3--3----3--3--3--3--3--3--|



Guitar 1
E|-------------------------------------------------------------------------------|
B|-------------------------------------------------------------------------------|
G|-9---9-9-9-9-9-9-9---9-9-9-9-9-9-13---13-13-13-13-13-13-13---13-13-13-13-13-13-|
D|-------------------------------------------------------------------------------|
A|-7---7-7-7-7-7-7-7---7-7-7-7-7-7-11---11-11-11-11-11-11-11---11-11-11-11-11-11-|
D|-------------------------------------------------------------------------------|
                                                                                 |
Guitar 2                                                                         |
E|-------------------------------------------------------------------------------|
B|-------------------------------------------------------------------------------|
G|-2---2-2-2-2-2-2-2---2-2-2-2-2-2-2----2--2--2--2--2--2--2----2--2--2--2--2--2--|
D|-2---2-2-2-2-2-2-2---2-2-2-2-2-2-2----2--2--2--2--2--2--2----2--2--2--2--2--2--|
A|-0---0-0-0-0-0-0-0---0-0-0-0-0-0-4----4--4--4--4--4--4--4----4--4--4--4--4--4--|
D|-------------------------------------------------------------------------------|
                                                        _________________________/
Guitar 3                                               /
E|-----------------------------------------------------|
B|-----------------------------------------------------|
G|-----------------------------------------------------|
D|-3---------3---------3-----3---------3---------3-----|
A|-1-1-1-1-1-1-1-1-1-1-1-1-1-1-1-1-1-1-1-1-1-1-1-1-1-1-|
D|-----------------------------------------------------|
     * * * *   * * * *   * *   * * * *   * * * *   * *


Guitar 1
E|---------------15-17-18-17-15--------------------------15-17-18-17-15-----------|
B|------------15----------------15--------------------15----------------15--------|
G|---------15----------------------15--------------15----------------------15-----|
D|------17----------------------------17\-------17----------------------------17\-|
A|-/17-------------------------------------/17------------------------------------|
D|--------------------------------------------------------------------------------|
                                                                                  |
Guitar 2                                                                          |
E|---------------18-20-22-20-18--------------------------18-21-22-21-18-----------|
B|------------20----------------20--------------------20----------------20--------|
G|---------19----------------------19--------------19----------------------19-----|
D|------20----------------------------20\-------20----------------------------20\-|
A|-/22-------------------------------------/22------------------------------------|
D|--------------------------------------------------------------------------------|
                                                         _________________________/
Guitar 3                                                /
E|-----------------------------------------------------|
B|-----------------------------------------------------|
G|-----------------------------------------------------|
D|-----------------------------------------------------|
A|-3---------3---------3-----3---------3---------3-----|
D|-3-3-3-3-3-3-3-3-3-3-3-3-3-3-3-3-3-3-3-3-3-3-3-3-3-3-|
     * * * *   * * * *   * *   * * * *   * * * *   * *


Guitar 1
E|-----------------------------------------------------|
B|-----------------------------------------------------|
G|-----------------------------------------------------|
D|-/10~------------------------------------------------|
A|-----------------------------------------------------|
D|-----------------------------------------------------|
                                                       |
Guitar 2                                               |
E|-----------------------------------------------------|
B|-----------------------------------------------------|
G|-----------------------------------------------------|
D|-/14~------------------------------------------------|
A|-----------------------------------------------------|
D|-----------------------------------------------------|
                                                       |
Guitar 3                                               |
E|-----------------------------------------------------|
B|-----------------------------------------------------|
G|-----------------------------------------------------|
D|-----------------------------------------------------|
A|-2---------2---------2-----2---------2---------2-----|
D|-2-2-2-2-2-2-2-2-2-2-2-2-2-2-2-2-2-2-2-2-2-2-2-2-2-2-|
     * * * *   * * * *   * *   * * * *   * * * *   * *


Guitar 1
E|------------10-12-13-12-10----------------------------10-12-13-12-10--------------|
B|---------10----------------10----------------------10----------------10-----------|
G|------10----------------------10----------------10----------------------10--------|
D|-/12-----------------------------12----------12----------------------------12-----|
A|------------------------------------12\8-/12----------------------------------12\-|
D|----------------------------------------------------------------------------------|
                                                                                    |
Guitar 2                                                                            |
E|------------13-15-17-15-13----------------------------13-15-17-15-13--------------|
B|---------15----------------15----------------------15----------------15-----------|
G|------14----------------------14----------------14----------------------14--------|
D|---------------------------------15----15----------------------------------15-----|
A|-/17--------------------------------17----17----------------------------------17\-|
D|----------------------------------------------------------------------------------|
                                                        ____________________________/
Guitar 3                                               /
E|-----------------------------------------------------|
B|-----------------------------------------------------|
G|-----------------------------------------------------|
D|-----------------------------------------------------|
A|-0---------0---------0-----0---------0---------0-----|
D|-0-0-0-0-0-0-0-0-0-0-0-0-0-0-0-0-0-0-0-0-0-0-0-0-0-0-|
     * * * *   * * * *   * *   * * * *   * * * *   * *


Guitar 1
E|-----------------------------------------------------|
B|-----------------------------------------------------|
G|-----------------------------------------------------|
D|-/12~------------------------------------------------|
A|-----------------------------------------------------|
D|-----------------------------------------------------|
                                                       |
Guitar 2                                               |
E|-----------------------------------------------------|
B|-----------------------------------------------------|
G|-/15~------------------------------------------------|
D|-----------------------------------------------------|
A|-----------------------------------------------------|
D|-----------------------------------------------------|
                                                       |
Guitar 3                                               |
E|-----------------------------------------------------|
B|-----------------------------------------------------|
G|-----------------------------------------------------|
D|-3---------3---------3-----3---------3---------3-----|
A|-1-1-1-1-1-1-1-1-1-1-1-1-1-1-1-1-1-1-1-1-1-1-1-1-1-1-|
D|-----------------------------------------------------|
     * * * *   * * * *   * *   * * * *   * * * *   * *


Guitar 1
E|---------------15-17-18-17-15----------------------------15-17-18-17-15-----------|
B|------------15----------------15----------------------15----------------15--------|
G|---------15----------------------15----------------15----------------------15-----|
D|------17----------------------------17\---------17----------------------------17\-|
A|-/17---------------------------------------/17------------------------------------|
D|----------------------------------------------------------------------------------|
                                                                                    |
Guitar 2                                                                            |
E|---------------18-20-22-20-18----------------------------18-21-22-21-18-----------|
B|------------20----------------20----------------------20----------------20--------|
G|---------19----------------------19----------------19----------------------19-----|
D|------20----------------------------20\---------20----------------------------20\-|
A|-/22---------------------------------------/22------------------------------------|
D|----------------------------------------------------------------------------------|
                                                        ____________________________/
Guitar 3                                               /
E|-----------------------------------------------------|
B|-----------------------------------------------------|
G|-----------------------------------------------------|
D|-----------------------------------------------------|
A|-3---------3---------3-----3---------3---------3-----|
D|-3-3-3-3-3-3-3-3-3-3-3-3-3-3-3-3-3-3-3-3-3-3-3-3-3-3-|
     * * * *   * * * *   * *   * * * *   * * * *   * *


Guitar 1
E|-----------------------------------------------------|
B|-----------------------------------------------------|
G|-----------------------------------------------------|
D|-/13~------------------------------------------------|
A|-----------------------------------------------------|
D|-----------------------------------------------------|
                                                       |
Guitar 2                                               |
E|-----------------------------------------------------|
B|-----------------------------------------------------|
G|-/14~------------------------------------------------|
D|-----------------------------------------------------|
A|-----------------------------------------------------|
D|-----------------------------------------------------|
                                                       |
Guitar 3                                               |
E|-----------------------------------------------------|
B|-----------------------------------------------------|
G|-----------------------------------------------------|
D|-2---------2---------2-----2---------2---------2-----|
A|-0-0-0-0-0-0-0-0-0-0-0-0-0-0-0-0-0-0-0-0-0-0-0-0-0-0-|
D|-----------------------------------------------------|
     * * * *   * * * *   * *   * * * *   * * * *   * *

Guitar 1
E|-------------------------------------------------------|
B|-------------------------------------------------------|
G|-/14~-------/18~---------------------------------------|
D|-------------------------------------------------------|
A|-------------------------------------------------------|
D|-------------------------------------------------------|
                                                         |
Guitar 2                                                 |
E|-------------------------------------------------------|
B|-------------------------------------------------------|
G|-/18~--------------------------------------------------|
D|------------/19~---------------------------------------|
A|-------------------------------------------------------|
D|-------------------------------------------------------|
                                                         |
Guitar 3                                                 |
E|-------------------------------------------------------|
B|-------------------------------------------------------|
G|-------------------------------------------------------|
D|-2-2-2-2-2-2-2-2-2-2-2-2-2-2-2/6--6--6--6--6--6--6--6--|
A|-4-4-4-4-4-4-4-4-4-4-4-4-4-4-4/7--7--7--7--7--7--7--7--|
D|-------------------------------------------------------|
     * * * *   * * * *   * *
 

SOLO

Guitar 1
E|-----------------------------------13--17-b18r17~--15~------|
B|-13b15-----15b17r15b18---15--13~----------------------------|
G|------------------------------------------------------------|
D|------------------------------------------------------------|
A|------------------------------------------------------------|
D|------------------------------------------------------------|


E|-15b17-----15p13----13h15--13h15--13~--------/17--18~------------|
B|-----------------15--------------------------------------15~-----|
G|--------------
comments
We did not receive enough feedback on this tab! Please rate:
1 2 3 4 5
I want to post or [tab]
guest
You may want to rate the tab now too:
select rating
Please do not post tabs as comments. Select "correction" instead!