Oops, an error
Loading. Please wait.

Darkness Surrounding Bass Tab

ver3
ver3

Whole song

Interactive

More versions @911Tabs.com
194 views 3 this week
no commentswrite comment
1 2 3 4 5
excellent!
x 2
Autoscroll
+/-
esc
set tempo
stop
Contributor
Tuning
D A D G B E
Hey! There's an official Ultimate Guitar app which is ideal
for learning songs when you're away from computer. Get the app
WARNING: You are trying to view
                                    content from Ultimate-Guitar.com
                                    in an unauthorized application,
                                    which is prohibited.

                                    Please use an official Ultimate
                                    Guitar Tabs application for iPhone,
                                    iPad or Android to access legitimate
                                    chords, guitar, bass, and drum tabs
                                    from Ultimate-Guitar.com database.

                                    Type "ultimate guitar tabs" in Apple
                                    App Store's or Android Market's
                                    search to find the application.
G|-----------------------------------------------------------------|
D|-------------------------------------------------------4-5-4-----|
A|-3-3---333-3-3-335-5---555-5-5-557-7---777-7-7-777-5-7-------7-5-|
D|-----------------------------------------------------------------|
   1 + 2 + 3 + 4 + 1 + 2 + 3 + 4 + 1 + 2 + 3 + 4 + 1 + 2 + 3 + 4 +

G|-----------------------------------------------------------------|
D|-----------------------------------------------------------------|
A|-3-3---333-3-3-335-5---555-5-5-557-7---777-7-7-777-7---777-7-7-77|
D|-----------------------------------------------------------------|
   1 + 2 + 3 + 4 + 1 + 2 + 3 + 4 + 1 + 2 + 3 + 4 + 1 + 2 + 3 + 4 +

0:10
G|-----------------------------------------------------------------|
D|-----------------------------------------------------------------|
A|-3---------------------------------------------------------------|
D|-------------------------------------------------14-\------------|

G|-------------------------------------------------------------------|
D|o-----------------------------------------------------------------o|
A|o-----------------------------------------------------------------o|
D|--2---2---2-3-0-3-2---2---2-3-0-3-2---2---2-3-0-3-2---2---2-3-0-3--|
    1 + 2 + 3 + 4 + 1 + 2 + 3 + 4 + 1 + 2 + 3 + 4 + 1 + 2 + 3 + 4 +

0:24
G|-----------------------------------------------------------------|
D|-------------------------------------------------------4-5-4-----|
A|-3-3---333-3-3-335-5---555-5-5-557-7---777-7-7-777-5-7-------7-5-|
D|-----------------------------------------------------------------|
   1 + 2 + 3 + 4 + 1 + 2 + 3 + 4 + 1 + 2 + 3 + 4 + 1 + 2 + 3 + 4 +

G|-----------------------------------------------------------------|
D|-----------------------------------------------------------------|
A|-3-3---333-3-3-335-5---555-5-5-557-7---777-7-7-777-7---777-7-7-77|
D|-----------------------------------------------------------------|
   1 + 2 + 3 + 4 + 1 + 2 + 3 + 4 + 1 + 2 + 3 + 4 + 1 + 2 + 3 + 4 +

G|-----------------------------------------------------------------|
D|-----------------------------------------------------------------|
A|-3---------------------------------------------------------------|
D|-------------------------------------------------14-\------------|

G|-------------------------------------------------------------------|
D|o-----------------------------------------------------------------o| x4
A|o-----------------------------------------------------------------o|
D|--2---2---2-3-0-3-2---2---2-3-0-3-2---2---2-3-0-3-2---2---2-3-0-3--|
    1 + 2 + 3 + 4 + 1 + 2 + 3 + 4 + 1 + 2 + 3 + 4 + 1 + 2 + 3 + 4 +

0:58
G|-------------------------------------------------------------------|
D|o-----------------------------------------------------------------o|
A|o-----------------3---2---------------------------3---2-----------o|
D|--2---22222---2-----------4---5---2---22222---2-----------5---4----|
    1 + 2 + 3 + 4 + 1 + 2 + 3 + 4 + 1 + 2 + 3 + 4 + 1 + 2 + 3 + 4 +

1:08
G|-----------------------------------------------------------------|
D|-----------------------------------------------------------------|
A|-------1-1---1---1-------1---1-----------1---1-------------------|
D|-2-----------------2-------------2---------------2-3-2-3-5-3-2-3-|
   1 + 2 + 3 + 4 + 1 + 2 + 3 + 4 + 1 + 2 + 3 + 4 + 1 + 2 + 3 + 4 +

G|------------------------------------------------------------------|
D|------------------------------------------------------------------|
A|-------1---1-1---1-------1---1-----------1---1--------------------|
D|-2-----------------2-------------2---------------2--3--2--3--5--3-|
   1 + 2 + 3 + 4 + 1 + 2 + 3 + 4 + 1 + 2 + 3 + 4 + 1 + 2 +  3 + 4 +

1:18
G|------------------------------------------------------------------|
D|------------------------------------------------------------------|
A|---------1-1-1-1---------1---1---1-------1-1-1-1------------------|
D|-2-2-------------2-2---------------2-------------2--3--2--3--5--3-|
   1 + 2 + 3 + 4 + 1 + 2 + 3 + 4 + 1 + 2 + 3 + 4 + 1 + 2 +  3 + 4 +

G|-------------------------------------------------------------------------|
D|-------------------------------------------------------------------------|
A|---------1-1-1-1---------1-1-1-1---------1-1-1-1-------------------------|
D|-2-2-----------------------------2-2-------------2--3--2--3--5--3--2-----|
   1 + 2 + 3 + 4 + 1 + 2 + 3 + 4 + 1 + 2 + 3 + 4 + 1 + 2 +  3 + 4 +

Rest
 
1:40
G|--------------------------------------------------------------------|
D|o------------------------------------------------------------------o|
A|o------------------------------------------------------------------o| x3
D|--0-2-0-2-3-2-0-2-----------------0-2-0-2-3-2-0-2-------------------|
    1 + 2 + 3 + 4 + 1 + 2 + 3 + 4 + 1 + 2 + 3 + 4 + 1 + 2 +  3 + 4 +

G|------------------------------------------------------------------|
D|------------------------------------------------------------------|
A|------------------------------------------------------------------|
D|-0-2-0-2-3-2-0-2-----------------0-2-0-2-3-2-0--------------------|
   1 + 2 + 3 + 4 + 1 + 2 + 3 + 4 + 1 + 2 + 3 + 4 + 1 + 2 +  3 + 4 +

G|------------------------------------------------------------------|
D|------------------------------------------------------------------|
A|------------------------------------------------------------------|
D|-0-2-0-2-3-2-0-2-----------------0-2-0-2-3-2-0-2------------------|
   1 + 2 + 3 + 4 + 1 + 2 + 3 + 4 + 1 + 2 + 3 + 4 + 1 + 2 +  3 + 4 +

G|------------------------------------------------------------------|
D|------------------------------------------------------------------|
A|------------------------------------------------------------------|
D|-0-2-0-2-3-2-0-2-----------------0-2-0-2-3-2-0-0------------------|
   1 + 2 + 3 + 4 + 1 + 2 + 3 + 4 + 1 + 2 + 3 + 4 + 1 + 2 +  3 + 4 +

G|------------------------------------------------------------------|
D|------------------------------------------------------------------|
A|------------------------------------------------------------------|
D|-0-2-0-2-3-2-0-2-----------------0-2-0-2-3-2-0-2------------------|
   1 + 2 + 3 + 4 + 1 + 2 + 3 + 4 + 1 + 2 + 3 + 4 + 1 + 2 +  3 + 4 +

G|------------------------------------------------------------------|
D|------------------------------------------------------------------|
A|------------------------------------------------------------------|
D|---------------------------------0-2-0-2-3-2-0--------------------|
   1 + 2 + 3 + 4 + 1 + 2 + 3 + 4 + 1 + 2 + 3 + 4 + 1 + 2 +  3 + 4 +

Rest

2:33
G|-----------------------------------------------------------------|
D|-----------------------------------------------------------------|
A|-----------------------------------------------------------------|
D|-2---2-2-3---2-------2-2-5---3---2---2-2-3---2-------2---2---3---|
   1 + 2 + 3 + 4 + 1 + 2 + 3 + 4 + 1 + 2 + 3 + 4 + 1 + 2 + 3 + 4 +

G|-----------------------------------------------------------------|
D|-----------------------------------------------------------------|
A|-----------------------------------------------------------------|
D|-2---2-2-3---2-------2-2-5---3---2---2-2-3---2-------3-------3---|
   1 + 2 + 3 + 4 + 1 + 2 + 3 + 4 + 1 + 2 + 3 + 4 + 1 + 2 + 3 + 4 +

G|-----------------------------------------------------------------|
D|-----------------------------------------------------------------|
A|-----------------------------------------------------------------|
D|-2---2-2-3---2-------2-2-5---3---2---2-2-3---2-------2---2---3---|
   1 + 2 + 3 + 4 + 1 + 2 + 3 + 4 + 1 + 2 + 3 + 4 + 1 + 2 + 3 + 4 +

G|-----------------------------------------------------------------|
D|-----------------------------------------------------------------|
A|-----------------------------------------------------------------|
D|-2---2-2-3---2-------2-2-5---3---2---2-2-3---2-------3-------3---|
   1 + 2 + 3 + 4 + 1 + 2 + 3 + 4 + 1 + 2 + 3 + 4 + 1 + 2 + 3 + 4 +
2:45
G|-----------------------------------------------------------------|
D|-----------------------------------------------------------------|
A|-------------3-/-5---------------3-----------3-/-5---------------|
D|-2---------------------------------------------------------------|
   1 + 2 + 3 + 4 + 1 + 2 + 3 + 4 + 1 + 2 + 3 + 4 + 1 + 2 + 3 + 4 +

G|-----------------------------------------------------------------|
D|-----------------------------------------------------------------|
A|-------------3---5---------------3---------------5---------------|
D|-2---------------------------------------------------------------|
   1 + 2 + 3 + 4 + 1 + 2 + 3 + 4 + 1 + 2 + 3 + 4 + 1 + 2 + 3 + 4 +

3:01
G|-----------------------------------------------------------------|
D|---------------------------------2-2-2-2-2-4-5-4-----------------|
A|---------------2-3-3-3-3-5-5-5-5-----------------3-3---3-5-5-----|
D|-2-2-2-2-2-2-5---------------------------------------5-------5-4-|
   1 + 2 + 3 + 4 + 1 + 2 + 3 + 4 + 1 + 2 + 3 + 4 + 1 + 2 + 3 + 4 +

3:10
G|-----------------------------------------------------------------|
D|-----------------------------------------------------------------|
A|---------------2-3-3-3-3-5-5-5-----------------2-3-3-2-3-5---5---|
D|-2-2-2-2-2-2-2-----------------5-2-2-2-2-2-2-2-------------------|
   1 + 2 + 3 + 4 + 1 + 2 + 3 + 4 + 1 + 2 + 3 + 4 + 1 + 2 + 3 + 4 +

3:21
G|-----------------------------------------------------------------|
D|-----------------------------5---------------2-------------------|
A|-------------3-/-5-------------5-3-------------2-5---------------|
D|-2-------2---------------------------------------=-----------5-\-|
   1 + 2 + 3 + 4 + 1 + 2 + 3 + 4 + 1 + 2 + 3 + 4 + 1 + 2 + 3 + 4 +

G|-----------------------------------------------------------------|
D|-----------------------------------------------------------------|
A|-----------------5---------------3-----------3---5---------------|
D|-2-----------2---------------------------------------------------|
   1 + 2 + 3 + 4 + 1 + 2 + 3 + 4 + 1 + 2 + 3 + 4 + 1 + 2 + 3 + 4 +

3:34
G|-----------------------------------------------------------------|
D|-----------------------------------------------------------------|
A|---------------3-5-----5-5---5---3-----3-3---3---5-----5-5-------|
D|-2-----2-2---2-----------------------------------------------5-4-|
   1 + 2 + 3 + 4 + 1 + 2 + 3 + 4 + 1 + 2 + 3 + 4 + 1 + 2 + 3 + 4 +

3:41
G|-----------------------------------------------------------------|
D|-----------------------------------------------------------------|
A|-------7-7---7---5-----5-5---5---3-----3-3---3-3-5-5-5-5-5-5-5-5-|
D|-2---------------------------------------------------------------|
   1 + 2 + 3 + 4 + 1 + 2 + 3 + 4 + 1 + 2 + 3 + 4 + 1 + 2 + 3 + 4 +

3:49
G|-----------------------------------------------------------------|
D|---------------------2-------5-----2---2---4-5-4-----------------|
A|-----------------3-3---3-5-5---5-----------------3-3---3-5-5-----|
D|-2-2-2-2-2-2-2-2-----------------2---2---2-----------5-------5-4-|
   1 + 2 + 3 + 4 + 1 + 2 + 3 + 4 + 1 + 2 + 3 + 4 + 1 + 2 + 3 + 4 +

3:57
G|-----------------------------------------------------------------|
D|---------2---------5-----------------------2-4-5-----2-----------|
A|-------2---2---2-3---3-2-5-5-------------2-------3-3---3-5-5-5-5-|
D|-2-4-5-------2---------------5-4-2-2-4-5-------------------------|
   1 + 2 + 3 + 4 + 1 + 2 + 3 + 4 + 1 + 2 + 3 + 4 + 1 + 2 + 3 + 4 +

4:07
G|-----------------------------------------------------------------|
D|---------------------2---------------2-2-------------2-------445-|
A|-----------------3-5---335-5-5-----------------2-3-3---335-5-----|
D|-2-----2---2-2-2---------------542-2-------225-------------------|
   1 + 2 + 3 + 4 + 1 + 2 + 3 + 4 + 1 + 2 + 3 + 4 + 1 + 2 + 3 + 4 +

4:16
G|---------------------------------------------------------------------|
D|-----2-2---4-5-4-----2-----------------2-------------2---------------|
A|-----------------3-3---3-5-5-5-------2---------2-3-3---3-5-5---------|
D|-2-2---------------------------5-2-2-------225---------------5-4-2---|
   1 + 2 + 3 + 4 + 1 + 2 + 3 + 4 + 1 + 2 + 3 + 4 + 1 + 2 + 3 + 4 +

4:30
G|-----------------------------------------------------------------|
D|-----------------------------------------2-----------2-------5-4-|
A|---------------2-3-3-2-3-5-5-5---------2---2---2-3-3---3-5-5-----|
D|-2-2-2-2-2-2-5-----------------542-4-5-------5-------------------|
   1 + 2 + 3 + 4 + 1 + 2 + 3 + 4 + 1 + 2 + 3 + 4 + 1 + 2 + 3 + 4 +

G|-----------------------------------------------------------------|
D|-2-2-4-4-5-4-2-4-------------------------2-----------2-----------|
A|-----------------3-3---3-5-5-----------2---2-----3-3---3-5-5-----|
D|---------------------5-------5-4-2-2-5-------5-2-------------5-4-|
   1 + 2 + 3 + 4 + 1 + 2 + 3 + 4 + 1 + 2 + 3 + 4 + 1 + 2 + 3 + 4 +
comments
We did not receive enough feedback on this tab! Please rate:
print report bad tab
1 2 3 4 5
I want to post or [tab]
guest
You may want to rate the tab now too:
select rating
Please do not post tabs as comments. Select "correction" instead!