Oops, an error
Loading. Please wait.

Desecrate Through Reverance Tab

ver2
ver2

Whole song

More versions @911Tabs.com
22,229 views 54 this week
3 commentsread comments
1 2 3 4 5
excellent!
x 6
Autoscroll
+/-
esc
set tempo
stop
Contributor
WARNING: You are trying to view
                                    content from Ultimate-Guitar.com
                                    in an unauthorized application,
                                    which is prohibited.

                                    Please use an official Ultimate
                                    Guitar Tabs application for iPhone,
                                    iPad or Android to access legitimate
                                    chords, guitar, bass, and drum tabs
                                    from Ultimate-Guitar.com database.

                                    Type "ultimate guitar tabs" in Apple
                                    App Store's or Android Market's
                                    search to find the application.
DESECRATE THROUGH REVERANCE
As recorded by Avenged Sevenfold
(From the 2003 Album WAKING THE FALLEN)
Words and Music by Avenged Sevenfold
Arranged by Avenged Sevenfold

Gtr I (D A D G B E) - 'Untitled'
Gtr II (D A D G B E) - 'Untitled'
Gtr III (D A D G B E) - 'Untitled'
Gtr IV (D A D G B E) - 'Untitled'
Gtr V (D A D G B E) - 'Untitled'

   Intro
    Moderate Rock Q=94
    N.C.
   4/4
    Gtrs I, II
                           ~
||-----------------|--------------|-----------------|------------------||
||o----------------|--------------|-----------------|-----------------o||
||-----------------|--------------|-----------------|------------------||
||--0---0-2--3-(3)S|=8---7-6--7\--|-3---(3)S5---(5)S|=2---(2)S8--7\----||
||o-x---x-x--x-----|-x---x-x--x---|-x-------x-------|-x-------x--x----o||
||--0---0-2--3-(3)S|=8---7-6--7\--|-3---(3)S5---(5)S|=2---(2)S8--7\----||


    Dm            Em F Gm                 F        Em F Dm
    Gtrs I, II
                                             ~~~
||-------------------------|------------------------------|
||o------------------------|------------------------------|
||-------------------------|------------------------------|
||--0----0--2-------3--(3)S|===8----------7--6-------7\---|
||o-x----x--x-------x------|---x----------x--x-------x----|
||--0----0--2-------3--(3)S|===8----------7--6-------7\---|
|
|   Gtr III
||-------------------------|------------------------------|
||o-6--6-8-(8)-10-(10)-11--|-(11)-10-(10)-8-(8)-10-(10)-6-|
||--7--7-9-(9)-10-(10)-12--|-(12)-10-(10)-9-(9)-10-(10)-7-|
||-------------------------|------------------------------|
||o------------------------|------------------------------|
||-------------------------|------------------------------|


                         EF Em                   F Em
|----------------------------|--------------------------||
|----------------------------|-------------------------o||
|----------------------------|--------------------------||
|--3-----(3)S=5----------(5)S|==2-----(2)S==8-----7\----||
|--x----------x--------------|--x-----------x-----x----o||
|--3-----(3)S=5----------(5)S|==2-----(2)S==8-----7\----||
|
|----------------------------|--------------------------||
|-(6)--6--8--(8)-10-(10)--8--|-(8)--8-10--(10)-8-(8)---o||
|-(7)--7--9--(9)-10-(10)--9--|-(9)--9-10--(10)-9-(9)----||
|----------------------------|--------------------------||
|----------------------------|-------------------------o||
|----------------------------|--------------------------||


  Double-Time Q=188
  D5
  Gtrs I, II
|----------|--------||
|----------|--------||
|----------|--------||
|-0--------|-(0)----||
|-0--------|-(0)----||
|-0--------|-(0)----||


    D5    N.C.                        D5
    Gtr I
    PM--|                        ~    PM--|  PM|  PM
||-----------------|----------------|---------------|
||o----------------|----------------|---------------|
||-----------------|----------------|---------------|
||-----------------|----------------|---------------|
||o-0-0-0--8-----7-|-----7---5-8-7--|-0-0-0--0-0--0-|
||--0-0-0----7h8---|-7-5---7--------|-0-0-0--0-0--0-|
|
|   Gtr II
|   PM--|                             PM--|  PM|  PM
||-----------------|----------------|---------------|
||o----------------|----------------|---------------|
||-----------------|----------------|---------------|
||-----------------|----------------|---------------|
||o-0-0-0----------|----------------|-0-0-0--0-0--0-|
||--0-0-0----------|----------------|-0-0-0--0-0--0-|


  N.C.
|-----------------|-------------------||
|-----------------|------------------o||
|-----------------|---------7---9-10--||
|-----------------|---7-------8-------||
|-8-----7-----5s7-|-5---7s8----------o||
|---7h8---7-5-----|-------------------||
|
|-----------------|-------------------||
|-----------------|------------------o||
|-----------------|-------------------||
|-----------------|-------------------||
|-----------------|------------------o||
|-----------------|-------------------||


   Pre-Verse
    D5               E5   F5     E5         G5    F5
    Gtr I
    PM|
||-----------------|-----------|----------|------------|
||o----------------|-----------|----------|------------|
||-----------------|-----------|----------|------------|
||------0--0-0-0-0-|-2----3----|-2--------|-/5----3----|
||o-0-0-0--0-0-0-0-|-2----3----|-2--------|-/5----3----|
||--0-0-0--0-0-0-0-|-2----3----|-2--------|-/5----3----|
|
|   Gtr II
|   PM|
||-----------------|-----------|----------|------------|
||o----------------|-----------|----------|------------|
||-----------------|-----------|----------|------------|
||------3--3-3-3-3-|-5----7----|-5--------|--8----7----|
||o-5-5-5--5-5-5-5-|-7----8----|-7--------|-10----8----|
||--0-0------------|-----------|----------|------------|


  N.C.
  Gtrs I, II
|-----------------------|-------------------|
|-----------------------|-------------------|
|-----------------------|-------------------|
|-----------------------|-------------------|
|-----------------------|-------------------|
|-0-0-0-0-3-(3)-3-0-0-0-|-0-3-(3)-0-6-0-6h7-|


  D5               E5   F5     E5         N.C.
  Gtr I
  PM|                                      PM--------------|
|----------------|-----------|----------|--------------------|
|----------------|-----------|----------|--------------------|
|----------------|-----------|----------|--------------------|
|-----0--0-0-0-0-|-2----3----|-2--------|-/5-7-8-7---12-11---|
|-0-0-0--0-0-0-0-|-2----3----|-2--------|----------8-------7-|
|-0-0-0--0-0-0-0-|-2----3----|-2--------|--------------------|
|
| Gtr II
| PM|
|----------------|-----------|----------|--------------------|
|----------------|-----------|----------|--------------------|
|----------------|-----------|----------|--------------------|
|-----3--3-3-3-3-|-5----7----|-5--------|--------------------|
|-5-5-5--5-5-5-5-|-7----8----|-7--------|--------------------|
|-0-0------------|-----------|----------|--------------------|


  1.
  N.C.
  Gtrs I, II
|-----------------------|--------------------||
|-----------------------|-------------------o||
|-----------------------|--------------------||
|-----------------------|--------------------||
|-----------------------|-------------------o||
|-0-0-0-0-3-(3)-3-0-0-0-|-0-6-(6)-6-0-0-6h7--||


  2.
  D5
|----------|------------|----------|--------|
|----------|------------|----------|--------|
|----------|------------|----------|--------|
|-0--------|-(0)--------|-0--------|-(0)----|
|-0--------|-(0)--------|-0--------|-(0)----|
|-0--------|-(0)--------|-0--------|-(0)----|


  D5
|----------|------------|------------|--------|
|----------|------------|------------|--------|
|----------|------------|------------|--------|
|-0--------|-(0)--------|-(0)--------|-(0)----|
|-0--------|-(0)--------|-(0)--------|-(0)----|
|-0--------|-(0)--------|-(0)--------|-(0)----|


  D5    N.C.                        D5
                                   2/4
  Gtr I
  PM--|                        ~    PM|  PM
|----------------|----------------|--------||
|----------------|----------------|--------||
|----------------|----------------|--------||
|----------------|----------------|--------||
|-0-0-0--8-----7-|-----7---5-8-7--|-0-0--0-||
|-0-0-0----7h8---|-7-5---7--------|-0-0--0-||
|
| Gtr II
| PM--|                             PM|  PM
|----------------|----------------|--------||
|----------------|----------------|--------||
|----------------|----------------|--------||
|----------------|----------------|--------||
|-0-0-0----------|----------------|-0-0--0-||
|-0-0-0----------|----------------|-0-0--0-||


 Verse
  F5E5   N.C.    E5    F5      E5     N.C.    E5    F5
 4/4
  Gtrs I, II
|------------|---------------|------------|---------------|
|------------|---------------|------------|---------------|
|------------|---------------|------------|---------------|
|-3p2-2------|---2-2-2h3-3-3-|-2-2-2------|---2-2-2h3-3-3-|
|-3p2-2------|---2-2-2h3-3-3-|-2-2-2------|---2-2-2h3-3-3-|
|-3p2-2------|---2-2-2h3-3-3-|-2-2-2------|---2-2-2h3-3-3-|


  D5
  PM---------------------------------------------------------------|
|--------------|------------------|---------------|------------------|
|--------------|------------------|---------------|------------------|
|--------------|------------------|---------------|------------------|
|--------------|------------------|---------------|------------------|
|-0--0--0-0--0-|-(0)-0-0-0--0-0-0-|-0-0-0--0-0--0-|-(0)-0-0-0--0-0-0-|
|-0--0--0-0--0-|-(0)-0-0-0--0-0-0-|-0-0-0--0-0--0-|-(0)-0-0-0--0-0-0-|


  F5E5   N.C.    E5    F5      E5         N.C.  E5    F5
|------------|---------------|--------------|---------------|
|------------|---------------|--------------|---------------|
|------------|---------------|--------------|---------------|
|-3p2-2------|---2-2-2h3-3-3-|-2-2-2--2-2---|---2-2-2h3-3-3-|
|-3p2-2------|---2-2-2h3-3-3-|-2-2-2--2-2---|---2-2-2h3-3-3-|
|-3p2-2------|---2-2-2h3-3-3-|-2-2-2--2-2---|---2-2-2h3-3-3-|


  D5
  PM---------------------------------------------------------------|
|--------------|------------------|---------------|------------------|
|--------------|------------------|---------------|------------------|
|--------------|------------------|---------------|------------------|
|--------------|------------------|---------------|------------------|
|-0--0--0-0--0-|-(0)-0-0-0--0-0-0-|-0-0-0--0-0--0-|-(0)-0-0-0--0-0-0-|
|-0--0--0-0--0-|-(0)-0-0-0--0-0-0-|-0-0-0--0-0--0-|-(0)-0-0-0--0-0-0-|


  F5E5   N.C.    E5    F5      E5     N.C.          E5    F5
                                      Gtrs IV, V    Gtrs I, II
|------------|---------------|---------------|------------------|
|------------|---------------|---------------|------------------|
|------------|---------------|---------------|------------------|
|-3p2-2------|---2-2-2h3-3-3-|-2-2-2---------|------2-2-2h3-3-3-|
|-3p2-2------|---2-2-2h3-3-3-|-2-2-2---------|------2-2-2h3-3-3-|
|-3p2-2------|---2-2-2h3-3-3-|-2-2-2--[3]----|-(3)--2-2-2h3-3-3-|


  D5
  PM---------------------------------------------------------------|
|--------------|------------------|---------------|------------------|
|--------------|------------------|---------------|------------------|
|--------------|------------------|---------------|------------------|
|--------------|------------------|---------------|------------------|
|-0--0--0-0--0-|-(0)-0-0-0--0-0-0-|-0-0-0--0-0--0-|-(0)-0-0-0--0-0-0-|
|-0--0--0-0--0-|-(0)-0-0-0--0-0-0-|-0-0-0--0-0--0-|-(0)-0-0-0--0-0-0-|


  F5E5   N.C.    E5    F5      E5         N.C.  E5    F5  D5
|------------|---------------|--------------|---------------||
|------------|---------------|--------------|---------------||
|------------|---------------|--------------|---------------||
|-3p2-2------|---2-2-2h3-3-3-|-2-2-2--2-2---|---2-2-2h3-3-0-||
|-3p2-2------|---2-2-2h3-3-3-|-2-2-2--2-2---|---2-2-2h3-3-0-||
|-3p2-2------|---2-2-2h3-3-3-|-2-2-2--2-2---|---2-2-2h3-3-0-||


   Pre-Chorus
    N.C.         D5       N.C.         D5
     PM--------|           PM--------|
||----------------------|---------------------|
||o---------------------|---------------------|
||----------------------|---------------------|
||--------------------0-|-------------------0-|
||o--------------0-0--0-|--------------0-0--0-|
||---0-0-0-0-0-0-0-0--0-|--0-0-0-0-0-0-0-0--0-|


  1.
  N.C.         D5       N.C.         D5
   PM--------|
|---------------------|-----------------||
|---------------------|----------------o||
|---------------------|-----------------||
|-------------------0-|--------------0--||
|--------------0-0--0-|--------------0-o||
|--0-0-0-0-0-0-0-0--0-|--0-3-0-5-6-7-0--||


  2.
  N.C.         D5       N.C.
   PM--------|
|---------------------|------------------||
|---------------------|------------------||
|---------------------|------------------||
|-------------------0-|------------------||
|--------------0-0--0-|------------------||
|--0-0-0-0-0-0-0-0--0-|--8-7-5-(5)-6-7-0-||


   Chorus
    F6                E6        F6 D5
||------------------|----------------|
||o-----------------|----------------|
||--7-7-7-7-7-7-7-7-|-6-6-6-6-6-7----|
||--3-3-3-3-3-3-3-3-|-2-2-2-2-2-3--0-|
||o-5-5-5-5-5-5-5-5-|-4-4-4-4-4-5--0-|
||--3-3-3-3-3-3-3-3-|-2-2-2-2-2-3--0-|


                      Bb6         Bb5
|-------------------|----------------------|
|-------------------|----------------------|
|-------------------|----------------------|
|-(0)-0-0-0-0-0-0-0-|--8--8--8--8-8-8-8-8--|
|-(0)-0-0-0-0-0-0-0-|-10-10-10-10-8-8-8-8--|
|-(0)-0-0-0-0-0-0-0-|--8--8--8--8-8-8-8-8--|


  C                           CsuD5  N.C.         D5       N.C.         D5
                                      PM--------|           PM--------|
|-----------------|----------------|---------------------|---------------------|
|-----------------|----------------|---------------------|---------------------|
|-5-5-5-5-5-5-5-5-|-5-5-5-5-5-5----|---------------------|---------------------|
|-2-2-2-2-2-2-2-2-|-2-2-2-2-2-3--0-|-------------------0-|-------------------0-|
|-3-3-3-3-3-3-3-3-|-3-3-3-3-3-3--0-|--------------0-0--0-|--------------0-0--0-|
|-----------------|--------------0-|--0-0-0-0-0-0-0-0--0-|--0-0-0-0-0-0-0-0--0-|


  1.
  N.C.         D5       N.C.         D5
   PM--------|           PM--------|
|---------------------|----------------------||
|---------------------|---------------------o||
|---------------------|----------------------||
|-------------------0-|-------------------0--||
|--------------0-0--0-|--------------0-0--0-o||
|--0-0-0-0-0-0-0-0--0-|--0-0-0-0-0-0-0-0--0--||


  2.
  N.C.         D5                N.C.
   PM--------|
|---------------------|------------||
|---------------------|------------||
|---------------------|------------||
|-------------------0-|--0--0-0----||
|--------------0-0--0-|--0--0-0----||
|--0-0-0-0-0-0-0-0--0-|--0--0-0----||


 Verse
  F5E5   N.C.    E5    F5      E5     N.C.    E5    F5
|------------|---------------|------------|---------------|
|------------|---------------|------------|---------------|
|------------|---------------|------------|---------------|
|-3p2-2------|---2-2-2h3-3-3-|-2-2-2------|---2-2-2h3-3-3-|
|-3p2-2------|---2-2-2h3-3-3-|-2-2-2------|---2-2-2h3-3-3-|
|-3p2-2------|---2-2-2h3-3-3-|-2-2-2------|---2-2-2h3-3-3-|


  D5
  PM---------------------------------------------------------------|
|--------------|------------------|---------------|------------------|
|--------------|------------------|---------------|------------------|
|--------------|------------------|---------------|------------------|
|--------------|------------------|---------------|------------------|
|-0--0--0-0--0-|-(0)-0-0-0--0-0-0-|-0-0-0--0-0--0-|-(0)-0-0-0--0-0-0-|
|-0--0--0-0--0-|-(0)-0-0-0--0-0-0-|-0-0-0--0-0--0-|-(0)-0-0-0--0-0-0-|


  F5E5   N.C.    E5    F5      E5         N.C.  E5    F5
|------------|---------------|--------------|---------------|
|------------|---------------|--------------|---------------|
|------------|---------------|--------------|---------------|
|-3p2-2------|---2-2-2h3-3-3-|-2-2-2--2-2---|---2-2-2h3-3-3-|
|-3p2-2------|---2-2-2h3-3-3-|-2-2-2--2-2---|---2-2-2h3-3-3-|
|-3p2-2------|---2-2-2h3-3-3-|-2-2-2--2-2---|---2-2-2h3-3-3-|


  D5
  PM---------------------------------------------------------------|
|--------------|------------------|---------------|------------------|
|--------------|------------------|---------------|------------------|
|--------------|------------------|---------------|------------------|
|--------------|------------------|---------------|------------------|
|-0--0--0-0--0-|-(0)-0-0-0--0-0-0-|-0-0-0--0-0--0-|-(0)-0-0-0--0-0-0-|
|-0--0--0-0--0-|-(0)-0-0-0--0-0-0-|-0-0-0--0-0--0-|-(0)-0-0-0--0-0-0-|


  F5E5   N.C.    E5    F5      E5     N.C.          E5    F5
                                      Gtrs IV, V    Gtrs I, II
|------------|---------------|---------------|------------------|
|------------|---------------|---------------|------------------|
|------------|---------------|---------------|------------------|
|-3p2-2------|---2-2-2h3-3-3-|-2-2-2---------|------2-2-2h3-3-3-|
|-3p2-2------|---2-2-2h3-3-3-|-2-2-2---------|------2-2-2h3-3-3-|
|-3p2-2------|---2-2-2h3-3-3-|-2-2-2--[3]----|-(3)--2-2-2h3-3-3-|


  D5
  PM---------------------------------------------------------------|
|--------------|------------------|---------------|------------------|
|--------------|------------------|---------------|------------------|
|--------------|------------------|---------------|------------------|
|--------------|------------------|---------------|------------------|
|-0--0--0-0--0-|-(0)-0-0-0--0-0-0-|-0-0-0--0-0--0-|-(0)-0-0-0--0-0-0-|
|-0--0--0-0--0-|-(0)-0-0-0--0-0-0-|-0-0-0--0-0--0-|-(0)-0-0-0--0-0-0-|


  F5E5   N.C.    E5    F5      E5         N.C.  E5    F5  D5
|------------|---------------|--------------|---------------||
|------------|---------------|--------------|---------------||
|------------|---------------|--------------|---------------||
|-3p2-2------|---2-2-2h3-3-3-|-2-2-2--2-2---|---2-2-2h3-3-0-||
|-3p2-2------|---2-2-2h3-3-3-|-2-2-2--2-2---|---2-2-2h3-3-0-||
|-3p2-2------|---2-2-2h3-3-3-|-2-2-2--2-2---|---2-2-2h3-3-0-||


   Pre-Chorus
    N.C.         D5       N.C.         D5
     PM--------|           PM--------|
||----------------------|---------------------|
||o---------------------|---------------------|
||----------------------|---------------------|
||--------------------0-|-------------------0-|
||o--------------0-0--0-|--------------0-0--0-|
||---0-0-0-0-0-0-0-0--0-|--0-0-0-0-0-0-0-0--0-|


  1.
  N.C.         D5       N.C.         D5
   PM--------|
|---------------------|-----------------||
|---------------------|----------------o||
|---------------------|-----------------||
|-------------------0-|--------------0--||
|--------------0-0--0-|--------------0-o||
|--0-0-0-0-0-0-0-0--0-|--0-3-0-5-6-7-0--||


  2.
  N.C.         D5       N.C.
   PM--------|
|---------------------|------------------||
|---------------------|------------------||
|---------------------|------------------||
|-------------------0-|------------------||
|--------------0-0--0-|------------------||
|--0-0-0-0-0-0-0-0--0-|--8-7-5-(5)-6-7-0-||


   Chorus
    F6                E6        F6 D5
||------------------|----------------|
||o-----------------|----------------|
||--7-7-7-7-7-7-7-7-|-6-6-6-6-6-7----|
||--3-3-3-3-3-3-3-3-|-2-2-2-2-2-3--0-|
||o-5-5-5-5-5-5-5-5-|-4-4-4-4-4-5--0-|
||--3-3-3-3-3-3-3-3-|-2-2-2-2-2-3--0-|


                      Bb6         Bb5
|-------------------|----------------------|
|-------------------|----------------------|
|-------------------|----------------------|
|-(0)-0-0-0-0-0-0-0-|--8--8--8--8-8-8-8-8--|
|-(0)-0-0-0-0-0-0-0-|-10-10-10-10-8-8-8-8--|
|-(0)-0-0-0-0-0-0-0-|--8--8--8--8-8-8-8-8--|


  C                           CsuD5  N.C.         D5       N.C.         D5
                                      PM--------|           PM--------|
|-----------------|----------------|---------------------|---------------------|
|-----------------|----------------|---------------------|---------------------|
|-5-5-5-5-5-5-5-5-|-5-5-5-5-5-5----|---------------------|---------------------|
|-2-2-2-2-2-2-2-2-|-2-2-2-2-2-3--0-|-------------------0-|-------------------0-|
|-3-3-3-3-3-3-3-3-|-3-3-3-3-3-3--0-|--------------0-0--0-|--------------0-0--0-|
|-----------------|--------------0-|--0-0-0-0-0-0-0-0--0-|--0-0-0-0-0-0-0-0--0-|


  N.C.         D5       N.C.         D5
   PM--------|           PM--------|
|---------------------|----------------------||
|---------------------|---------------------o||
|---------------------|----------------------||
|-------------------0-|-------------------0--||
|--------------0-0--0-|--------------0-0--0-o||
|--0-0-0-0-0-0-0-0--0-|--0-0-0-0-0-0-0-0--0--||


   Interlude
    F6                            E6                F5      D5
    Gtr I
||------------------------------|------------------------------|
||o-/10--------------10-(10)----|------------------------------|
||--------10-12-(12)---------12-|-(12)----9-10-(10)-12-(12)-10-|
||------------------------------|------------------------------|
||o-----------------------------|------------------------------|
||------------------------------|------------------------------|
|
|   Gtr II
||------------------------------|------------------------------|
||o-----------------------------|------------------------------|
||--/10--------------10-(10)----|------------------------------|
||--------12-14-(14)---------14-|-(14)---11-12-(12)-14-(14)-12-|
||o-----------------------------|------------------------------|
||------------------------------|------------------------------|
|
|   Gtr III
||------------------------------|------------------------------|
||o-----------------------------|------------------------------|
||----7-7--7--7---7---7---7---7-|---6--6--6--6---6---7---------|
||----3-3--3--3---3---3---3---3-|---2--2--2--2---2---3-------0-|
||o---5-5--5--5---5---5---5---5-|---4--4--4--4---4---5-------0-|
||----3-3--3--3---3---3---3---3-|---2--2--2--2---2---3-------0-|


                        Bb6          Bb5
|---------------------|------------------------|
|----------------10---|-/11----------10--------|
|-(10)----------------|------------------------|
|---------------------|------------------------|
|---------------------|------------------------|
|---------------------|------------------------|
|
|---------------------|------------------------|
|---------------------|------------------------|
|----------------10---|-/12----------10--------|
|-(12)----------------|------------------------|
|---------------------|------------------------|
|---------------------|------------------------|
|
|---------------------|------------------------|
|---------------------|------------------------|
|---------------------|------------------------|
|--(0)-0-0-0-0-0--0-0-|---8--8--8--8--8-8-8-8--|
|--(0)-0-0-0-0-0--0-0-|--10-10-10-10--8-8-8-8--|
|--(0)-0-0-0-0-0--0-0-|---8--8--8--8--8-8-8-8--|


  C                              CsusD5
|------------------|--------------------|
|------------------|--------10---11--10-|
|-12---------------|-12-----------------|
|------------------|--------------------|
|------------------|--------------------|
|------------------|--------------------|
|
|------------------|--------------------|
|------------------|--------------------|
|------------------|--------10---12--10-|
|-14---------------|-14-----------------|
|------------------|--------------------|
|------------------|--------------------|
|
|------------------|--------------------|
|------------------|--------------------|
|--5-5-5-5-5-5-5-5-|--5-5-5--5-5--5-----|
|--2-2-2-2-2-2-2-2-|--2-2-2--2-2--3---0-|
|--3-3-3-3-3-3-3-3-|--3-3-3--3-3--3---0-|
|------------------|------------------0-|


    ~~~~
|--------------------|---------------------|
|-(10)---------------|--------------10-----|
|--------------------|-/10-----12----------|
|--------------------|---------------------|
|--------------------|---------------------|
|--------------------|---------------------|
|
|   ~~~~
|--------------------|---------------------|
|--------------------|---------------------|
|-(10)---------------|--------------10-----|
|--------------------|-/12-----14----------|
|--------------------|---------------------|
|--------------------|---------------------|
|
|--------------------|---------------------|
|--------------------|---------------------|
|--------------------|---------------------|
|--(0)-0-0-0-0-0-0-0-|---0-0-0--0-0--0-0-0-|
|--(0)-0-0-0-0-0-0-0-|---0-0-0--0-0--0-0-0-|
|--(0)-0-0-0-0-0-0-0-|---0-0-0--0-0--0-0-0-|


  Bb5                  C5
|--------------------|-------------------||
|-/11-------10-------|------------------o||
|--------------------|-12----------------||
|--------------------|-------------------||
|--------------------|------------------o||
|--------------------|-------------------||
|
|--------------------|-------------------||
|--------------------|------------------o||
|--12-------10-------|-------------------||
|--------------------|-14----------------||
|--------------------|------------------o||
|--------------------|-------------------||
|
|--------------------|-------------------||
|--------------------|------------------o||
|--------------------|--5-5-5-5-5-5-5-5--||
|---8-8-8-8--8-8-8-8-|--5-5-5-5-5-5-5-5--||
|---8-8-8-8--8-8-8-8-|--3-3-3-3-3-3-3-3-o||
|---8-8-8-8--8-8-8-8-|-------------------||


   Breakdown
    D5  N.C.   D5    N.C.             D5  N.C.
    Gtr I
    PM|        PM|                    PM|
                                                                      4x
||-----------------|----------------|-----------------|---------------||
||o----------------|----------------|-----------------|--------------o||
||-----------------|----------------|-----------------|---------------||
||------/7--5------|--/8--7--5--7\--|-----/7--5---/8--|-7--5--7S=2----||
||o-0-0--------0-0-|----------------|-0-0-------------|--------------o||
||--0-0--------0-0-|----------------|-0-0-------------|---------------||
|
|   Gtr II
|   PM|        PM|                    PM|
|                                                                     4x
||-----------------|----------------|-----------------|---------------||
||o----------------|----------------|-----------------|--------------o||
||-----------------|----------------|-----------------|---------------||
||-----------------|----------------|-----------------|---------------||
||o-0-0-/8--7--0-0-|-/10--8--7--8\--|-0-0-/8--7--/10--|-8--7--8S=3---o||
||--0-0--------0-0-|----------------|-0-0-------------|---------------||


 Bridge
  D5                    C5                    Eb5
  Gtrs I, II
|---------------------|---------------------|----------|--------|
|---------------------|---------------------|----------|--------|
|---------------------|---------------------|----------|--------|
|-12--12-12-12-12-12S=|=10--10-10-10-10-10--|-1--------|-(1)----|
|-12--12-12-12-12-12S=|=10--10-10-10-10-10--|-1--------|-(1)----|
|-12--12-12-12-12-12S=|=10--10-10-10-10-10--|-1--------|-(1)----|


  F5               A
     PM--------------------------|
|----------------|-----------------||
|----------------|-----------------||
|----------------|-----------------||
|-3--------------|-----------------||
|-3--3-3-3-3-3-3-|-4-4-4-4-4-4-4-4-||
|-3--3-3-3-3-3-3-|-7-7-7-7-7-7-7-7-||


   Interlude
    D5                      C/E
    Gtr I
||------------------------|----------------|
||o-----------------------|----------------|
||--10--10-10-10-10-10-10-|-9--9-9-9-9-9-9-|
||---x---x--x--x--x--x--x-|-x--x-x-x-x-x-x-|
||o--8---8--8--8--8--8--8-|-7--7-7-7-7-7-7-|
||------------------------|----------------|
|
|   Gtr II
||------------------------|----------------|
||o-----------------------|----------------|
||------------------------|----------------|
||--12--12-12-12-12-12-12-|-2--2-2-2-2-2-2-|
||o-12--12-12-12-12-12-12-|-3--3-3-3-3-3-3-|
||--12--12-12-12-12-12-12-|-2--2-2-2-2-2-2-|


  C5                      D5
|-----------------------|-----------------|
|-----------------------|-----------------|
|--9---9--9--9--9--9--9-|-7--7-7-7-7-7-7--|
|--x---x--x--x--x--x--x-|-x--x-x-x-x-x-x--|
|--7---7--7--7--7--7--7-|-5--5-5-5-5-5-5--|
|-----------------------|-----------------|
|
|-----------------------|-----------------|
|-----------------------|-----------------|
|-----------------------|-----------------|
|-10--10-10-10-10-10-10-|-0--0-0-0-0-0-0--|
|-10--10-10-10-10-10-10-|-0--0-0-0-0-0-0--|
|-10--10-10-10-10-10-10-|-0--0-0-0-0-0-0--|


  D5                      C5
|-----------------------|-----------------------|
|-----------------------|-----------------------|
|-10--10-10-10-10-10-10-|--9---9--9--9--9--9--9-|
|--x---x--x--x--x--x--x-|--x---x--x--x--x--x--x-|
|--8---8--8--8--8--8--8-|--7---7--7--7--7--7--7-|
|-----------------------|-----------------------|
|
|-----------------------|-----------------------|
|-----------------------|-----------------------|
|-----------------------|-----------------------|
|-12--12-12-12-12-12-12-|-10--10-10-10-10-10-10-|
|-12--12-12-12-12-12-12-|-10--10-10-10-10-10-10-|
|-12--12-12-12-12-12-12-|-10--10-10-10-10-10-10-|


  F5               N.C.
|----------------|-----------------||
|----------------|----------------o||
|-5--5-5-5-5-5-5-|-6--6-6-6-6-6-6--||
|-x--x-x-x-x-x-x-|-x--x-x-x-x-x-x--||
|-3--3-3-3-3-3-3-|-4--4-4-4-4-4-4-o||
|----------------|-----------------||
|
|----------------|-----------------||
|----------------|----------------o||
|----------------|-6--6-6-6-6-6-6--||
|-3--3-3-3-3-3-3-|-x--x-x-x-x-x-x--||
|-3--3-3-3-3-3-3-|-4--4-4-4-4-4-4-o||
|-3--3-3-3-3-3-3-|-----------------||


  D5                      C5
|----------|------------|-----------|---------|
|----------|------------|-----------|---------|
|-7--------|-(7)--------|--9--------|--(9)----|
|-x--------|------------|--x--------|---------|
|-5--------|-(5)--------|--7--------|--(7)----|
|----------|------------|-----------|---------|
|
|----------|------------|-----------|---------|
|----------|------------|-----------|---------|
|----------|------------|-----------|---------|
|-0--------|-(0)--------|-10--------|-(10)----|
|-0--------|-(0)--------|-10--------|-(10)----|
|-0--------|-(0)--------|-10--------|-(10)----|


  Bb5
|-------------------------|-------------------------|
|-------------------------|-------------------------|
|-10-10-10-10-10-10-10-10-|-10-10-10-10-10-10-10-10-|
|--x--x--x--x--x--x--x--x-|--x--x--x--x--x--x--x--x-|
|--8--8--8--8--8--8--8--8-|--8--8--8--8--8--8--8--8-|
|-------------------------|-------------------------|
|
|-------------------------|-------------------------|
|-------------------------|-------------------------|
|-------------------------|-------------------------|
|--8--8--8--8--8--8--8--8-|--8--8--8--8--8--8--8--8-|
|--8--8--8--8--8--8--8--8-|--8--8--8--8--8--8--8--8-|
|--8--8--8--8--8--8--8--8-|--8--8--8--8--8--8--8--8-|


  F5                A5
|-----------------|-----------------|
|-----------------|-----------------|
|-5-5-5-5-5-5-5-5-|-6-6-6-6-6-6-6-6-|
|-x-x-x-x-x-x-x-x-|-x-x-x-x-x-x-x-x-|
|-3-3-3-3-3-3-3-3-|-4-4-4-4-4-4-4-4-|
|-----------------|-----------------|
|
|-----------------|-----------------|
|-----------------|-----------------|
|-----------------|-----------------|
|-3-3-3-3-3-3-3-3-|-7-7-7-7-7-7-7-7-|
|-3-3-3-3-3-3-3-3-|-7-7-7-7-7-7-7-7-|
|-3-3-3-3-3-3-3-3-|-7-7-7-7-7-7-7-7-|


  D5
|-----------------|-----------------|
|-----------------|-----------------|
|-7-7-7-7-7-7-7-7-|-7-7-7-7-7-7-7-7-|
|-x-x-x-x-x-x-x-x-|-x-x-x-x-x-x-x-x-|
|-5-5-5-5-5-5-5-5-|-5-5-5-5-5-5-5-5-|
|-----------------|-----------------|
|
|-----------------|-----------------|
|-----------------|-----------------|
|-----------------|-----------------|
|-0-0-0-0-0-0-0-0-|-0-0-0-0-0-0-0-0-|
|-0-0-0-0-0-0-0-0-|-0-0-0-0-0-0-0-0-|
|-0-0-0-0-0-0-0-0-|-0-0-0-0-0-0-0-0-|


  C5
|-------------------------|-------------------------|
|-------------------------|-------------------------|
|--9--9--9--9--9--9--9--9-|--9--9--9--9--9--9--9--9-|
|--x--x--x--x--x--x--x--x-|--x--x--x--x--x--x--x--x-|
|--7--7--7--7--7--7--7--7-|--7--7--7--7--7--7--7--7-|
|-------------------------|-------------------------|
|
|-------------------------|-------------------------|
|-------------------------|-------------------------|
|-------------------------|-------------------------|
|-10-10-10-10-10-10-10-10-|-10-10-10-10-10-10-10-10-|
|-10-10-10-10-10-10-10-10-|-10-10-10-10-10-10-10-10-|
|-10-10-10-10-10-10-10-10-|-10-10-10-10-10-10-10-10-|


  Bb5
|-------------------------|-------------------------|
|-------------------------|-------------------------|
|-10-10-10-10-10-10-10-10-|-10-10-10-10-10-10-10-10-|
|--x--x--x--x--x--x--x--x-|--x--x--x--x--x--x--x--x-|
|--8--8--8--8--8--8--8--8-|--8--8--8--8--8--8--8--8-|
|-------------------------|-------------------------|
|
|-------------------------|-------------------------|
|-------------------------|-------------------------|
|-------------------------|-------------------------|
|--8--8--8--8--8--8--8--8-|--8--8--8--8--8--8--8--8-|
|--8--8--8--8--8--8--8--8-|--8--8--8--8--8--8--8--8-|
|--8--8--8--8--8--8--8--8-|--8--8--8--8--8--8--8--8-|


  F6                A             D5
|-----------------|-----------------||
|-----------------|-----------------||
|-5-5-5-5-5-5-5-5-|-6-6-6-6-6-6-6---||
|-x-x-x-x-x-x-x-x-|-x-x-x-x-x-x-x-0-||
|-3-3-3-3-3-3-3-3-|-4-4-4-4-4-4-4-0-||
|-----------------|---------------0-||
|
|-----------------|-----------------||
|-----------------|-----------------||
|-----------------|-----------------||
|-3-3-3-3-3-3-3-3-|---------------0-||
|-5-5-5-5-5-5-5-5-|-4-4-4-4-7-7-7-0-||
|-3-3-3-3-3-3-3-3-|-7-7-7-7-7-7-7-0-||


 Outro
  N.C.         D5       N.C.         D5
  Gtrs I, II
   PM--------|           PM--------|
|---------------------|---------------------|
|---------------------|---------------------|
|---------------------|---------------------|
|-------------------0-|-------------------0-|
|--------------0-0--0-|--------------0-0--0-|
|--0-0-0-0-0-0-0-0--0-|--0-0-0-0-0-0-0-0--0-|


  N.C.         D5                N.C.
   PM--------|
|---------------------|------------*|
|---------------------|------------*|
|---------------------|------------*|
|-------------------0-|--0--0-0----*|
|--------------0-0--0-|--0--0-0----*|
|--0-0-0-0-0-0-0-0--0-|--0--0-0----*|



Tablature Legend
----------------
 h   - hammer-on
 p   - pull-off
 b   - bend
 pb  - pre-bend
 r   - bend release (if no number after the r, then release immediately)
 /\  - slide into or out of (from/to "nowhere")
 s   - legato slide
 S   - shift slide
 - natural harmonic
[n]  - artificial harmonic
n(n) - tapped harmonic
 ~   - vibrato
 tr  - trill
 T   - tap
 TP  - trem. picking
 PM  - palm muting
\n/  - tremolo bar dip; n = amount to dip
 \n  - tremolo bar down
 n/  - tremolo bar up
/n\  - tremolo bar inverted dip
 =   - hold bend; also acts as connecting device for hammers/pulls
 <> - volume swell (louder/softer)
 x   - on rhythm slash represents muted slash
 o   - on rhythm slash represents single note slash
comments
print report bad tab
3 comments total.
+1 reply
stumaster18 wrote on November 11 2005, 09:05 pm

wow. this a good tab. excellent work!

+1 reply
Ncsk8erdude wrote on December 7 2005, 05:34 am

that intro is great if you're playing with one guitar, but if you have two guitarists, you split it up. One person plays on the low D string and the other plays on the "high" D string.

0 reply
EldonsName24 wrote on June 26 2008, 11:00 pm

or alternately, You can record the *Rhythm - R * for it and record the high D string for the R, and when you get the 1:23 both A & B can pull-off the pick slides while R keeps going and the harmonies as well
well you'll get it

I want to post or [tab]
guest
You may want to rate the tab now too:
select rating
Please do not post tabs as comments. Select "correction" instead!