Oops, an error
Loading. Please wait.

Eternal Rest Tab

ver3
ver3

Solo

Whole song

More versions @911Tabs.com
3,213 views 12 this week
2 commentsread comments
1 2 3 4 5
excellent!
x 4
Autoscroll
+/-
esc
set tempo
stop
Contributor
Difficulty
Tuning
intermediate
D A D G B E
WARNING: You are trying to view
                                    content from Ultimate-Guitar.com
                                    in an unauthorized application,
                                    which is prohibited.

                                    Please use an official Ultimate
                                    Guitar Tabs application for iPhone,
                                    iPad or Android to access legitimate
                                    chords, guitar, bass, and drum tabs
                                    from Ultimate-Guitar.com database.

                                    Type "ultimate guitar tabs" in Apple
                                    App Store's or Android Market's
                                    search to find the application.
**NB: I transcribed the Power Tab as requested and saw that simple tab was also 
so I HTML'd it for you guys. ROCK OUT!


C5
x 3 5 x x x Eb5
1 1 1 x x x F5
3 3 3 x x x D5
x 5 7 x x x
G5
5 5 5 x x x D5open
0 0 0 x x x D5(type 2)
0 0 x x x x


Gtr I (D A D G B E) - 'Synyster Gates (Rhythm)'
Gtr II (D A D G B E) - 'Zacky Vengeance (Rhythm)'
Gtr III (D A D G B E) - 'Synyster Gates (Lead)'
Gtr IV (D A D G B E) - 'Zacky Vengeance (Lead)'
Gtr V (D A D G B E) - 'Pick Slides/String Noises'


 Intro/Guitar Solo
  Fast Rock Q=200
  C5               C5               Eb5   F5        Eb5    F5
 4/4
  Gtrs I, II
   E. S   S      S E   H             E    E +E   E   E     E +Q
   |  |   |      | |   |             |    |  |   |   |     |  |
   /  o   /      / /   /             /    /  /   /   /     /  /

  Gtr III                                                    Gtr V
   ~~~~~~~~~~~~~~~~~~~~~~~~~~~~~~~~~~~~~~~~~~~~~~~~~~~~~~~~
                                                              |----6----|
   Q     +Q           +Q    +Q       Q.         +E   Q        S S S S S S
|-15----(15)---------(15)--(15)---|-12---------(12)-12---------------------|
|-18----(18)b20======(18)--(18)r--|-15b17r=====(15)-15b17=====x-x---x------|
|---------------------------------|-------------------------------x---x-x\-|
|---------------------------------|----------------------------------------|
|---------------------------------|----------------------------------------|
|---------------------------------|----------------------------------------|


  C5            C5                    Eb              F          F#            F
   E. S S   S   E  H                   S     S   S  S S S   S  S   S     S S S S S S S
   |  | |   |   |  |                   |     |   |  | | |   |  |   |     | | | | | | |
   /  o /   /   /  /                   o     /   /  / o /   /  /   o     / / / o / / /

  Gtr III
                       ~~~~~~~~~~~~~             ~~~~~             ~~~~~~~
        |--3--|
   E. S S S   S E  E   E  +E   +E      E        +Q         +E     +H
|-----------------------------------|---------------------------------------------------|
|-----------------------------------|---------------------------------------------------|
|-----------------------------------|-10b12====(10)r======(10)---(10)b13----------------|
|---------------8S10\-12-(12)-(12)\-|---------------------------------------------------|
|-------5-6---8---------------------|---------------------------------------------------|
|-/5--8-----------------------------|---------------------------------------------------|


  C5                 C5
   E.        S  S  S  E     H
   |         |  |  |  |     |
   /         o  /  /  /     /

   S   S  S  S  S  S  S  S  S  S  S  S  S  S  S  S
|-13--11-------------------------------------------|
|--------13-11-13-11-------------------------------|
|--------------------14-12-14----12----12----12----|
|-----------------------------15----15----15----15-|
|--------------------------------------------------|
|--------------------------------------------------|


  Eb5F5             Eb5  F5
   E  E    +E     E   E  E +Q
   |  |     |     |   |  |  |
   /  /     /     /   /  /  /

                  ~~~~~~~
   E  S  S  S  S  E  +H
|------------------------------|
|------------------------------|
|----12----------12-(12)-------|
|-15----15-12-15---------------|
|------------------------------|
|------------------------------|


  C5                C5
   E.       S  S  S  E     H
   |        |  |  |  |     |
   /        o  /  /  /     /

   S   S  S S  S  S  S  S  S S T  T  S S  S S  S
|------------------------------------------------|
|------------------------------------------------|
|-----12-14-8-10-11s12s11-10p8-8-----------------|
|-15-----------------------------10-10p8----8----|
|----------------------------------------10---10-|
|------------------------------------------------|


  Eb       F       F#        F
   S S S S S S S S  S  S S S S S S S
   | | | | | | | |  |  | | | | | | |
   o / / / o / / /  o  / / / o / / /

   ~~          ~~~~~~~~
   Q       S S E   +H
|-------------------------------------|
|-------------------------------------|
|-------------------------------------|
|----------8p7------------------------|
|-10-----------8---(8)----------------|
|-------------------------------------|


  D5                D5
   E.       S  S  S  E     H
   |        |  |  |  |     |
   /        o  /  /  /     /

   S  S  S  S  S  S  S  S  S  S  S  S  S  S  T  T  T  T
|-------------------------------------------------------|
|-------------------------------------------------------|
|-12h14h15-17p15p14p12-12h14h15-17p15p14p12-14p12p10h12-|
|-------------------------------------------------------|
|-------------------------------------------------------|
|-------------------------------------------------------|


  F5      G5                F5        G5
    E     E  +E         E      E      E +Q
    |     |   |         |      |      |  |
    /     /   /         /      /      /  /

    ~~~~~~~                    ~~~~~~~~~
   +Q         E        +E     +H
|-----------[13]pb15r([13])-([13])b15-------|
|-------------------------------------------|
|-(12)b14-----------------------------------|
|-------------------------------------------|
|-------------------------------------------|
|-------------------------------------------|


  D5                  D5
  E.           S S  S  E    H
  |            | |  |  |    |
  /            o /  /  /    /

  |--3--|
  T   T T S  S S S  S  S  S S  S  S  S  E  E
|---------------------------9-10-12-10s15s10-|
|-------8-9-10-9------10-11------------------|
|-9--10----------9-10------------------------|
|--------------------------------------------|
|--------------------------------------------|
|--------------------------------------------|


  F           G           G#          G
   S  S  S  S  S  S  S  S  S  S  S  S  S  S  S S
   |  |  |  |  |  |  |  |  |  |  |  |  |  |  | |
   o  /  /  /  o  /  /  /  o  /  /  /  o  /  / /

   T     T
   S  S  S  S  S  S  S  S  S  S  S  S  S  S  E
|-17p13-17p13----------------13-15-13------------|
|-------------15-13-15-13-15----------15-13------|
|-------------------------------------------14---|
|------------------------------------------------|
|------------------------------------------------|
|------------------------------------------------|


  D5                 D5
   E.        S  S  S  E     H
   |         |  |  |  |     |
   /         o  /  /  /     /

   S   S  S  S  S  S  S  S  S  S  S  S  S  S  S  S
|--------10-------13-15-13-------10-------13-15-13-|
|-10--13----13h15----------10-13----13h15----------|
|--------------------------------------------------|
|--------------------------------------------------|
|--------------------------------------------------|
|--------------------------------------------------|


  F5    G5                F5    G5
   E     E    +E     E     E     E    +Q
   |     |     |     |     |     |     |
   /     /     /     /     /     /     /

                                             |--3--|
   S  S  S  S  S  S  S  S  S  S  S  S  S  S  S  S  S
|-------15h17p15----15h17p15----13h15p13----15h17p15--|
|-15h17----------17----------15----------17-----------|
|-----------------------------------------------------|
|-----------------------------------------------------|
|-----------------------------------------------------|
|-----------------------------------------------------|


  D5                 D5
   E.        S  S  S  E     H
   |         |  |  |  |     |
   /         o  /  /  /     /

   S   S  S  S  S  S  S  S  S  S  S  S  S  S  S  S
|-----13h15p13----15h17p15-15-17-18-17-15p13p11s10-|
|-15-----------17----------------------------------|
|--------------------------------------------------|
|--------------------------------------------------|
|--------------------------------------------------|
|--------------------------------------------------|


  F                G           G#          G#
   S    S     S  S  S  S  S  S  S  S  S  S  S  S  S  S
   |    |     |  |  |  |  |  |  |  |  |  |  |  |  |  |
   o    /     /  /  o  /  /  /  o  /  /  /  o  /  /  /

   |---3---|
   S  S    S  S  S  S  S  S  S  S  S  S  S  S  S  S  S
|-18p17p==15----------20-18-20-15-------------------18-||
|------------18p17p15-------------18-------------18----||
|------------------------------------15-------19-------||
|---------------------------------------17s20----------||
|------------------------------------------------------||
|------------------------------------------------------||


 Verse
  C5                      EbF5      EbF5
  Gtrs I, II
   E.   S   S  S E H      E E +E  E E E +Q
|-----------------------|--------------------|
|-----------------------|--------------------|
|-----------------------|--------------------|
|--5-------------5-5----|-1-3-(3)-3-1-3-(3)--|
|--3----3---3--3-3-3----|-1-3-(3)-3-1-3-(3)--|
|-----------------------|-1-3-(3)-3-1-3-(3)--|
|
| Gtr III
|  Q       +H.            W
|-20b22---(20)----------|--------------------|
|-----------------------|--------------------|
|-----------------------|--------------------|
|-----------------------|--------------------|
|-----------------------|--------------------|
|-----------------------|--------------------|


  C5                Eb      F       F#      F
  E. S S S E H      S S S S S S S S S S S S S S S S
|-----------------|-----------------------------------|
|-----------------|-----------------------------------|
|-----------------|-----------------------------------|
|-5--------5-5----|-----------------------------------|
|-3--3-3-3-3-3----|-----------------------------------|
|-----------------|-1-1-1-1-3-3-3-3-4-4-4-4-3-3-3-3---|
|
| W                 W
|-----------------|-----------------------------------|
|-----------------|-----------------------------------|
|-----------------|-----------------------------------|
|-----------------|-----------------------------------|
|-----------------|-----------------------------------|
|-----------------|-----------------------------------|


  Gtrs I, II
  E. S S S E H      E E +E  E E E +Q
|-----------------|--------------------|
|-----------------|--------------------|
|-----------------|--------------------|
|-5--------5-5----|-1-3-(3)-3-1-3-(3)--|
|-3--3-3-3-3-3----|-1-3-(3)-3-1-3-(3)--|
|-----------------|-1-3-(3)-3-1-3-(3)--|


  E. S S S E H      S S S S S S S S S S S S S S S S
|-----------------|-----------------------------------|
|-----------------|-----------------------------------|
|-----------------|-----------------------------------|
|-5--------5-5----|-----------------------------------|
|-3--3-3-3-3-3----|-----------------------------------|
|-----------------|-1-1-1-1-3-3-3-3-4-4-4-4-3-3-3-3---|


    D5                F5G5      F5G5
    E. S S S E H      E E +E  E E E +Q
||------------------|--------------------|
||o-----------------|--------------------|
||------------------|--------------------|
||--7--------7-7----|-3-5-(5)-5-3-5-(5)--|
||o-5--5-5-5-5-5----|-3-5-(5)-5-3-5-(5)--|
||------------------|-3-5-(5)-5-3-5-(5)--|


  D5                F       G       G#      G
  E. S S S E H      S S S S S S S S S S S S S S S S
|-----------------|-----------------------------------||
|-----------------|----------------------------------o||
|-----------------|-----------------------------------||
|-7--------7-7----|-----------------------------------||
|-5--5-5-5-5-5----|----------------------------------o||
|-----------------|-3-3-3-3-5-5-5-5-6-6-6-6-5-5-5-5---||


 Interlude
  Slower Q=116
  D5open
  Gtr II
  W          +W                 +W
  |           |                  |
  /           /                  /

  Gtr I
  W           E E E E E E E E    E E E E E E Q
|----------|------------------|-----------------|
|----------|------------------|-----------------|
|----------|------------------|-----------------|
|-0--------|--3S0---0---0-3S0-|--3S0---0-3S0-6--|
|-0--------|--3S0---0---0-3S0-|--3S0---0-3S0-6--|
|-0--------|--3S0---0---0-3S0-|--3S0---0-3S0-6--|


  +W                 +W
   |                  |
   /                  /

   E E E E E E E E    E E E E E E Q
|------------------|-----------------|
|------------------|-----------------|
|------------------|-----------------|
|--3S0---0---0-3S0-|--3S0---0-3S0-6--|
|--3S0---0---0-3S0-|--3S0---0-3S0-6--|
|--3S0---0---0-3S0-|--3S0---0-3S0-6--|


  F5D5        F5D5  F5D5    F5D5G#5   F5D5        F5D5  F5D5    F5D5 G#5
  Gtr I
  E E E E E E E E   E E E E E E Q     E E E E E E E E   E E E E E E  Q
|-----------------|-----------------|-----------------|-----------------|
|-----------------|-----------------|-----------------|-----------------|
|-----------------|-----------------|-----------------|-----------------|
|-3S0---0---0-3S0-|-3S0---0-3S0-6---|-3S0---0---0-3S0-|-3S0---0-3S0--6--|
|-3S0---0---0-3S0-|-3S0---0-3S0-6---|-3S0---0---0-3S0-|-3S0---0-3S0--6--|
|-3S0---0---0-3S0-|-3S0---0-3S0-6---|-3S0---0---0-3S0-|-3S0---0-3S0--6--|
|
| Gtr II                                                        Gtr V
| PM----------------------------------------------------------| TPTP
| E E E E E E E E   E E E E E E E E   E E E E E E E E   E E E E E Q.
|-----------------|-----------------|-----------------|-----------------|
|-----------------|-----------------|-----------------|-----------------|
|-----------------|-----------------|-----------------|-----------------|
|-0-0-0-0-0-0-0-0-|-0-0-0-0-0-0-0-0-|-0-0-0-0-0-0-0-0-|-0-0-0-0-xsx\----|
|-0-0-0-0-0-0-0-0-|-0-0-0-0-0-0-0-0-|-0-0-0-0-0-0-0-0-|-0-0-0-0-xsx\----|
|-0-0-0-0-0-0-0-0-|-0-0-0-0-0-0-0-0-|-0-0-0-0-0-0-0-0-|-0-0-0-0-xsx\----|


   Breakdown
    $                                                           To Coda
    F5D5        F5D5  F5D5    F5D5G#5  F5D5        F5D5  F5D5    F5D5G#5
    Gtrs I, II
    E E E E E E E E   E E E E E E Q    E E E E E E E E   E E E E E E Q
||------------------|----------------|-----------------|------------------||
||o-----------------|----------------|-----------------|-----------------o||
||------------------|----------------|-----------------|------------------||
||--3S0---0---0-3S0-|-3S0---0-3S0-6--|-3S0---0---0-3S0-|-3S0---0-3S0-6----||
||o-3S0---0---0-3S0-|-3S0---0-3S0-6--|-3S0---0---0-3S0-|-3S0---0-3S0-6---o||
||--3S0---0---0-3S0-|-3S0---0-3S0-6--|-3S0---0---0-3S0-|-3S0---0-3S0-6----||


   Chorus
    $$
    D5                             G5D5F5D5F5G5
    Gtrs I, II
    PM--|          PM|         PM|   PM  PM
    |-3-|        |-3-|       |-3-| |-3-| |-3-|
    E E E E E Q  E E E   E E E E E E E E E E E
||---------------------|-----------------------|
||o--------------------|-----------------------|
||---------------------|-----------------------|
||--------0------------|-0---------5---3---3S5-|
||o-0-0-0-0--------0-0-|-0-----0-0-5-0-3-0-3S5-|
||--0-0-0-0--------0-0-|-0-----0-0-5-0-3-0-3S5-|


                                 To Dbl. Coda
  D5                             G5D5F5D5F5G5
  PM--|          PM|         PM|   PM  PM
  |-3-|        |-3-|       |-3-| |-3-| |-3-|
  E E E E E Q  E E E   E E E E E E E E E E E
|--------------------|-------------------------||
|--------------------|------------------------o||
|--------------------|-------------------------||
|-------0------------|-0---------5---3---3S5---||
|-0-0-0-0--------0-0-|-0-----0-0-5-0-3-0-3S5--o||
|-0-0-0-0--------0-0-|-0-----0-0-5-0-3-0-3S5---||


  D5(typD5open   D5(typD5openD5(type 2)
  Gtrs I, II
  |-3-|        |-3-|       |-3-| |----3-----|
  E E E E E Q  E E E   E E E E E Q    Q   E E
  | | | |        | |   |     | | |    |   | |
  / / / /        / /   /     / / /    /   / /

  Gtr III
        ~              ~                ~
  |-3-|        |-3-|             |-3--|
  E E E H      E E E   H         E E  E Q
|--------------------|------------------------|
|--------------------|------------------------|
|-----7-6--------6-7-|-9---------7-9-10-9-----|
|---7----------7-----|------------------------|
|-5------------------|------------------------|
|--------------------|------------------------|
|
| Gtr IV
|       ~              ~                ~
| |-3-|        |-3-|             |-3--|
| E E E H      E E E   H         E E  E Q
|--------------------|------------------------|
|-----6-5--------5-6-|-8---------6-8-10-8-----|
|--------------6-----|------------------------|
|---7----------------|------------------------|
|-5------------------|------------------------|
|--------------------|------------------------|


        D5open   D5(typD5openD5(type 2)
  |-3-|        |-3-|       |-3-| |----3----|
  E E E E E Q  E E E   E E E E E Q   Q   E E
  | | | |        | |   |     | | |   |   | |
  / / / /        / /   /     / / /   /   / /

        ~              ~               ~
  |-3-|        |-3-|             |-3-|
  E E E H      E E E   H         E E E Q
|--------------------|-------------------------|
|--------------------|-------------------------|
|-----7-6--------6-7-|-9---------6-7-9---------|
|---7----------7-----|-----------------7-------|
|-5------------------|-------------------------|
|--------------------|-------------------------|
|
|       ~              ~               ~
| |-3-|        |-3-|             |-3-|
| E E E H      E E E   H         E E E Q
|--------------------|-------------------------|
|-----6-5--------5-6-|-8---------5-6-8---------|
|--------------6-----|-----------------6-------|
|---7----------------|-------------------------|
|-5------------------|-------------------------|
|--------------------|-------------------------|


  D5
  Gtrs I, II
  PM------------------------|
  |-3-| |-3-| |-3-| |-3-----|
  E E E E E E E E E E E E
|-------------------------|
|-------------------------|
|-------------------------|
|-------------------------|
|-0-0-0-0-0-0-0-0-0-0-0-0-|
|-0-0-0-0-0-0-0-0-0-0-0-0-|


   Verse
    D5
 -------|     PM-------------------------------------------------|
    |-3-|  |-3--|     |---3----| |-3-|   |-3-| |-3-| |-3-| |-3---|
    S S S +S  S S Q  +E  +E  S S E E E   E E E E E E E E E E E E
||-------------------------------------|-------------------------|
||o------------------------------------|-------------------------|
||-------------------------------------|-------------------------|
||----------------0--(0)-(0)-----------|-------------------------|
||o-0-0-0-(0)-0-0-0--(0)-(0)-----------|-----------7-0-8-0-7-8-7-|
||--0-0-0-(0)-0-0-0--(0)-(0)-0-0-0-2-3-|-2S5-3-2-0---------------|


  D5            C#m/D
  PM--|     PM|
  |-3-|  |-3--|     |---3----| |-3-|   |-3-| |-3-| |-3-|  |-3-|
  S S S +S  S S Q  +E  +E  S S E E E   E E E E E E E E E  E E E
|------------------------------------|----------------------------||
|------------------------------------|---------------------------o||
|------------------------------------|----------------------------||
|---------------2--(2)-(2)-----------|----------------------------||
|-0-0-0-(0)-0-0-4--(4)-(4)-----------|---5---5-8---7---7-10-8-7--o||
|-0-0-0-(0)-0-0-0--(0)-(0)-0-0-0-2-3-|-2---2-----5---3------------||


  D5           A5          G5            Eb/G
               |-3-| |-3-| |-3-| |-3-|   |-3-| |-3-| |-3-| |-3-|
  W            E E E E E E E E E E E E   E E E E E E E E E E E E
|----------||--------------------------|--------------------------|
|----------||o-------------------------|--------------------------|
|----------||--------------------------|--------------------------|
|-0--------||--7-7-7-7-7-7-5-5-5-5-5-5-|-5-5-5-5-5-5-5-5-5-5-5-5--|
|-0--------||o-7-7-7-7-7-7-5-5-5-5-5-5-|-6-6-6-6-6-6-6-6-6-6-6-6--|
|-0--------||--7-7-7-7-7-7-5-5-5-5-5-5-|-5-5-5-5-5-5-5-5-5-5-5-5--|


  G5          Bb5           F5
  |-3-| |-3-| |-3-| |-3-|   |-3-| |-3-| |-3-| |-3-|
  E E E E E E E E E E E E   E E E E E E E E E E E E
|-------------------------|--------------------------||
|-------------------------|-------------------------o||
|-------------------------|--------------------------||
|-5-5-5-5-5-5-8-8-8-8-8-8-|-3-3-3-3-3-3-3-3-3-3-3-3--||
|-5-5-5-5-5-5-8-8-8-8-8-8-|-3-3-3-3-3-3-3-3-3-3-3-3-o||
|-5-5-5-5-5-5-8-8-8-8-8-8-|-3-3-3-3-3-3-3-3-3-3-3-3--||


  Gtr I
                                                   ~
  |-3-|  |-3-| |-3-|  |-3-|   |-3-|  |-3--| |-3--|
  E E E  E E E E E E  E E E   E E E  E E  E E  E E Q
|---------------------------|-------------------------|
|---------------------------|-------------------------|
|-5-6-5--------5-6-5--------|-5-6-5----5--------------|
|--------8-7-5--------8-7-5-|--------8----8-7--8-7-5--|
|---------------------------|-------------------------|
|---------------------------|-------------------------|
|
| Gtr II
|                                                  ~
| |-3-|  |-3-| |-3-|  |-3-|   |-3-|  |-3--| |-3--|
| E E E  E E E E E E  E E E   E E E  E E  E E  E E Q
|---------------------------|-------------------------|
|---------------------------|-------------------------|
|---------------------------|-------------------------|
|-7-8-7--------7-8-7--------|-7-8-7----7--------------|
|-------10-8-7-------10-8-7-|-------10---10-8-10-8-7--|
|---------------------------|-------------------------|


                 D.S. al Coda
                          ~~~~~~~~~
   |-3-|  |-3-|  |-3--|
   E E E  E E E  E E  E   E.  +S
|----------------------------------||
|--------/6-5-6s10-9-10-/14--(14)\-||
|-/6-5-6---------------------------||
|----------------------------------||
|----------------------------------||
|----------------------------------||
|
|                         ~~~~~~~~~
|  |-3-|  |-3-|  |-3--|
|  E E E  E E E  E E  E   E.  +S
|----------------------------------||
|----------------------------------||
|--------/7-6-7s10-9-10-/14--(14)\-||
|-/8-7-8---------------------------||
|----------------------------------||
|----------------------------------||


   Bridge
    &
    D5         F#5        G5         Bb5
    Gtrs I, II
    W          W          W          W
||-----------|----------|----------|------|
||o----------|----------|----------|------|
||-----------|----------|----------|------|
||--0--------|-4--------|-5--------|-8----|
||o-0--------|-4--------|-5--------|-8----|
||--0--------|-4--------|-5--------|-8----|


  D5         F5         Bb5
  W          W          W
|----------|----------|----------|
|----------|----------|----------|
|----------|----------|----------|
|-0--------|-3--------|-8--------|
|-0--------|-3--------|-8--------|
|-0--------|-3--------|-8--------|


                               D.S.S. al Dbl. Coda
  D           C#          E           F
  |----6----| |----6----| |----6----| |----6----|
  S S S S S S S S S S S S S S S S S S S S S S S S
|-----------------------------------------------------||
|----------------------------------------------------o||
|-----------------------------------------------------||
|-----------------------------------------------------||
|-5-5-5-5-5-5-4-4-4-4-4-4-7-7-7-7-7-7-8-8-8-8-8-8----o||
|-----------------------------------------------------||


    &&
    D5(type 2D5open                 D5(type
    Gtrs I, II
     |--3--|                      |--3--|
     E  E  E  E    E     Q        E  E  E
     |  |  |  |                      |  |
     /  /  /  /                      /  /

    Gtr III
     |--3--|  |---3---|  |--3--|  |--3--|
     E  E  E  E  E    E  E  E  E  E  E  E
||----------------------------------------|
||o---------------------------------------|
||--14-14-14-14-14---14-14-14-14-14-14-14-|
||---x--x--x--x--x----x--x--x--x--x--x--x-|
||o-12-12-12-12-12---12-12-12-12-12-12-12-|
||----------------------------------------|


  D5open        D5(typG52D5(F5pD5(F5pG52)
              |--3--|  |--3--|  |--3--|
   E    E     E  E  E  E  E  E  E  E  E
   |             |  |  |  |  |  |  |  |
   /             /  /  /  /  /  /  /  /

   |---3---|  |--3--|  |--3--|  |--3--|
   E  E    E  E  E  E  E  E  E  E  E  E
|----------------------------------------|
|----------------------------------------|
|-15-15---15-15-15-15-18-18-18-18-18-18--|
|--x--x----x--x--x--x--x--x--x--x--x--x--|
|-13-13---13-13-13-13-16-16-16-16-16-16--|
|----------------------------------------|


  D5open   D5open                 D5(type D5open        D5(typG5D5F5D5F5G5e 2)
   |--3--|                      |--3--|               |--3--| |-3-| |-3-|
   E  E  E  E    E     Q        E  E  E    E    E     E  E  E E E E E E E
   |  |  |  |                      |  |    |             |  | | | | | | |
   /  /  /  /                      /  /    /             /  / / / / / / /

   |--3--|  |---3---|  |--3--|  |--3--|    |---3---|  |--3--| |-3-| |-3-|
   E  E  E  E  E    E  E  E  E  E  E  E    E  E    E  E  E  E E E E E E E
|---------------------------------------|----------------------------------||
|---------------------------------------|---------------------------------o||
|-14-14-14-14-14---14-14-14-14-14-14-14-|-10-10---10-10-10-10-9-9-9-9-9-9--||
|--x--x--x--x--x----x--x--x--x--x--x--x-|--x--x----x--x--x--x-x-x-x-x-x-x--||
|-12-12-12-12-12---12-12-12-12-12-12-12-|--8--8----8--8--8--8-7-7-7-7-7-7-o||
|---------------------------------------|----------------------------------||


  Gtr I
                                                   ~
  |-3-|  |-3-| |-3-|  |-3-|   |-3-|  |-3--| |-3--|
  E E E  E E E E E E  E E E   E E E  E E  E E  E E Q
|---------------------------|-------------------------|
|---------------------------|-------------------------|
|-5-6-5--------5-6-5--------|-5-6-5----5--------------|
|--------8-7-5--------8-7-5-|--------8----8-7--8-7-5--|
|---------------------------|-------------------------|
|---------------------------|-------------------------|
|
| Gtr II
|                                                  ~
| |-3-|  |-3-| |-3-|  |-3-|   |-3-|  |-3--| |-3--|
| E E E  E E E E E E  E E E   E E E  E E  E E  E E Q
|---------------------------|-------------------------|
|---------------------------|-------------------------|
|---------------------------|-------------------------|
|-7-8-7--------7-8-7--------|-7-8-7----7--------------|
|-------10-8-7-------10-8-7-|-------10---10-8-10-8-7--|
|---------------------------|-------------------------|


                          ~~~~~~~~~
   |-3-|  |-3-|  |-3--|
   E E E  E E E  E E  E   E.  +S
|----------------------------------||
|--------/6-5-6s10-9-10-/14--(14)\-||
|-/6-5-6---------------------------||
|----------------------------------||
|----------------------------------||
|----------------------------------||
|
|                         ~~~~~~~~~
|  |-3-|  |-3-|  |-3--|
|  E E E  E E E  E E  E   E.  +S
|----------------------------------||
|----------------------------------||
|--------/7-6-7s10-9-10-/14--(14)\-||
|-/8-7-8---------------------------||
|----------------------------------||
|----------------------------------||


   Breakdown
    D5       D5  C5    Bb5  A5BbA5F5  G5      D5        C#5   D5  E5
    Gtrs I, II
    Q  +E  E  Q   Q    H    E E E E   H.       E  +E     H     Q   E  +E
||-------------------|--------------|-----------------|----------------------||
||o------------------|--------------|-----------------|---------------------o||
||-------------------|--------------|-----------------|----------------------||
||--0--(0)-0S12--10--|-8----7-8-7-3-|-5-------12-(12)S|=11----12--14-(14)\---||
||o-0--(0)-0S12--10--|-8----7-8-7-3-|-5-------12-(12)S|=11----12--14-(14)\--o||
||--0--(0)-0S12--10--|-8----7-8-7-3-|-5-------12-(12)S|=11----12--14-(14)\---||


  D5BbC5 A5BbG5A5F5  Bb5  A5BbA5F5  G5      D5        C#5   D5  E5
  PM-------------|
  E E  E E E e e e   H    E E E E   H.       E  +E     H     Q   E  +E
|------------------|--------------|-----------------|--------------------|
|------------------|--------------|-----------------|--------------------|
|------------------|--------------|-----------------|--------------------|
|------------------|-8----7-8-7-3-|-5-------12-(12)S|=11----12--14-(14)\-|
|-0-8-10-7-8-5-7-3-|-8----7-8-7-3-|-5-------12-(12)S|=11----12--14-(14)\-|
|-0-8-10-7-8-5-7-3-|-8----7-8-7-3-|-5-------12-(12)S|=11----12--14-(14)\-|


  D5       D5  C5    Bb5  A5BbA5F5  G5      D5        C#5   D5  E5
  Q  +E  E  Q   Q    H    E E E E   H.       E  +E     H     Q   E  +E
|------------------|--------------|-----------------|--------------------||
|------------------|--------------|-----------------|--------------------||
|------------------|--------------|-----------------|--------------------||
|-0--(0)-0S12--10--|-8----7-8-7-3-|-5-------12-(12)S|=11----12--14-(14)\-||
|-0--(0)-0S12--10--|-8----7-8-7-3-|-5-------12-(12)S|=11----12--14-(14)\-||
|-0--(0)-0S12--10--|-8----7-8-7-3-|-5-------12-(12)S|=11----12--14-(14)\-||


 Outro
  D5       D5  C5    Bb5  A5BbA5F5  G5      D5        C#5   D5  E5
  Gtrs I, II
  Q  +E  E  Q   Q    H    E E E E   H.       E  +E     H     Q   E  +E
|------------------|--------------|-----------------|--------------------|
|------------------|--------------|-----------------|--------------------|
|------------------|--------------|-----------------|--------------------|
|-0--(0)-0S12--10--|-8----7-8-7-3-|-5-------12-(12)S|=11----12--14-(14)\-|
|-0--(0)-0S12--10--|-8----7-8-7-3-|-5-------12-(12)S|=11----12--14-(14)\-|
|-0--(0)-0S12--10--|-8----7-8-7-3-|-5-------12-(12)S|=11----12--14-(14)\-|


  D5       D5  C5    Bb5  A5BbA5F5  G5      D5        C#5   D5  E5
  Q  +E  E  Q   Q    H    E E E E   H.       E  +E     H     Q   E  +E
|------------------|--------------|-----------------|--------------------|
|------------------|--------------|-----------------|--------------------|
|------------------|--------------|-----------------|--------------------|
|-0--(0)-0S12--10--|-8----7-8-7-3-|-5-------12-(12)S|=11----12--14-(14)\-|
|-0--(0)-0S12--10--|-8----7-8-7-3-|-5-------12-(12)S|=11----12--14-(14)\-|
|-0--(0)-0S12--10--|-8----7-8-7-3-|-5-------12-(12)S|=11----12--14-(14)\-|


  D5BbC5 A5BbG5A5F5  Bb5  A5BbA5F5  G5      D5        C#5   D5  E5
  PM-------------|
  E E  E E E e e e   H    E E E E   H.       E  +E     H     Q   E  +E
|------------------|--------------|-----------------|--------------------|
|------------------|--------------|-----------------|--------------------|
|------------------|--------------|-----------------|--------------------|
|------------------|-8----7-8-7-3-|-5-------12-(12)S|=11----12--14-(14)\-|
|-0-8-10-7-8-5-7-3-|-8----7-8-7-3-|-5-------12-(12)S|=11----12--14-(14)\-|
|-0-8-10-7-8-5-7-3-|-8----7-8-7-3-|-5-------12-(12)S|=11----12--14-(14)\-|


  D5       D5  C5    Bb5  A5BbA5F5  G5      D5        C#5   D5  E5
  Q  +E  E  Q   Q    H    E E E E   H.       E  +E     H     Q   E  +E
|------------------|--------------|-----------------|--------------------|
|------------------|--------------|-----------------|--------------------|
|------------------|--------------|-----------------|--------------------|
|-0--(0)-0S12--10--|-8----7-8-7-3-|-5-------12-(12)S|=11----12--14-(14)\-|
|-0--(0)-0S12--10--|-8----7-8-7-3-|-5-------12-(12)S|=11----12--14-(14)\-|
|-0--(0)-0S12--10--|-8----7-8-7-3-|-5-------12-(12)S|=11----12--14-(14)\-|


  D5
  W          +W           +W           +W
|----------|------------|------------|--------*|
|----------|------------|------------|--------*|
|----------|------------|------------|--------*|
|-0--------|-(0)--------|-(0)--------|-(0)----*|
|-0--------|-(0)--------|-(0)--------|-(0)----*|
|-0--------|-(0)--------|-(0)--------|-(0)----*|


--------------------------------------------------------------------------------


Duration Legend
---------------
W - whole; H - half; Q - quarter; E - 8th; S - 16th; T - 32nd; X - 64th; a - acciaccatura
+ - note tied to previous; . - note dotted; .. - note double dotted
Uncapitalized letters represent notes that are staccato (1/2 duration)
Irregular groupings are notated above the duration line
Duration letters will always appear directly above the note/fret number it represents the
duration for.  Duration letters with no fret number below them represent rests.  Multi-
bar rests are notated in the form Wxn, where n is the number of bars to rest for.  Low
melody durations appear below the staff

Tablature Legend
----------------
 h   - hammer-on
 p   - pull-off
 b   - bend
 pb  - pre-bend
 r   - bend release (if no number after the r, then release immediately)
 /\  - slide into or out of (from/to "nowhere")
 s   - legato slide
 S   - shift slide
 - natural harmonic
[n]  - artificial harmonic
n(n) - tapped harmonic
 ~   - vibrato
 tr  - trill
 T   - tap
 TP  - trem. picking
 PM  - palm muting
\n/  - tremolo bar dip; n = amount to dip
 \n  - tremolo bar down
 n/  - tremolo bar up
/n\  - tremolo bar inverted dip
 =   - hold bend; also acts as connecting device for hammers/pulls
 <> - volume swell (louder/softer)
 x   - on rhythm slash represents muted slash
 o   - on rhythm slash represents single note slash

Misc Legend
-----------
 |  - bar
||  - double bar
||o - repeat start
o|| - repeat end
*|  - double bar (ending)
 :  - bar (freetime)
 $  - Segno
 &  - Coda
Tempo markers -  = BPM(8/16=s8/s16), where s8 = swing 8ths, s16 = swing 16ths
2 comments total.
+1 reply
Dimonaft wrote on October 17 2010, 05:27 am

Good tab dude!Crazy solo!

0 reply
Dimonaft wrote on October 19 2010, 09:25 am

Some solo parts are wrong!So i'll try to do my own version of this song!

I want to post or [tab]
guest
You may want to rate the tab now too:
select rating
Please do not post tabs as comments. Select "correction" instead!