Oops, an error
Loading. Please wait.

Gunslinger Tab

ver3
ver3

Solo

More versions @911Tabs.com
46,655 views 135 this week
7 commentsread comments
1 2 3 4 5
accurate
x 11
Autoscroll
+/-
esc
set tempo
stop
Contributor
Difficulty
Tuning
intermediate
D A D G B E
WARNING: You are trying to view
                                    content from Ultimate-Guitar.com
                                    in an unauthorized application,
                                    which is prohibited.

                                    Please use an official Ultimate
                                    Guitar Tabs application for iPhone,
                                    iPad or Android to access legitimate
                                    chords, guitar, bass, and drum tabs
                                    from Ultimate-Guitar.com database.

                                    Type "ultimate guitar tabs" in Apple
                                    App Store's or Android Market's
                                    search to find the application.
Gunslinger
Avenged Sevenfold
Avenged Sevenfold

Revised May 11th, 2011


Transcribed by Seth Sanders {livetolieanotherday@hotmail.com}
        

Gtr I (D A D G B E) - 'Acoustic I'
Gtr II (D A D G B E) - 'Acoustic II'
Gtr III (D A D G B E) - 'Lead Guitar Backing'
Gtr IV (D A D G B E) - 'Rhythm Guitar I'
Gtr V (D A D G B E) - 'Rhythm Guitar II'
Gtr VI (D A D G B E) - 'Lead Guitar'

 Intro
  Q=162
  Dsus2/C                                  Dm/F    Dsus2/C
 4/4
  Gtr I
    ~~~~~    ~~~~~                  ~~~~~
  E Q      E Q      E E       +E  E Q      a E E E E
|---------------------------|------------------------|
|-3--------3--------3-------|-----3----------3-3-3-3-|
|-2--------2--------2-------|-----2----------2-2-2-2-|
|-0--------0--------0-------|-----0--------0h3-3-3-3-|
|---3b3.5----3b3.5----3b3.5-|-(3)---3b3.5------------|
|---------------------------|------------------------|
|
| Gtr II
| W                            W
|---------------------------|------------------------|
|---------------------------|------------------------|
|---------------------------|------------------------|
|---------------------------|------------------------|
|---------------------------|------------------------|
|---------------------------|------------------------|


                            A5            Dsus2
    ~~~~~    ~~~~~    PM    PM
  E Q      E Q      E E   E E  Q      Q   E    E
|-----------------------|-0------------------------|
|-3--------3--------3---|-3------------------------|
|-2--------2--------2---|-2--------------------2---|
|-0--------0--------0-3-|---0------------------0---|
|---3b3.5----3b3.5------|---0---------0---3b5-(3)--|
|-----------------------|------3b3.5r=0------------|
|
| W                       Q    Q      E Q      E
|-----------------------|-----/5S=====x-3S=====x---|
|-----------------------|--------------------------|
|-----------------------|--------------------------|
|-----------------------|--------------------------|
|-----------------------|--------------------------|
|-----------------------|--------------------------|


  Dsus2/C                                     Dm/F    Dsus2/C
    ~~~~~      ~~~~~                   ~~~~~
  E Q        E Q      E E       +E   E Q      a E E E E
|-----------------------------|---------------------------|
|-3----------3--------3-------|------3----------3-3-3-3---|
|-2----------2--------2-------|------2----------2-2-2-2---|
|-0----------0--------0-------|------0--------0-3-3-3-3---|
|---3b3.5------3b3.5----3b3.5-|-(3)----3b3.5--------------|
|-----------------------------|---------------------------|
|
|         ~~
| E E     H.                    +H..                  E
|-----------------------------|---------------------------|
|-3s6-----6-------------------|-(6)-----------------------|
|-----------------------------|-----------------------5b7-|
|-----------------------------|---------------------------|
|-----------------------------|---------------------------|
|-----------------------------|---------------------------|


                                A5                     Dsus2
      ~~~~~    ~~~~~    PM       PM
   E  Q      E Q      E E    E   E Q       Q  E     E
|-------------------------|--0--------------------^-0-----|
|--3---------3--------3---|--3--------------------^-3-----|
|--2---------2--------2---|--2--------------------^-2-----|
|--0---------0--------0-3-|------0----------------^-0-----|
|-----3b3.5----3b3.5------|------0---------0--3b5-^(3)----|
|-------------------------|--------3b3.5r==0--------------|
|
| +W                        +E   q       H          E
|-------------------------|-------------------------------|
|-------------------------|-----/6-------6S=========x-----|
|-(5)---------------------|-(5)---------------------------|
|-------------------------|-------------------------------|
|-------------------------|-------------------------------|
|-------------------------|-------------------------------|


  Dsus2/C                                        Dm/F    Dsus2/C
       ~~~~~       ~~~~~                  ~~~~~
  E    Q         E Q      E E       +E  E Q      a E E E E
|---------------------------------|------------------------|
|-3--------------3--------3-------|-----3----------3-3-3-3-|
|-2--------------2--------2-------|-----2----------2-2-2-2-|
|-0--------------0--------0-------|-----0--------0-3-3-3-3-|
|------3b3.5-------3b3.5----3b3.5-|-(3)---3b3.5------------|
|---------------------------------|------------------------|
|
|             ~~~~~~~~~~~~~~~~~~~~~~~~~~~~~~~~~~~~~~~~~~~~~~
| Q          +H.                    +W
|-8b10-------(8)------------------|-(8)--------------------|
|---------------------------------|------------------------|
|---------------------------------|------------------------|
|---------------------------------|------------------------|
|---------------------------------|------------------------|
|---------------------------------|------------------------|


                                A5                  Dsus2
      ~~~~~    ~~~~~    PM      PM
   E  Q      E Q      E E    E  E Q      Q  E    E
|-------------------------|--0-------------------------|
|--3---------3--------3---|--3-------------------------|
|--2---------2--------2---|--2-------------------2-----|
|--0---------0--------0-3-|-----0----------------0-----|
|-----3b3.5----3b3.5------|-----0--------0--3b5-(3)----|
|-------------------------|-------3b3.5r=0-------------|
|
|~~~~~                            ~~~~~~
| +W                        +Q    H.
|-(8)---------------------|-(8)s==3--------------------|
|-------------------------|----------------------------|
|-------------------------|----------------------------|
|-------------------------|----------------------------|
|-------------------------|----------------------------|
|-------------------------|----------------------------|


  Dsus2/C                                    Dm/F    Dsus2/C
    ~~~~~      ~~~~~                  ~~~~~
  E Q        E Q      E E       +E  E Q      a E E E E
|-----------------------------|------------------------|
|-3----------3--------3-------|-----3----------3-3-3-3-|
|-2----------2--------2-------|-----2----------2-2-2-2-|
|-0----------0--------0-------|-----0--------0-3-3-3-3-|
|---3b3.5------3b3.5----3b3.5-|-(3)---3b3.5------------|
|-----------------------------|------------------------|
|
| E E     H.                     W
|-x-x-------------------------|------------------------|
|-x-x-------------------------|------------------------|
|-x-x-------------------------|------------------------|
|-----------------------------|------------------------|
|-----------------------------|------------------------|
|-----------------------------|------------------------|


                            A5             Dsus2
    ~~~~~    ~~~~~    PM    PM
  E Q      E Q      E E   E E Q      Q   Q
|-----------------------|-0-------------^0--||
|-3--------3--------3---|-3-------------^3--||
|-2--------2--------2---|-2-------------^2--||
|-0--------0--------0-3-|---0-----------^0--||
|---3b3.5----3b3.5------|---0--------0------||
|-----------------------|-----3b3.5r=0------||
|
| W                       W
|-----------------------|-------------------||
|-----------------------|-------------------||
|-----------------------|-------------------||
|-----------------------|-------------------||
|-----------------------|-------------------||
|-----------------------|-------------------||


 Verse
  Bb
  Q        E  E  E Q  E    Q.   E  E  E Q
|-1--------1--1--1-1--1-|--1----1--1--1-1--|
|-3--------3--3--3-3--3-|--3----3--3--3-3--|
|-3--------3--3--3-3--3-|--3----3--3--3-3--|
|-3--------3-(3)-3-3--3-|--3----3-(3)-3-3--|
|-1--------1-(1)-1-1--1-|--1----1-(1)-1-1--|
|-----------------------|------------------|
|
|      ~~~~~~~~~~~~~~~~~~~~~~~
| E   +H..                +W
|-----------------------|------------------|
|-----------------------|------------------|
|-5b7-(5)---------------|-(5)--------------|
|-----------------------|------------------|
|-----------------------|------------------|
|-----------------------|------------------|


  C
  Q        E  E  E Q  E    Q.   E  E  E Q
|-0--------0--0--0-0--0-|--0----0--0--0-0--|
|-1--------1--1--1-1--1-|--1----1--1--1-1--|
|-0--------0--0--0-0--0-|--0----0--0--0-0--|
|-2--------2--2--2-2--2-|--2----2--2--2-2--|
|-3--------3-(3)-3-3--3-|--3----3-(3)-3-3--|
|-----------------------|------------------|
|
|      ~~~~~~~~~~~~~~~~~~~~~~~
| E   +H..                +W
|-----------------------|------------------|
|-----------------------|------------------|
|-7b9-(7)---------------|-(7)--------------|
|-----------------------|------------------|
|-----------------------|------------------|
|-----------------------|------------------|


  Dsus2/C                                      Dm/F            Dsus2/C
        ~~~~~~   ~~~~~                  ~~~~~
  E     Q      E Q      E E       +E  E Q      a E      E   E  E
|-------------------------------|--------------------------------|
|-3------------3--------3-------|-----3----------3------3---3--3-|
|-2------------2--------2-------|-----2----------2------2---2--2-|
|-0------------0--------0-------|-----0--------0-3------3---3--3-|
|-------3b3.5----3b3.5----3b3.5-|-(3)---3b3.5--------------------|
|-------------------------------|--------------------------------|
|
|       ~~~~~~~~~~~~~~~~~~~~~~~~~~~~~~                         ~~~
| E    +H..                       +H             E     +E  +E  E
|-8b10-(8)----------------------|-(8)------------8b10==(8)-(8)r8-|
|-------------------------------|--------------------------------|
|-------------------------------|--------------------------------|
|-------------------------------|--------------------------------|
|-------------------------------|--------------------------------|
|-------------------------------|--------------------------------|


                                A5                Dsus2
      ~~~~~     ~~~~~~    PM    PM
   E  Q      E  Q       E E   E E Q      Q         E   E
|---------------------------|-0---------------------------|
|--3---------3----------3---|-3---------------------------|
|--2---------2----------2---|-2------------------------2--|
|--0---------0----------0-3-|---0----------------------0--|
|-----3b3.5-----3b3.5-------|---0--------0---------3b5(3)-|
|---------------------------|-----3b3.5r=0----------------|
|
|~~~~~
| +H           +E     E E E   H          E    +E  +E   E
|-(8)----------(8)s===x-5s8p|=5---------------------------|
|---------------------------|------------8b10-(8)-(8)S=6--|
|---------------------------|-----------------------------|
|---------------------------|-----------------------------|
|---------------------------|-----------------------------|
|---------------------------|-----------------------------|


  Dsus2/C                                     Dm/F    Dsus2/C
       ~~~~~~   ~~~~~                  ~~~~~
  E    Q      E Q      E E       +E  E Q      a E E E E
|------------------------------|------------------------|
|-3-----------3--------3-------|-----3----------3-3-3-3-|
|-2-----------2--------2-------|-----2----------2-2-2-2-|
|-0-----------0--------0-------|-----0--------0-3-3-3-3-|
|------3b3.5----3b3.5----3b3.5-|-(3)---3b3.5------------|
|------------------------------|------------------------|
|
|      ~~~~~~~~~~~~~~~~~~~~~~~~~~~~~~
| E   +H..                       +W
|------------------------------|------------------------|
|------------------------------|------------------------|
|-5b7-(5)----------------------|-(5)--------------------|
|------------------------------|------------------------|
|------------------------------|------------------------|
|------------------------------|------------------------|


                            A5                  Dsus2
    ~~~~~    ~~~~~    PM    PM
  E Q      E Q      E E   E E Q      Q  E    E
|-----------------------|-0------------------------|
|-3--------3--------3---|-3------------------------|
|-2--------2--------2---|-2------------------2-----|
|-0--------0--------0-3-|---0----------------0-----|
|---3b3.5----3b3.5------|---0--------0--3b5-(3)----|
|-----------------------|-----3b3.5r=0-------------|
|
| W                       W
|-----------------------|--------------------------|
|-----------------------|--------------------------|
|-----------------------|--------------------------|
|-----------------------|--------------------------|
|-----------------------|--------------------------|
|-----------------------|--------------------------|


  Dsus2/C                                  Dm/F    Dsus2/C
    ~~~~~    ~~~~~                  ~~~~~
  E Q      E Q      E E       +E  E Q      a E E E E
|---------------------------|------------------------|
|-3--------3--------3-------|-----3----------3-3-3-3-|
|-2--------2--------2-------|-----2----------2-2-2-2-|
|-0--------0--------0-------|-----0--------0-3-3-3-3-|
|---3b3.5----3b3.5----3b3.5-|-(3)---3b3.5------------|
|---------------------------|------------------------|
|
| W                            W
|---------------------------|------------------------|
|---------------------------|------------------------|
|---------------------------|------------------------|
|---------------------------|------------------------|
|---------------------------|------------------------|
|---------------------------|------------------------|


                            A5             Dsus2
    ~~~~~    ~~~~~    PM    PM
  E Q      E Q      E E   E E Q      Q   Q
|-----------------------|-0-------------^0--|
|-3--------3--------3---|-3-------------^3--|
|-2--------2--------2---|-2-------------^2--|
|-0--------0--------0-3-|---0-----------^0--|
|---3b3.5----3b3.5------|---0--------0------|
|-----------------------|-----3b3.5r=0------|
|
| W                       W
|-----------------------|-------------------|
|-----------------------|-------------------|
|-----------------------|-------------------|
|-----------------------|-------------------|
|-----------------------|-------------------|
|-----------------------|-------------------|


  Bb
  Q        E  E  E Q  E    Q.   E  E  E Q
|-1--------1--1--1-1--1-|--1----1--1--1-1--|
|-3--------3--3--3-3--3-|--3----3--3--3-3--|
|-3--------3--3--3-3--3-|--3----3--3--3-3--|
|-3--------3-(3)-3-3--3-|--3----3-(3)-3-3--|
|-1--------1-(1)-1-1--1-|--1----1-(1)-1-1--|
|-----------------------|------------------|
|
|      ~~~~~~~~~~~~~~~~~~~~~~~
| E   +H..                +W
|-----------------------|------------------|
|-----------------------|------------------|
|-5b7-(5)---------------|-(5)--------------|
|-----------------------|------------------|
|-----------------------|------------------|
|-----------------------|------------------|


  C
  Q        E  E  E Q  E    Q.   E  E  E Q
|-0--------0--0--0-0--0-|--0----0--0--0-0--|
|-1--------1--1--1-1--1-|--1----1--1--1-1--|
|-0--------0--0--0-0--0-|--0----0--0--0-0--|
|-2--------2--2--2-2--2-|--2----2--2--2-2--|
|-3--------3-(3)-3-3--3-|--3----3-(3)-3-3--|
|-----------------------|------------------|
|
|      ~~~~~~~~~~~~~~~~~~~~~~~
| E   +H..                +W
|-----------------------|------------------|
|-----------------------|------------------|
|-7b9-(7)---------------|-(7)--------------|
|-----------------------|------------------|
|-----------------------|------------------|
|-----------------------|------------------|


    Dm
    Q     E E E Q  E    Q.   E E E Q
||--1-----1-1-1-1--1-|--1----1-1-1-1--|
||o-3-----3-3-3-3--3-|--3----3-3-3-3--|
||--2-----2-2-2-2--2-|--2----2-2-2-2--|
||--0-----0-0-0-0--0-|--0----0-0-0-0--|
||o------------------|----------------|
||-------------------|----------------|
|
|     ~~~~~~~~~~~~~~~~~~~~~
|   E H..              +W
||-------------------|----------------|
||o------------------|----------------|
||--9s7--------------|-(7)------------|
||-------------------|----------------|
||o------------------|----------------|
||-------------------|----------------|


  Csus4
  Q          E  E  E Q  E    Q.   E  E  E Q
|-0----------0--0--0-0--0-|--0----0--0--0-0--|
|-1----------1--1--1-1--1-|--1----1--1--1-1--|
|-0----------0--0--0-0--0-|--0----0--0--0-0--|
|-2----------2--2--2-2--2-|--2----2--2--2-2--|
|-3----------3-(3)-3-3--3-|--3----3-(3)-3-3--|
|-------------------------|------------------|
|
|        ~~~~~~~~~~~~~~~~~~~~~~~
| S S   +H..                +W
|-------------------------|------------------|
|-------------------------|------------------|
|-5s7b9-(7)---------------|-(7)--------------|
|-------------------------|------------------|
|-------------------------|------------------|
|-------------------------|------------------|


  Am
  Q     E E E Q  E    Q.     E E E  Q
|-0-----0-0-0-0--0-|--0------0-0-0--0--|
|-1-----1-1-1-1--1-|--1------1-1-1--1--|
|-2-----2-2-2-2--2-|--2------2-2-2--2--|
|-2-----2-2-2-2--2-|--2------2-2-2--2--|
|-0-----0-0-0-0--0-|--0------0-0-0--0--|
|------------------|-------------------|
|
|   ~~~                   ~~~~~~~~~~~~~~
| E H..              +Q   Q.     Q.
|------------------|-------------------|
|------------------|-------------------|
|-9s5--------------|-(5)--7------9-----|
|------------------|-------------------|
|------------------|-------------------|
|------------------|-------------------|


  Bb
  Q   E  E  E Q    E   Q.    E  E  E  Q
|-1---1--1--1-1----1-|-1-----1--1--1--1----||
|-3---3--3--3-3----3-|-3-----3--3--3--3---o||
|-3---3--3--3-3----3-|-3-----3--3--3--3----||
|-3---3-(3)-3-3----3-|-3-----3-(3)-3--3----||
|-1---1-(1)-1-1----1-|-1-----1-(1)-1--1---o||
|--------------------|---------------------||
|
|~~~~                  ~~~~~~~~~~~~
| H.            E  E   Q   Q    Q     Q
|--------------------|---------------------||
|--------------------|--------------------o||
|-7-------------9h10p|=9---7----9----10\---||
|--------------------|---------------------||
|--------------------|--------------------o||
|--------------------|---------------------||


  Bb
  Q        E  E  E Q  E    Q.   E  E  E Q
|-1--------1--1--1-1--1-|--1----1--1--1-1--|
|-3--------3--3--3-3--3-|--3----3--3--3-3--|
|-3--------3--3--3-3--3-|--3----3--3--3-3--|
|-3--------3-(3)-3-3--3-|--3----3-(3)-3-3--|
|-1--------1-(1)-1-1--1-|--1----1-(1)-1-1--|
|-----------------------|------------------|
|
|      ~~~~~~~~~~~~~~~~~~~~~~~
| E   +H..                +W
|-----------------------|------------------|
|-----------------------|------------------|
|-5b7-(5)---------------|-(5)--------------|
|-----------------------|------------------|
|-----------------------|------------------|
|-----------------------|------------------|
|
| Gtr IV
| W                        W
|-----------------------|------------------|
|-----------------------|------------------|
|-----------------------|------------------|
|-----------------------|------------------|
|-----------------------|------------------|
|-----------------------|------------------|


  Csus4
   Q        E  E  E Q  E    H.      S S S S
|--0--------0--0--0-0--0-|-^0-------x-x-x-x---||
|--1--------1--1--1-1--1-|-^1-------x-x-x-x---||
|--0--------0--0--0-0--0-|-^0-------x-x-x-x---||
|--2--------2--2--2-2--2-|-^2-----------------||
|--3--------3-(3)-3-3--3-|-^3-----------------||
|------------------------|--------------------||
|
|       ~~~~~~~~~~~~~~~~~~~~~~~
|  E   +H..                +W
|------------------------|--------------------||
|------------------------|--------------------||
|--7b9-(7)---------------|-(7)----------------||
|------------------------|--------------------||
|------------------------|--------------------||
|------------------------|--------------------||
|
|                           <
|  W                       +W
|------------------------|--------------------||
|------------------------|--------------------||
|------------------------|--------------------||
|------------------------|--------------------||
|-(0)--------------------|-(0)----------------||
|-(0)--------------------|-(0)----------------||


 Pre-Verse
  D5   F5   G5       G#5   C5         D5        D5   D5
  Gtr IV
                                                     PM--|
  Q.   Q.   Q    +E  Q   E  E E E E   Q.   Q.   Q    Q   Q   E   E   E   E
|--------------|--------------------|--------------|------------------------|
|--------------|--------------------|--------------|--------<5>-<5>-<5>-<5>-|
|--------------|------------5-5-5-5-|--------------|--------<5>-<5>-<5>-<5>-|
|-0----3----5--|-(5)-6---6--5-5-5-5-|-0----3----0--|------------------------|
|-0----3----5--|-(5)-6---6--3-3-3-3-|-0----3----0--|-0---0------------------|
|-0----3----5--|-(5)-6---6----------|-0----3----0--|-0---0------------------|
|
| Gtr V
|                                                    PM--|
| Q.   Q.   Q    +E  Q.     E E E E   Q.   Q.   Q    E E Q   E   E   E   E
|--------------|--------------------|--------------|------------------------|
|--------------|--------------------|--------------|--------<5>-<5>-<5>-<5>-|
|--------------|-----------/5-5-5-5-|--------------|--------<5>-<5>-<5>-<5>-|
|-0----3----5--|-(5)-6------x-x-x-x-|-0----3----0--|------------------------|
|-0----3----5--|-(5)-6-----/3-3-3-3-|-0----3----0--|-0-0-0------------------|
|-0----3----5--|-(5)-6--------------|-0----3----0--|-0-0-0------------------|


  D5   F5   G5       G#5    C5
  Gtr IV
  Q.   Q.   Q    +E  Q   E  E E E E
|--------------|--------------------|
|--------------|--------------------|
|--------------|------------5-5-5-5-|
|-0----3----5--|-(5)-6---6--5-5-5-5-|
|-0----3----5--|-(5)-6---6--3-3-3-3-|
|-0----3----5--|-(5)-6---6----------|
|
| Gtr V
| Q.   Q.   Q    +E  Q  +E  E E E E
|--------------|--------------------|
|--------------|--------------------|
|--------------|------------5-5-5-5-|
|-0----3----5--|-(5)-6--(6)-5-5-5-5-|
|-0----3----5--|-(5)-6--(6)-3-3-3-3-|
|-0----3----5--|-(5)-6--(6)---------|


  D5   F5   D5   D5
                 PM------|
  Q.   Q.   Q    S S E E E  E   E   E   E
|--------------|---------------------------||
|--------------|-----------<5>-<5>-<5>-<5>-||
|--------------|-----------<5>-<5>-<5>-<5>-||
|-0----3----0--|---------------------------||
|-0----3----0--|-0-0-0-0-0-----------------||
|-0----3----0--|-0-0-0-0-0-----------------||
|
|                PM------|
| Q.   Q.   Q    E   E E E  E   E   E   E
|--------------|---------------------------||
|--------------|-----------<5>-<5>-<5>-<5>-||
|--------------|-----------<5>-<5>-<5>-<5>-||
|-0----3----0--|---------------------------||
|-0----3----0--|-0---0-0-0-----------------||
|-0----3----0--|-0---0-0-0-----------------||


   Verse
    N.C.                                              D5
    Gtrs IV, V
       ~    ~    ~~~~~~~~     ~~~~~     ~    ~    ~   PM------------|
     E Q  E Q  E E   +E  E Q  Q  Q    E Q  E Q  E E   E E E E E E E E
||-----------------|----------------|---------------|-------------------||
||o----------------|----------------|---------------|------------------o||
||-----------------|----------------|---------------|-------------------||
||-----------------|----------------|---------------|-------------------||
||o-/5p3--5p3--5p3-|-(3)-5p3S=8--8--|-5p3--5p3--5p3-|-0-0-0-0-0-0-0-0--o||
||-----------------|----------------|---------------|-0-0-0-0-0-0-0-0---||


 Pre-Chorus
  Bb5                                C5
  Gtrs IV, V
  Q.   Q  E E E    Q   Q   E E Q     Q.     Q   E E E   Q   Q    E    E E E
|---------------|------------------|------------------|---------------------||
|---------------|------------------|------------------|---------------------||
|-3----3--3-3-3-|--3---3---3-3-3---|-5------5---5-5-5-|-5---5----5----5-5-5-||
|-3----3--3-3-3-|--3---3---3-3-3---|-5------5---5-5-5-|-5---5----5----5-5-5-||
|-1----1--1-1-1-|--1---1---1-1-1---|-3------3---3-3-3-|-3---3----3----3-3-3-||
|---------------|------------------|------------------|---------------------||
|
| Gtr VI
|                                                                \1.5
|                                                       PM----|
| W                E E E E E E E E   E  E E E E E E E   E E E E  H
|---------------|------------------|------------------|---------------------||
|---------------|------------------|------------------|---------<3>---------||
|---------------|-/7-7-7-7-7-7-7-7S|=9--9-9-9-9-9-9-9-|---------<3>---------||
|---------------|-/x-x-x-x-x-x-x-x-|-x--x-x-x-x-x-x-x-|---------------------||
|---------------|-/5-5-5-5-5-5-5-5S|=7--7-7-7-7-7-7-7-|-0-0-0-0-------------||
|---------------|------------------|------------------|---------------------||


   Chorus
    D5
    Gtrs IV, V
    Q   E E E E  Q     Q    E E E    E Q
||------------------|---------------------|
||o-----------------|---------------------|
||--7---7-7-7-7--7--|--7----7-7-7----7-7--|
||--7---7-7-7-7--7--|--7----7-7-7----7-7--|
||o-5---5-5-5-5--5--|--5----5-5-5----5-5--|
||------------------|---------------------|
|
|   Gtr VI
|         PM--|  ~~~~~~~~~PM  PM
|   Q.    E E E  Q    +E  E E E S  S E q
||------------------|---------------------|
||o-----------------|------------------6--|
||--7-----------/7--|-(7)---7---7h10p7-7--|
||--x---------------|-------x-------------|
||o-5-----0-0-0-----|-----5-5-5-----------|
||--------0-0-0-----|---------------------|

Please download Powertab and listen to my Powertab for correct timing

  C5
  Q   E E  E E Q     Q   E E     E   E  Q
|-----------------|---------------------------|
|-----------------|---------------------------|
|-5---5-5--5-5-5--|--5---5-5-----5---5--5-----|
|-5---5-5--5-5-5--|--5---5-5-----5---5--5-----|
|-3---3-3--3-3-3--|--3---3-3-----3---3--3-----|
|-----------------|---------------------------|
|
| Q.    Q.     Q    +Q   E E    +E   E  E +E
|-----------------|---------------------------|
|-5-----5------5--|-(5)--------------8--------|
|-5-----5------5--|-(5)--5h7b9==(7)-(7)-7r(7)-|
|-----------------|---------------------------|
|-----------------|---------------------------|
|-----------------|---------------------------|


  A5                                  Bb5
  Q  E E E E Q     Q   E  E E E  Q    Q   E E E E Q      Q  E E  E E  Q
|---------------|-------------------|------------------|-------------------||
|---------------|-------------------|------------------|------------------o||
|---------------|-------------------|------------------|-------------------||
|-7--7-7-7-7-7--|--7---7--7-7-7--7--|-8---8-8-8-8-8----|-8--8-8--8-8--8----||
|-7--7-7-7-7-7--|--7---7--7-7-7--7--|-8---8-8-8-8-8----|-8--8-8--8-8--8---o||
|-7--7-7-7-7-7--|--7---7--7-7-7--7--|-8---8-8-8-8-8----|-8--8-8--8-8--8----||
|
| W               +Q   Q.     Q.      H.          E  E   Q  Q    Q    Q
|---------------|-------------------|------------------|-------------------||
|---------------|-------------------|------------------|------------------o||
|-5-------------|-(5)--7------9-----|-7-----------9-10-|-9--7----9---10----||
|-x-------------|------x------x-----|-x-----------x--x-|-x--x----x----x----||
|-3-------------|-(3)--5------7-----|-5-----------7--8-|-7--5----7----8---o||
|---------------|-------------------|------------------|-------------------||
|
| Gtr III
|                                                                PM|    PM
| W                W                  W                  H       E E  E E
|---------------|-------------------|------------------|--------------6----||
|---------------|-------------------|------------------|-----------6----6-o||
|---------------|-------------------|------------------|--------/7---------||
|---------------|-------------------|------------------|-------------------||
|---------------|-------------------|------------------|------------------o||
|---------------|-------------------|------------------|-------------------||


 Post-Chorus
  Bb5                                      C5
   Q.     Q  E E E     Q       Q  E E Q    Q.   Q  E E E   Q  Q  E E E E
|------------------|---------------------|---------------|---------------||
|------------------|---------------------|---------------|---------------||
|--3------3--3-3-3-|---3-------3--3-3-3--|-5----5--5-5-5-|-5--5--5-5-5-5-||
|--3------3--3-3-3-|---3-------3--3-3-3--|-5----5--5-5-5-|-5--5--5-5-5-5-||
|--1------1--1-1-1-|---1-------1--1-1-1--|-3----3--3-3-3-|-3--3--3-3-3-3-||
|------------------|---------------------|---------------|---------------||
|
|                                                          <
|  ~~~~~~~~~~~~~~~~~~~~~~~~~~~
|  W                  +W                   W               W
|------------------|---------------------|---------------|-3-------------||
|-10b11------------|-(10)pb11------------|---------------|-5-------------||
|------------------|---------------------|---------------|-5-------------||
|------------------|---------------------|---------------|-5-------------||
|------------------|---------------------|---------------|-3-------------||
|------------------|---------------------|---------------|---------------||
|
|  ~~~~~~~~~~~~~~~~~~~~~~~~~~~
|  W                  +W                   W               W
|--8b10------------|--(8)pb10------------|---------------|---------------||
|------------------|---------------------|---------------|---------------||
|------------------|---------------------|---------------|---------------||
|------------------|---------------------|---------------|---------------||
|------------------|---------------------|---------------|---------------||
|------------------|---------------------|---------------|---------------||


 Interlude
  Bb5                                  C5
  Gtr IV
  Q.     Q   E E E   Q   Q   E E Q     Q.     Q   E E E   Q   Q     E E E E
|------------------|-----------------|------------------|--------------------|
|------------------|-----------------|------------------|--------------------|
|-3------3---3-3-3-|-3---3---3-3-3---|-5------5---5-5-5-|-5---5-----5-5-5-5--|
|-3------3---3-3-3-|-3---3---3-3-3---|-5------5---5-5-5-|-5---5-----5-5-5-5--|
|-1------1---1-1-1-|-1---1---1-1-1---|-3------3---3-3-3-|-3---3-----3-3-3-3--|
|------------------|-----------------|------------------|--------------------|
|
| Gtr V
| PM-|   PM  PM--------|   PM  PM---------|   PM  PM--------|       PM  PM
| E  E E E E E E E   E E E E E E E E   E  E E E E E E E   E E E +E  E E E E
|------------------|-----------------|------------------|--------------------|
|------3---------3-|-----3-----3---3-|------5---------5-|-----5-(5)-x-6-5-8s=|
|--------------3---|-------3-----3---|--------------5---|-----5-(5)-x--------|
|----3---3-x-3-----|---3-----x-------|----5---5-x-5-----|---5-------x--------|
|-1----------------|-1---------------|-3----------------|-3------------------|
|------------------|-----------------|------------------|--------------------|


  F5                         C5
   Q.        Q     E  E  E   Q.       Q   E  E E
|--------------------------|---------------------|
|--------------------------|---------------------|
|--------------------------|-5--------5---5--5-5-|
|--3---------3-----3--3--3-|-5--------5---5--5-5-|
|--3---------3-----3--3--3-|-3--------3---3--3-3-|
|--3---------3-----3--3--3-|---------------------|
|
|      PM    PM    PM-----------|     PM  PM------
|  E   E  E  E  E  E  E  E   E   E E  E E E  E E
|--------------------------|---------------------|
|-10-----------10----------|------------8--------|
|--------10-------10----10-|-9-----9------9----9-|
|-----10----10-------10----|----10---10-----10---|
|--------------------------|---------------------|
|--------------------------|---------------------|


  D5                C5
  Q   Q   E E Q     Q   Q   Q   Q
|-----------------|-----------------|
|-----------------|-----------------|
|-7---7---7-7-7---|-5---5---5---5---|
|-7---7---7-7-7---|-5---5---5---5---|
|-5---5---5-5-5---|-3---3---3---3---|
|-----------------|-----------------|
|
|---|   PM  PM  PM----|   PM  PM  PM
| E E E E E E E E   E E E E E E E E
|-------------5---|-------------3---|
|-----6---6-------|-----5---5-------|
|-----------7---7-|-----------5---5-|
|---7---7---------|---5---5---------|
|-5---------------|-3---------------|
|-----------------|-----------------|


  Bb5                                  C5
  Q.     Q   E E E   Q   Q   E E Q     Q.     Q   E E E   Q   Q     E E E E
|------------------|-----------------|------------------|--------------------|
|------------------|-----------------|------------------|--------------------|
|-3------3---3-3-3-|-3---3---3-3-3---|-5------5---5-5-5-|-5---5-----5-5-5-5--|
|-3------3---3-3-3-|-3---3---3-3-3---|-5------5---5-5-5-|-5---5-----5-5-5-5--|
|-1------1---1-1-1-|-1---1---1-1-1---|-3------3---3-3-3-|-3---3-----3-3-3-3--|
|------------------|-----------------|------------------|--------------------|
|
| PM-|   PM  PM--------|   PM  PM---------|   PM  PM--------|       PM
| E  E E E E E E E   E E E E E E E E   E  E E E E E E E   E E E +E  E E E E
|------------------|-----------------|------------------|--------------------|
|------3---------3-|-----3-----3---3-|------5---------5-|-----5-(5)-x-6p5----|
|--------------3---|-------3-----3---|--------------5---|-----5-(5)-x-----5s=|
|----3---3-x-3-----|---3-----x-------|----5---5-x-5-----|---5-------x--------|
|-1----------------|-1---------------|-3----------------|-3------------------|
|------------------|-----------------|------------------|--------------------|


  F5                         C5
   Q.        Q     E  E  E   Q.       Q   E  E E
|--------------------------|---------------------|
|--------------------------|---------------------|
|--------------------------|-5--------5---5--5---|
|--3---------3-----3--3--3-|-5--------5---5--5-5-|
|--3---------3-----3--3--3-|-3--------3---3--3-3-|
|--3---------3-----3--3--3-|---------------------|
|
|      PM    PM    PM-----------|     PM  PM------
|  E   E  E  E  E  E  E  E   E   E E  E E E  E E
|--------------------------|---------------------|
|--------------10----------|------------8--------|
|-10-----10-------10----10-|-9-----9------9------|
|-----10----10-------10----|----10---10-----10-8-|
|--------------------------|---------------------|
|--------------------------|---------------------|
|
| Gtr III
|  W                         W
|--------------------------|---------------------|
|--------------------------|---------------------|
|--------------------------|---------------------|
|--------------------------|---------------------|
|--------------------------|---------------------|
|--------------------------|---------------------|


  D5                C5
  Q   Q   E E Q       Q   Q      Q         Q
|-----------------|---------------------------------||
|-----------------|---------------------------------||
|-7---7---7-7-7---|---5---5------5---------5--------||
|-7---7---7-7-7---|---5---5------5---------5--------||
|-5---5---5-5-5---|---3---3------3---------3--------||
|-----------------|---------------------------------||
|
|---|   PM  PM  PM------|     PM|
| E E E E E E E E     E E E   E  E  E     +E   +E
|-------------5---|---------------------------------||
|-----6---6-------|-------8--------10b11-(10)-(10)\-||
|-----------7---7-|-----9-------10------------------||
|-0-7---7---------|-/10-----/12---------------------||
|-----------------|---------------------------------||
|-----------------|---------------------------------||
|
|                     PM|     PM|
| W                   E E E   E  E  E     +E   +E
|-----------------|---------------------------------||
|-----------------|---------------------------------||
|-----------------|---------------------------------||
|-----------------|-------5---------7b8---(7)--(7)\-||
|-----------------|---3-7-----5--8------------------||
|-----------------|---------------------------------||
Please download Powertab and listen to my Powertab for correct timing

 Bridge/Pre-Solo
  Dm+5/Bb                           Em+5/C
  Q.   Q  E E E    Q   Q  Q   Q     Q.   Q  E E E    Q   Q   Q   Q
|---------------|-----------------|---------------|-----------------|
|-3----3--3-3-3-|--3---3--3---3---|-5----5--5-5-5-|--5---5---5---5--|
|-3----3--3-3-3-|--3---3--3---3---|-5----5--5-5-5-|--5---5---5---5--|
|-3----3--3-3-3-|--3---3--3---3---|-5----5--5-5-5-|--5---5---5---5--|
|-1----1--1-1-1-|--1---1--1---1---|-3----3--3-3-3-|--3---3---3---3--|
|---------------|-----------------|---------------|-----------------|
|
|                                                        PM
| W               +H      Q  +Q     W               +Q   Q   Q   Q
|---------------|-----------------|---------------|-----------------|
|-3-------------|-(3)-----3--(3)s=|=5-------------|-(5)-----^5--^5--|
|-3-------------|-(3)-----3--(3)s=|=5-------------|-(5)-----^5--^5--|
|-3-------------|-(3)-----3--(3)s=|=5-------------|-(5)-----^5--^5--|
|---------------|-----------------|---------------|------3----------|
|---------------|-----------------|---------------|-----------------|


  D5                C/E
  Gtr VI
   H      H          H     H
|-----------------|--------------|
|-----------------|--------------|
|--7------7-------|--9-----9-----|
|--x------x-------|--x-----x-----|
|--5------5-------|--7-----7-----|
|-----------------|--------------|
|
| Gtr IV
|  Q.   Q   E E E    Q  Q  Q  Q
|-----------------|--------------|
|-----------------|--------------|
|-----------------|--------------|
|--0----0---0-0-0-|--2--2--2--2--|
|--0----0---0-0-0-|--3--3--3--3--|
|--0----0---0-0-0-|--2--2--2--2--|
|
| Gtr V
|  ~~~~~~~~~~~~~~~~~~~~~~~~~~~~~~~
|  W                 W
|-----------------|--------------|
|-----------------|--------------|
|-/7--------------|-/9-----------|
|-----------------|--------------|
|-----------------|--------------|
|-----------------|--------------|


  F5                     G5
    Q    Q    Q    Q       E  E  E  E  E  E  E  E
|----------------------|--------------------------||
|----------------------|--------------------------||
|--10---10---10---10---|--12-12-12-12-12-12-12-12-||
|---x----x----x----x---|---x--x--x--x--x--x--x--x-||
|---8----8----8----8---|--10-10-10-10-10-10-10-10-||
|----------------------|--------------------------||
|
|   Q.     Q    E  E E     Q     Q     Q     Q
|----------------------|--------------------------||
|----------------------|--------------------------||
|----------------------|--------------------------||
|---3------3----3--3-3-|---5-----5-----5-----5----||
|---3------3----3--3-3-|---5-----5-----5-----5----||
|---3------3----3--3-3-|---5-----5-----5-----5----||
|
|~~~~~~~~~~~~~~~~~~~~~~~~~~~~
|   W                      W
|----------------------|--------------------------||
|----------------------|--------------------------||
|-/10------------------|-/15----------------------||
|----------------------|--------------------------||
|----------------------|--------------------------||
|----------------------|--------------------------||


 Guitar Solo
  Bb5
  Gtr VI
    ~~~~                               ~~~~
    H.         +Q         Q   Q   Q    Q
|---------------------|-------------------|
|-/15---------(15)\---|-/15--17--18---17--|
|---------------------|-------------------|
|---------------------|-------------------|
|---------------------|-------------------|
|---------------------|-------------------|
|
| Gtr IV
|   Q.   Q  E   E   E     Q   Q   E E  Q
|---------------------|-------------------|
|---------------------|-------------------|
|---3----3--3---3---3-|---3---3---3-3--3--|
|---3----3--3---3---3-|---3---3---3-3--3--|
|---1----1--1---1---1-|---1---1---1-1--1--|
|---------------------|-------------------|
|
| Gtr V
|   Q.   Q  E   E   E     Q   Q   E E  Q
|---------------------|-------------------|
|---3----3--3---3---3-|---3---3---3-3--3--|
|---3----3--3---3---3-|---3---3---3-3--3--|
|---3----3--3---3---3-|---3---3---3-3--3--|
|---1----1--1---1---1-|---1---1---1-1--1--|
|---------------------|-------------------|


  C5
 ~~~~~~
   +H.          Q      Q   Q   Q    E      +E
|-------------------|-----13--15---17b18==(17)-|
|-(17)--------\13---|-17-----------------------|
|-------------------|--------------------------|
|-------------------|--------------------------|
|-------------------|--------------------------|
|-------------------|--------------------------|
|
|   Q.   Q  E   E E    Q   Q   E E  E       E
|-------------------|--------------------------|
|-------------------|--------------------------|
|---5----5--5---5-5-|--5---5---5-5--5-------5--|
|---5----5--5---5-5-|--5---5---5-5--5-------5--|
|---3----3--3---3-3-|--3---3---3-3--3-------3--|
|-------------------|--------------------------|
|
|   Q.   Q  E   E E    Q   Q   E E  E       E
|-------------------|--------------------------|
|---5----5--5---5-5-|--5---5---5-5--5-------5--|
|---5----5--5---5-5-|--5---5---5-5--5-------5--|
|---5----5--5---5-5-|--5---5---5-5--5-------5--|
|---3----3--3---3-3-|--3---3---3-3--3-------3--|
|-------------------|--------------------------|


  F5                          C5
                                                        ~~~~~
   +Q.    +Q    +E     Q       +Q        +Q.       +E   Q
|-(17)---(17)r=(17)\-/15----|-(15)b17===(15)r=====(15)p13---|
|---------------------------|-------------------------------|
|---------------------------|-------------------------------|
|---------------------------|-------------------------------|
|---------------------------|-------------------------------|
|---------------------------|-------------------------------|
|
| Gtrs III, IV
|   Q.     Q     E     E  E     Q.            Q     E   E E
|---------------------------|-------------------------------|
|---------------------------|-------------------------------|
|---------------------------|---5-------------5-----5---5-5-|
|---3------3-----3-----3--3-|---5-------------5-----5---5-5-|
|---3------3-----3-----3--3-|---3-------------3-----3---3-3-|
|---3------3-----3-----3--3-|-------------------------------|
|
|   Q.     Q     E     E  E     Q.           +Q     E   E E
|---------------------------|-------------------------------|
|---------------------------|-------------------------------|
|-/10-----10----10----10-10S|===9------------(9)----9---9-9-|
|---x------x-----x-----x--x-|---x-------------------x---x-x-|
|--/8------8-----8-----8--8S|===7------------(7)----7---7-7-|
|---------------------------|-------------------------------|
Please download Powertab and listen to my Powertab for correct timing

  D5                          C5
 ~~~~~~                         ~~~~
   +H.            E  +E        +H.          Q
|-(13)-----------12-(12)b13-|-(12)-------------|
|---------------------------|-------------/13--|
|---------------------------|------------------|
|---------------------------|------------------|
|---------------------------|------------------|
|---------------------------|------------------|
|
| Gtr IV
|   Q   Q    E E  Q             Q   Q  Q    Q
|---------------------------|------------------|
|---------------------------|------------------|
|---7---7----7-7--7---------|---5---5--5----5--|
|---7---7----7-7--7---------|---5---5--5----5--|
|---5---5----5-5--5---------|---3---3--3----3--|
|---------------------------|------------------|
|
|   Q   Q    E E  Q             Q   Q  Q    Q
|---------------------------|------------------|
|---------------------------|------------------|
|---7---7--/10p7--7---------|---5---5--5----5--|
|---7---7---------7---------|---5---5--5----5--|
|---5---5---------5---------|---3---3--3----3--|
|---------------------------|------------------|
Please download Powertab and listen to my Powertab for correct timing

  Bb5
                                      ~~~~~
   W                  Q   Q      Q    Q
|------------------|----------------------|
|-15b17r===========|=15--17-----18---17---|
|------------------|----------------------|
|------------------|----------------------|
|------------------|----------------------|
|------------------|----------------------|
|
|  Q.     Q  E E E    Q   Q      E E  Q
|------------------|----------------------|
|--3------3--3-3-3-|--3---3------3-3--3---|
|--3------3--3-3-3-|--3---3------3-3--3---|
|--0------0--0-0-0-|--0---0------0-0--0---|
|--1------1--1-1-1-|--1---1------1-1--1---|
|------------------|----------------------|
|
|                         PM------------|
|  Q.     Q  E E E    Q   S S E  E E  E E
|------------------|----------------------|
|--3------3--3-3-3-|--3---3-3------3------|
|--3------3--3-3-3-|--3-------3--3--------|
|--3------3--3-3-3-|--3---------------3-3-|
|--1------1--1-1-1-|--1---------------1-1-|
|------------------|----------------------|


  C5
 ~~~~~~
   +H       +Q       Q      Q   Q   H
|------------------------|---------------------|
|-(17)-----(17)\---------|-13--11--10b11r======|
|------------------/12---|---------------------|
|------------------/10---|---------------------|
|------------------------|---------------------|
|------------------------|---------------------|
|
|   Q.   Q       E   E E    Q   Q   E    E E E
|------------------------|---------------------|
|---5----5-------5---5-5-|--5---5---5----5-5-5-|
|---5----5-------5---5-5-|--5---5---5----5-5-5-|
|---5----5-------5---5-5-|--5---5---5----5-5-5-|
|---3----3-------3---3-3-|--3---3---3----3-3-3-|
|------------------------|---------------------|
|
|   Q.   Q       E   E E    Q   Q   E    E E E
|------------------------|---------------------|
|---5----5-------5---5-5-|--5---5---5----5-5-5-|
|---5----5-------5---5-5-|--5---5---5----5-5-5-|
|---5----5-------5---5-5-|--5---5---5----5-5-5-|
|---3----3-------3---3-3-|--3---3---3----3-3-3-|
|------------------------|---------------------|


  F5                            C5
    ~~~~                  ~~~~~~~~~~~     PM              PM
   +Q      Q         Q    Q      +Q    E  E  Q       +E   E
|-------/[17]-----------------|-------12----12b13r==(12)----|
|-(10)------------------------|--------------------------13-|
|-------------------14S==12---|-(12)-----12-----------------|
|-----------------------------|-----------------------------|
|-----------------------------|-----------------------------|
|-----------------------------|-----------------------------|
|
| Gtrs III, IV
|                           PM
|   Q.          Q      E  E E     Q.      Q       E   E   E
|-----------------------------|-----------------------------|
|-----------------------------|---5-------5-------5---5---5-|
|-----------------------------|---5-------5-------5---5---5-|
|---3-----------3------3--3---|---5-------5-------5---5---5-|
|---3-----------3------3--3-3-|-----------------------------|
|---3-----------3------3--3-3-|-----------------------------|
|
|                      PM---|
|   Q.         +Q      E  E E     H          E    E   E   E
|-----------------------------|-----------------------------|
|-----------------------------|-------------------5---------|
|-----------------------------|---5-------------------5-----|
|--10---------(10)\----7--7-7-|---5-----------------------5-|
|---8----------(8)\----0--0-0-|---3----------3--------------|
|-----------------------------|-----------------------------|
Please download Powertab and listen to my Powertab for correct timing

  D5                        C5
   ~~             PM    PM             ~~~~
   H        +E    E  E  E     Q       +Q      a   E  +E      +E   +E
|-13-------(13)-----17----|-/17b18r==(17)---(17)p15-(15)b17-(15)-(15)b17-|
|---------------/13----13-|----------------------------------------------|
|-------------------------|----------------------------------------------|
|-------------------------|----------------------------------------------|
|-------------------------|----------------------------------------------|
|-------------------------|----------------------------------------------|
|
|  Q  Q      E    E  Q        Q        Q          Q           Q
|-------------------------|----------------------------------------------|
|--6--6------6----6--6----|---5--------5----------5-----------5----------|
|--7--7------7----7--7----|---5--------5----------5-----------5----------|
|--7--7------7----7--7----|---5--------5----------5-----------5----------|
|-------------------------|----------------------------------------------|
|-------------------------|----------------------------------------------|
|
|  ~~ PM~~~~~~~~~~~~~~~       PM---------------------------------|
|  Q  E Q.           Q        E    E   E  E       E   E       E    E
|-------------------------|----------------------------------------------|
|--6----6-----------------|----------------------------------------------|
|--7----5-----------------|----------------------------------------------|
|--7----7-----------\3----|--/5----5---5--5-------5---5-------5----5-----|
|--5--5-------------\1----|--/3----3---3--3-------3---3-------3----3-----|
|-------------------------|----------------------------------------------|
Please download Powertab and listen to my Powertab for correct timing

  C5   Bb5
        ~~~~~~~~~~~~~~~~
    a   W           +H      E E  Q
|-(15)s10--------|-(10)----10p8h10--|
|----------------|------------------|
|----------------|------------------|
|----------------|------------------|
|----------------|------------------|
|----------------|------------------|
|
| Gtrs IV, V
|       W           +W
|----------------|------------------|
|----------------|------------------|
|-------3--------|--(3)-------------|
|-------3--------|--(3)-------------|
|-------1--------|--(1)-------------|
|----------------|------------------|


  C5
                            ~~~~
   +W                      +W
|-(10)b12---------------|-(10)---------------||
|-----------------------|--------------------||
|-----------------------|--------------------||
|-----------------------|--------------------||
|-----------------------|--------------------||
|-----------------------|--------------------||
|
|   PM-----------------------------|
|   E     E E E E E E E     E  E E E E E E E
|-----------------------|--------------------||
|-----------------------|--------------------||
|-----------------------|------------5-5-5-5-||
|---------------5-5-5-5-|---5--5-5-5-5-5-5-5-||
|---3-----3-3-3-3-3-3-3-|---3--3-3-3-3-3-3-3-||
|-----------------------|--------------------||


   Chorus
    D5
    Gtrs IV, V
    Q   E E E E  Q     Q    E E E    E Q
||------------------|---------------------|
||o-----------------|---------------------|
||--7---7-7-7-7--7--|--7----7-7-7----7-7--|
||--7---7-7-7-7--7--|--7----7-7-7----7-7--|
||o-5---5-5-5-5--5--|--5----5-5-5----5-5--|
||------------------|---------------------|
|
|   Gtr VI
|         PM--|  ~~~~~~~~~PM  PM
|   Q.    E E E  Q    +E  E E E S  S E q
||------------------|---------------------|
||o-----------------|------------------6--|
||--7-----------/7--|-(7)---7---7h10p7-7--|
||--x---------------|-------x-------------|
||o-5-----0-0-0-----|-----5-5-5-----------|
||--------0-0-0-----|---------------------|

Please download Powertab and listen to my Powertab for correct timing
  C5
  Q   E E  E E Q     Q   E E     E   E  Q
|-----------------|---------------------------|
|-----------------|---------------------------|
|-5---5-5--5-5-5--|--5---5-5-----5---5--5-----|
|-5---5-5--5-5-5--|--5---5-5-----5---5--5-----|
|-3---3-3--3-3-3--|--3---3-3-----3---3--3-----|
|-----------------|---------------------------|
|
| Q.    Q.     Q    +Q   E E    +E   E  E +E
|-----------------|---------------------------|
|-5-----5------5--|-(5)--------------8--------|
|-5-----5------5--|-(5)--5h7b9==(7)-(7)-7r(7)-|
|-----------------|---------------------------|
|-----------------|---------------------------|
|-----------------|---------------------------|


  A5                                  Bb5
  Q  E E E E Q     Q   E  E E E  Q    Q   E E E E  Q       Q   E E  E E  Q
|---------------|-------------------|-------------------|--------------------||
|---------------|-------------------|-------------------|-------------------o||
|---------------|-------------------|-------------------|--------------------||
|-7--7-7-7-7-7--|--7---7--7-7-7--7--|-8---8-8-8-8--8----|--8---8-8--8-8--8---||
|-7--7-7-7-7-7--|--7---7--7-7-7--7--|-8---8-8-8-8--8----|--8---8-8--8-8--8--o||
|-7--7-7-7-7-7--|--7---7--7-7-7--7--|-8---8-8-8-8--8----|--8---8-8--8-8--8---||
|
| W               +Q   Q.     Q.      H.           E  E    Q   Q    Q    Q
|---------------|-------------------|-------------------|--------------------||
|---------------|-------------------|-------------------|-------------------o||
|-5-------------|-(5)--7------9-----|-7------------9-10-|--9---7----9---10---||
|-x-------------|------x------x-----|-x------------x--x-|--x---x----x----x---||
|-3-------------|-(3)--5------7-----|-5------------7--8-|--7---5----7----8--o||
|---------------|-------------------|-------------------|--------------------||
|
| Gtr III
| W                W                  H.           E  E    Q   Q    Q    Q
|---------------|-------------------|-------------------|--------------------||
|---------------|-------------------|-------------------|-------------------o||
|---------------|-------------------|-------------12-14-|-12--10---12---14---||
|---------------|-------------------|--------------x--x-|--x---x----x----x---||
|---------------|-------------------|-------------10-12-|-10---8---10---12--o||
|---------------|-------------------|-------------------|--------------------||


 Outro
  Bb5                                    C5
  Gtr III
   W                 +W                   W                 +W
   |                  |                   |                  |
   o                  /                   o                  /

  Gtrs IV, V
   Q.    Q   E E E    Q    Q   E E Q      Q.    Q   E E E    Q   Q   E E E E
|------------------|-------------------|------------------|------------------|
|------------------|-------------------|------------------|------------------|
|--3-----3---3-3-3-|--3----3---3-3-3---|--5-----5---5-5-5-|--5---5---5-5-5-5-|
|--3-----3---3-3-3-|--3----3---3-3-3---|--5-----5---5-5-5-|--5---5---5-5-5-5-|
|--1-----1---1-1-1-|--1----1---1-1-1---|--3-----3---3-3-3-|--3---3---3-3-3-3-|
|------------------|-------------------|------------------|------------------|
|
| Gtr VI
|        PM    PM        PM|   PM--|                  PM|    ~~~ PM    PM--|
|  E E E E E E E E    E  E E E E E E E    E E E E E E E E    Q   E E E E E E
|--8p6-----8p5-----|--6--------------6-|--5s8s5-----8-----|-/8---5-----------|
|--------6-----6---|-----6-----6---6---|--------6p5---5---|--------6s5-----5-|
|------------------|-------7-----7-----|----------------5-|------------5---5-|
|------------------|-------------------|------------------|--------------5---|
|------------------|-------------------|------------------|------------------|
|------------------|-------------------|------------------|------------------|
|
| Gtr I
|  W                 +W                   W                 +W
|-^1---------------|-(1)---------------|-^3---------------|-(3)--------------|
|-^3---------------|-(3)---------------|-^5---------------|-(5)--------------|
|-^3---------------|-(3)---------------|-^5---------------|-(5)--------------|
|-^3---------------|-(3)---------------|-^5---------------|-(5)--------------|
|-^1---------------|-(1)---------------|-^3---------------|-(3)--------------|
|------------------|-------------------|------------------|------------------|


  Bb5
   W                 +W
   |                  |
   o                  /

   Q.    Q   E E E    Q    Q   E E Q
|------------------|---------------------|
|------------------|---------------------|
|--3-----3---3-3-3-|--3----3---3-3-3-----|
|--3-----3---3-3-3-|--3----3---3-3-3-----|
|--1-----1---1-1-1-|--1----1---1-1-1-----|
|------------------|---------------------|
|
|      PM  PM|                     PM
|  E E E E E E E E    q    E E E E E S S
|--8p5---5---------|-/8---10s8-----------|
|------6---6---5h6-|-----------8p6---6h8-|
|------------7-----|---------------7-----|
|------------------|---------------------|
|------------------|---------------------|
|------------------|---------------------|
|
|  W                 +W
|-^1---------------|-(1)-----------------|
|-^3---------------|-(3)-----------------|
|-^3---------------|-(3)-----------------|
|-^3---------------|-(3)-----------------|
|-^1---------------|-(1)-----------------|
|------------------|---------------------|


  C5
   W                        Q       Q     E  Q.
   |                        |       |     |  |
   o                        o       o     o  o

   Q.      Q     E  E  E    Q       Q     E  E   E E
|------------------------|---------------------------|
|------------------------|---------------------------|
|--5-------5-----5--5--5-|--5-------5-----5--5---5-5-|
|--5-------5-----5--5--5-|--5-------5-----5--5---5-5-|
|--3-------3-----3--3--3-|--3-------3-----3--3---3-3-|
|------------------------|---------------------------|
|
|  PM----|    PM|      PM------|       PM
|  E   E E E  E  E  E  E    E   E   E  E  E  E   Q
|----------8-------10----|--------/10----10h12--13---|
|--6-----8------10-------|---------------------------|
|-----/9-----10-------10-|-12--10-----10-------------|
|------------------------|---------------------------|
|------------------------|---------------------------|
|------------------------|---------------------------|
|
|  W                       +W
|-^3---------------------|-(3)-----------------------|
|-^5---------------------|-(5)-----------------------|
|-^5---------------------|-(5)-----------------------|
|-^5---------------------|-(5)-----------------------|
|-^3---------------------|-(3)-----------------------|
|------------------------|---------------------------|


  D5
    W               +W            +W            +W
    |                |             |             |
    o                /             /             /

    W               +W            +W            +W
|-----------------|------------|-------------|---------*|
|-----------------|------------|-------------|---------*|
|-----------------|------------|-------------|---------*|
|---0-------------|-(0)--------|--(0)--------|--(0)----*|
|---0-------------|-(0)--------|--(0)--------|--(0)----*|
|---0-------------|-(0)--------|--(0)--------|--(0)----*|
|
|   ~~~~             ~~~~~~~~~~~~~~~~~~~~~~~~~~~~~~~
|  +H      +H        W            +W            +W
|-(13)----(13)S===|=10---------|-(10)--------|-(10)----*|
|-----------------|------------|-------------|---------*|
|-----------------|------------|-------------|---------*|
|-----------------|------------|-------------|---------*|
|-----------------|------------|-------------|---------*|
|-----------------|------------|-------------|---------*|
|
|   W               +W            +W            +W
|-^-1-------------|-(1)--------|--(1)--------|--(1)----*|
|-^-3-------------|-(3)--------|--(3)--------|--(3)----*|
|-^-2-------------|-(2)--------|--(2)--------|--(2)----*|
|-^-0-------------|-(0)--------|--(0)--------|--(0)----*|
|-----------------|------------|-------------|---------*|
|-----------------|------------|-------------|---------*|



Duration Legend
---------------
W - whole; H - half; Q - quarter; E - 8th; S - 16th; T - 32nd; X - 64th; a - acciaccatura
+ - note tied to previous; . - note dotted; .. - note double dotted
Uncapitalized letters represent notes that are staccato (1/2 duration)
Irregular groupings are notated above the duration line
Duration letters will always appear directly above the note/fret number it represents the
duration for.  Duration letters with no fret number below them represent rests.  Multi-
bar rests are notated in the form Wxn, where n is the number of bars to rest for.  Low
melody durations appear below the staff

Tablature Legend
----------------
 h   - hammer-on
 p   - pull-off
 b   - bend
 pb  - pre-bend
 r   - bend release (if no number after the r, then release immediately)
 /\  - slide into or out of (from/to "nowhere")
 s   - legato slide
 S   - shift slide
 - natural harmonic
[n]  - artificial harmonic
n(n) - tapped harmonic
 ~   - vibrato
 tr  - trill
 T   - tap
 TP  - trem. picking
 PM  - palm muting
\n/  - tremolo bar dip; n = amount to dip
 \n  - tremolo bar down
 n/  - tremolo bar up
/n\  - tremolo bar inverted dip
 =   - hold bend; also acts as connecting device for hammers/pulls
 <> - volume swell (louder/softer)
 x   - on rhythm slash represents muted slash
 o   - on rhythm slash represents single note slash


7 comments total. Showing first comments.
-1 reply
MyBlackDahlia. wrote on January 26 2009, 09:34 pm

wtf? 5 guitars?

+2 reply
Seth Shadows wrote on January 29 2009, 04:21 pm

Perfect example of an Idiot who doesn't know how things are recorded.

0 reply
downfromthesky wrote on January 29 2009, 07:19 pm

pretty sure the harmonics in the heavy intro are 15 not 5...
and the acoustic intro is way off

I want to post or [tab]
guest
You may want to rate the tab now too:
select rating
Please do not post tabs as comments. Select "correction" instead!