Oops, an error
Loading. Please wait.

Hail To The King Bass Tab

ver1
ver1
More versions @911Tabs.com
5,150 views 42 this week
no commentswrite comment
1 2 3 4 5
excellent!
x 4
Autoscroll
+/-
esc
set tempo
stop
Contributor
Difficulty
intermediate
Hey! There's an official Ultimate Guitar app which is ideal
for learning songs when you're away from computer. Get the app
WARNING: You are trying to view
                                    content from Ultimate-Guitar.com
                                    in an unauthorized application,
                                    which is prohibited.

                                    Please use an official Ultimate
                                    Guitar Tabs application for iPhone,
                                    iPad or Android to access legitimate
                                    chords, guitar, bass, and drum tabs
                                    from Ultimate-Guitar.com database.

                                    Type "ultimate guitar tabs" in Apple
                                    App Store's or Android Market's
                                    search to find the application.
Shepherd of Fire

0:34
G|-----------------------------------------------------------------|
D|-----------------------------------------------------------------|
A|-----------------------------------------------------------------|
D|-0---0---0-------0---0---0---0---0---0---0-------0---0---0-------|
   1 e + a 2 e + a 3 e + a 4 e + a 1 e + a 2 e + a 3 e + a 4 e + a

G|-----------------------------------------------------------------|
D|-----------------------------------------------------------------|
A|-----------------------------------------------------------------|
D|-0---0---0-------0---0---0---0---0---0---0-------0---0---0---0---|
   1 e + a 2 e + a 3 e + a 4 e + a 1 e + a 2 e + a 3 e + a 4 e + a

G|-----------------------------------------------------------------|
D|-----------------------------------------------------------------|
A|-----------------------------------------------------------------|
D|-0---0---0-------0---0---0---0---0---0---0-------0---0---0---0---|
   1 e + a 2 e + a 3 e + a 4 e + a 1 e + a 2 e + a 3 e + a 4 e + a

G|-----------------------------------------------------------------|
D|-----------------------------------------------------------------|
A|-----------------------------------------------------------------|
D|-0---0---0---0---0---0---0---0---0---0---0---0---0---0---0---0---|
   1 e + a 2 e + a 3 e + a 4 e + a 1 e + a 2 e + a 3 e + a 4 e + a

0:49
G|-----------------------------------------------------------------|
D|-----------------------------------------------------------------|
A|-----------------------------------------------------------------|
D|-0---0---0-------0---0---0---0---0---0---0---0---0---0---0---0---|
   1 e + a 2 e + a 3 e + a 4 e + a 1 e + a 2 e + a 3 e + a 4 e + a

G|-------------------------------------------------------------------|
D|o-----------------------------------------------------------------o|
A|o-----------------------------------------------------------------o|
D|--0---0---0---0---0---0---0---0---0---0---0---0---0---0---0---0----|
    1 e + a 2 e + a 3 e + a 4 e + a 1 e + a 2 e + a 3 e + a 4 e + a

G|-----------------------------------------------------------------|
D|-----------------------------------------------------------------|
A|-----------------------------------------------------------------|
D|-0---0---0---0---0---0---0---8-------8-------5-------5-------0---|
   1 e + a 2 e + a 3 e + a 4 e + a 1 e + a 2 e + a 3 e + a 4 e + a

1:05
G|------------------------------------------------------------------|
D|o-----------------------------------------------------------------|
A|o-----------------------------------------------------------------|
D|------0---0---0---0---0---0---0---0---0---0---0---0---0---0---0---|
    1 e + a 2 e + a 3 e + a 4 e + a 1 e + a 2 e + a 3 e + a 4 e + a

G|------------------------------------------------------------------|
D|-----------------------------------------------------------------o|
A|-----------------------------------------------------------------o|
D|-0---0---0---0---0---0---0---8-------8-------5-------5-------0----|
   1 e + a 2 e + a 3 e + a 4 e + a 1 e + a 2 e + a 3 e + a 4 e + a

Verse 1:19
G|-----------------------------------------------------------------|
D|-----------------------------------------------------------------|
A|-----------------------------------------------------------------|
D|---------0-0-0-0-0-0-0-------0-----------0-0-0-0-0-0-0-------0---|
   1 e + a 2 e + a 3 e + a 4 e + a 1 e + a 2 e + a 3 e + a 4 e + a

G|-----------------------------------------------------------------|
D|-----------------------------------------------------------------|
A|-----------------------------------------------------------------|
D|---------0-0-0-0-0-0-0-------8-------8-------5-------5-------0---|
   1 e + a 2 e + a 3 e + a 4 e + a 1 e + a 2 e + a 3 e + a 4 e + a

G|-----------------------------------------------------------------|
D|-----------------------------------------------------------------|
A|-----------------------------------------------------------------|
D|---------0-0-0-0-0-0-0-------0-----------0-0-0-0-0-0-0-------0---|
   1 e + a 2 e + a 3 e + a 4 e + a 1 e + a 2 e + a 3 e + a 4 e + a

G|-----------------------------------------------------------------|
D|-----------------------------------------------------------------|
A|-------------------------------------------------------------0---|
D|---------0-0-0-0-0-0-0-------8-------8-------5-------5-----------|
   1 e + a 2 e + a 3 e + a 4 e + a 1 e + a 2 e + a 3 e + a 4 e + a

Pre Chorus 1:34
G|-----------------------------------------------------------------|
D|-----------------------------------------------------------------|
A|---------0-0-0-0-0-0-0---------------------------------------0---|
D|-----------------------------8-------8-------5-------5-----------|
   1 e + a 2 e + a 3 e + a 4 e + a 1 e + a 2 e + a 3 e + a 4 e + a

G|-----------------------------------------------------------------|
D|-----------------------------------------------------------------|
A|-----0---0-0-0-0-0-0-0-----------------------3-------3-------1---|
D|-----------------------------0-------2---5-----------------------|
   1 e + a 2 e + a 3 e + a 4 e + a 1 e + a 2 e + a 3 e + a 4 e + a

Chorus 1:42
G|------------------------------------------------------------------|
D|o-----------------------------------------------------------------|
A|o-----1---1-------1---1---1---3-------3---3-------3---3---3-------|
D|--------------------------------------------------------------0---|
    1 e + a 2 e + a 3 e + a 4 e + a 1 e + a 2 e + a 3 e + a 4 e + a

G|------------------------------------------------------------------|
D|-----------------------------------------------------------------o|
A|-------------------------------------------------------------1---o|
D|-----0---0---0---0---0---0---0---0---0---0---0---0---0---0--------|
   1 e + a 2 e + a 3 e + a 4 e + a 1 e + a 2 e + a 3 e + a 4 e + a

G|-----------------------------------------------------------------|
D|-----------------------------------------------------------------|
A|-----1---1-------1---1---1---------------------------------------|
D|-----------------------------5-----------------------------------|
   1 e + a 2 e + a 3 e + a 4 e + a 1 e + a 2 e + a 3 e + a 4 e + a

G|---------------------------------|
D|---------------------------------|
A|---------------------------------|
D|-----------------------------0---|
   1 e + a 2 e + a 3 e + a 4 e + a 

Verse 2:03
G|-----------------------------------------------------------------|
D|-----------------------------------------------------------------|
A|-----------------------------------------------------------------|
D|---------0-0-0-0-0-0-0-------0-----------0-0-0-0-0-0-0-------0---|
   1 e + a 2 e + a 3 e + a 4 e + a 1 e + a 2 e + a 3 e + a 4 e + a

G|-----------------------------------------------------------------|
D|-----------------------------------------------------------------|
A|-----------------------------------------------------------------|
D|---------0-0-0-0-0-0-0-------8-------8-------5-------5-------0---|
   1 e + a 2 e + a 3 e + a 4 e + a 1 e + a 2 e + a 3 e + a 4 e + a

G|-----------------------------------------------------------------|
D|-----------------------------------------------------------------|
A|-----------------------------------------------------------------|
D|---------0-0-0-0-0-0-0-------0-----------0-0-0-0-0-0-0-------0---|
   1 e + a 2 e + a 3 e + a 4 e + a 1 e + a 2 e + a 3 e + a 4 e + a

G|-----------------------------------------------------------------|
D|-----------------------------------------------------------------|
A|-------------------------------------------------------------0---|
D|---------0-0-0-0-0-0-0-------8-------8-------5-------5-----------|
   1 e + a 2 e + a 3 e + a 4 e + a 1 e + a 2 e + a 3 e + a 4 e + a

Pre Chorus 2:18
G|-----------------------------------------------------------------|
D|-----------------------------------------------------------------|
A|---------0-0-0-0-0-0-0---------------------------------------0---|
D|-----------------------------8-------8-------5-------5-----------|
   1 e + a 2 e + a 3 e + a 4 e + a 1 e + a 2 e + a 3 e + a 4 e + a

G|-----------------------------------------------------------------|
D|-----------------------------------------------------------------|
A|-----0---0-0-0-0-0-0-0-----------------------3-------3-------1---|
D|-----------------------------0-------2---5-----------------------|
   1 e + a 2 e + a 3 e + a 4 e + a 1 e + a 2 e + a 3 e + a 4 e + a

Chorus 2:25
G|------------------------------------------------------------------|
D|o-----------------------------------------------------------------|
A|o-----1---1-------1---1---1---3-------3---3-------3---3---3-------|
D|--------------------------------------------------------------0---|
    1 e + a 2 e + a 3 e + a 4 e + a 1 e + a 2 e + a 3 e + a 4 e + a

G|------------------------------------------------------------------|
D|-----------------------------------------------------------------o|
A|-------------------------------------------------------------1---o|
D|-----0---0---0---0---0---0---0---0---0---0---0---0---0---0--------|
   1 e + a 2 e + a 3 e + a 4 e + a 1 e + a 2 e + a 3 e + a 4 e + a

G|-----------------------------------------------------------------|
D|-----------------------------------------------------------------|
A|-----1---1-------1---1---1---------------------------------------|
D|-----------------------------5-------5---5---5---5---5---5---5---|
   1 e + a 2 e + a 3 e + a 4 e + a 1 e + a 2 e + a 3 e + a 4 e + a

G|---------------------------------|
D|---------------------------------|
A|---------------------------------|
D|-5---5---5---5---5---5---5---0---|
   1 e + a 2 e + a 3 e + a 4 e + a 

Solo 2:46
G|-----------------------------------------------------------------|
D|-----------------------------------------------------------------|
A|-----------------------------------------------------------------|
D|-----0---0-0-0-0-0-0-0---0---8-------8-------5-------5-------0---|
   1 e + a 2 e + a 3 e + a 4 e + a 1 e + a 2 e + a 3 e + a 4 e + a

G|-------------------------------------------------------------------|
D|o-----------------------------------------------------------------o|
A|o-----------------------------------------------------------------o|
D|----------0-0-0-0-0-0-0---0---8-------8-------5-------5-------0----|
    1 e + a 2 e + a 3 e + a 4 e + a 1 e + a 2 e + a 3 e + a 4 e + a

G|-----------------------------------------------------------------|
D|-----------------------------------------------------------------|
A|-------------------------------------------------------------0---|
D|---------0-0-0-0-0-0-0---0---8-------8-------5-------5-----------|
   1 e + a 2 e + a 3 e + a 4 e + a 1 e + a 2 e + a 3 e + a 4 e + a

G|-----------------------------------------------------------------|
D|-----------------------------------------------------------------|
A|---------0-0-0-0-0-0-0---0-----------------------------------0---|
D|-----------------------------8-------8-------5-------5-----------|
   1 e + a 2 e + a 3 e + a 4 e + a 1 e + a 2 e + a 3 e + a 4 e + a

G|-----------------------------------------------------------------|
D|-----------------------------------------------------------------|
A|---------0-0-0-0-0-0-0---0-------------------3-------3-------1---|
D|-----------------------------0-------2---5-----------------------|
   1 e + a 2 e + a 3 e + a 4 e + a 1 e + a 2 e + a 3 e + a 4 e + a

G|------------------------------------------------------------------|
D|o-----------------------------------------------------------------|
A|o-----1---1-------1---1---1---3-------3---3-------3---3---3-------|
D|--------------------------------------------------------------0---|
    1 e + a 2 e + a 3 e + a 4 e + a 1 e + a 2 e + a 3 e + a 4 e + a

G|------------------------------------------------------------------|
D|-----------------------------------------------------------------o|
A|-------------------------------------------------------------1---o|
D|---------0-0-0-0-0-0-0-0-0-0-0-0-0-0-0-0-0-0-0-0-0-0-0-0-0-0------|
   1 e + a 2 e + a 3 e + a 4 e + a 1 e + a 2 e + a 3 e + a 4 e + a

G|-----------------------------------------------------------------|
D|-----------------------------------------------------------------|
A|-----1---1-------1---1---1---------------------------------------|
D|-----------------------------5-----------5---5---5---5---5---5---|
   1 e + a 2 e + a 3 e + a 4 e + a 1 e + a 2 e + a 3 e + a 4 e + a

G|-----------------------------------------------------------------|
D|-----------------------------------------------------------------|
A|-----------------------------------------------------------------|
D|-5---5---5---5---5---5---5---5---0-------------------------------|
   1 e + a 2 e + a 3 e + a 4 e + a 1 e + a 2 e + a 3 e + a 4 e + a 

G|-------------------------------------------------------------------|
D|o-----------------------------------------------------------------o|
A|o-----------------------------------------------------------------o|
D|-------------------------------------------------------------------|
    1 e + a 2 e + a 3 e + a 4 e + a 1 e + a 2 e + a 3 e + a 4 e + a

Bridge 3:36 
G|-------------------------------------------------------------------|
D|o-----------------------------------------------------------------o|
A|o-----------------------------------------------------------------o|x4
D|--0---0---0---0---0---0---0---0---0---0---0---0---0---0---0---0----|
    1 e + a 2 e + a 3 e + a 4 e + a 1 e + a 2 e + a 3 e + a 4 e + a

G|-------------------------------------------------------------------|
D|o-----------------------------------------------------------------o|
A|o-0---0---0---0---0---0---0---0---1---1---1---1-------------------o|x3
D|--------------------------------------------------5---5---5---5----|
    1 e + a 2 e + a 3 e + a 4 e + a 1 e + a 2 e + a 3 e + a 4 e + a

G|-----------------------------------------------------------------|
D|-----------------------------------------------------------------|
A|-0---0---0---0---0---0---0---0-------------------------------1---|
D|-----------------------------------------------------------------|
   1 e + a 2 e + a 3 e + a 4 e + a 1 e + a 2 e + a 3 e + a 4 e + a

Chorus 
G|------------------------------------------------------------------|
D|o-----------------------------------------------------------------|
A|o-----1---1-------1---1---1---3-------3---3-------3---3---3-------|
D|--------------------------------------------------------------0---|
    1 e + a 2 e + a 3 e + a 4 e + a 1 e + a 2 e + a 3 e + a 4 e + a

G|------------------------------------------------------------------|
D|-----------------------------------------------------------------o|x3
A|-------------------------------------------------------------1---o|
D|-----0---0---0---0---0---0---0---0---0---0---0---0---0---0--------|
   1 e + a 2 e + a 3 e + a 4 e + a 1 e + a 2 e + a 3 e + a 4 e + a

G|-----------------------------------------------------------------|
D|-----------------------------------------------------------------|
A|-----1---1-------1---1---1---3-------3---3-------3---3---3-------|
D|-----------------------------------------------------------------|
   1 e + a 2 e + a 3 e + a 4 e + a 1 e + a 2 e + a 3 e + a 4 e + a

G|-----------------------------------------------------------------|
D|-----------------------------------------------------------------|
A|-------------------------------------------------------------1---|
D|-0---0---0---0---0---0---0---0---0---0---0---0---0---0---0-------|
   1 e + a 2 e + a 3 e + a 4 e + a 1 e + a 2 e + a 3 e + a 4 e + a

G|---------------------------------|
D|---------------------------------|
A|-----1---1-------1---1---1-------|
D|-----------------------------5---|
   1 e + a 2 e + a 3 e + a 4 e + a 

G|-------------------------------------------------------------------|
D|o-----------------------------------------------------------------o|
A|o-----------------------------------------------------------------o|
D|-------------------------------------------------------------------|
    1 e + a 2 e + a 3 e + a 4 e + a 1 e + a 2 e + a 3 e + a 4 e + a

Outro 4:46
G|-------------------------------------------------------------------|
D|o-----------------------------------------------------------------o|
A|o-----------------------------------------------------------------o|
D|--0---0---0---0---0---0---0---0---0---0---0---0---0---0---0---0----|
    1 e + a 2 e + a 3 e + a 4 e + a 1 e + a 2 e + a 3 e + a 4 e + a

Fade out
G|-------------------------------------------------------------------|
D|o-----------------------------------------------------------------o|
A|o-----------------------------------------------------------------o|
D|--0---0---0---0---0---0---0---0---0---0---0---0---0---0---0---0----|
    1 e + a 2 e + a 3 e + a 4 e + a 1 e + a 2 e + a 3 e + a 4 e + a
Tabbed by Dave Vucko

========================================================

Hail To The King (Drop C#)

0:48
F#|-------------------------------------------------------------------|
C#|o-----------------------------------------------------------------o|
G#|o-----------------------------------------------------------------o|
C#|--2---2---2-5-0-2-2---2---2-5-0-2-2---2---2-5-5---0---0---5-4-0----|
     1 + 2 + 3 + 4 + 1 + 2 + 3 + 4 + 1 + 2 + 3 + 4 + 1 + 2 + 3 + 4 +

1:05 Verse
F#|-------------------------------------------------------------------|
C#|o-----------------------------------------------------------------o|
G#|o-----------------------------------------------------------------o|
C#|--2---2-2-2-2-2-2-2-2-2-2-2-5-0---2---2-2-2-2-2-2-0---0---5-4-0----|
     1 + 2 + 3 + 4 + 1 + 2 + 3 + 4 + 1 + 2 + 3 + 4 + 1 + 2 + 3 + 4 +

1:21 Pre Chorus
F#|-----------------------------------------------------------------|
C#|-----------------------------------------------------------------|
G#|-0---0-0-0-3-3---0---0-0-0-3-----0---0-0-0-3-3---0---0-0-0-3-----|
C#|-----------------------------5-------------------------------5---|
    1 + 2 + 3 + 4 + 1 + 2 + 3 + 4 + 1 + 2 + 3 + 4 + 1 + 2 + 3 + 4 +

F#|-----------------------------------------------------------------|
C#|-----------------------------------------------------------------|
G#|-2---2-2-2-5-5---2---2-2-2-5-0---2-2-2-2-2-5-5-5-2-2-2-2-2-5-0---|
C#|-----------------------------------------------------------------|
    1 + 2 + 3 + 4 + 1 + 2 + 3 + 4 + 1 + 2 + 3 + 4 + 1 + 2 + 3 + 4 +

1:37 Chorus
F#|-------------------------------------------------------------------|
C#|o-----------------------------------------------------------------o|
G#|o---------------------------------3---3---3-0-3-5---5-5-5---------o|
C#|--2---2---2-0-2-0-0-0-0-0-5-4-0---------------------------5-4-0----|
     1 + 2 + 3 + 4 + 1 + 2 + 3 + 4 + 1 + 2 + 3 + 4 + 1 + 2 + 3 + 4 +

1:53 Interlude
F#|-----------------------------------------------------------------|
C#|-----------------------------------------------------------------|
G#|-----------------------------------------------------------------|
C#|-2---4---5---2-2-2-2-2-2-2-2-2-2-2---4---5---0-0---------5-4-0---|
    1 + 2 + 3 + 4 + 1 + 2 + 3 + 4 + 1 + 2 + 3 + 4 + 1 + 2 + 3 + 4 +

2:02 Verse
F#|-------------------------------------------------------------------|
C#|o-----------------------------------------------------------------o|
G#|o-----------------------------------------------------------------o|
C#|--2---2-2-2-2-2-2-2-2-2-2-2-5-0---2---2-2-2-2-2-2-0---0---5-4-0----|
     1 + 2 + 3 + 4 + 1 + 2 + 3 + 4 + 1 + 2 + 3 + 4 + 1 + 2 + 3 + 4 +

2:18 Pre Chorus
F#|-----------------------------------------------------------------|
C#|-----------------------------------------------------------------|
G#|-0---0-0-0-3-3---0---0-0-0-3-----0---0-0-0-3-3---0---0-0-0-3-----|
C#|-----------------------------5-------------------------------5---|
    1 + 2 + 3 + 4 + 1 + 2 + 3 + 4 + 1 + 2 + 3 + 4 + 1 + 2 + 3 + 4 +

F#|-----------------------------------------------------------------|
C#|-----------------------------------------------------------------|
G#|-2---2-2-2-5-5---2---2-2-2-5-0---2-2-2-2-2-5-5-5-2-2-2-2-2-5-0---|
C#|-----------------------------------------------------------------|
    1 + 2 + 3 + 4 + 1 + 2 + 3 + 4 + 1 + 2 + 3 + 4 + 1 + 2 + 3 + 4 +

2:34 Chorus
F#|-------------------------------------------------------------------|
C#|o-----------------------------------------------------------------o|
G#|o---------------------------------3---3---3-0-3-5---5-5-5---------o|
C#|--2---2---2-0-2-0-0-0-0-0-5-4-0---------------------------5-4-0----|
     1 + 2 + 3 + 4 + 1 + 2 + 3 + 4 + 1 + 2 + 3 + 4 + 1 + 2 + 3 + 4 +

2:50 Interlude
F#|-----------------------------------------------------------------|
C#|-----------------------------------------------------------------|
G#|-----------------------------------------------------------------|
C#|-2---4---5---2-2-2-2-2-2-2-2-2-2-2---4---5---0-0---------5-4-0---|
    1 + 2 + 3 + 4 + 1 + 2 + 3 + 4 + 1 + 2 + 3 + 4 + 1 + 2 + 3 + 4 +

2:58 Solo
F#|-----------------------------------------------------------------|
C#|-----------------------------------------------------------------|
G#|-------------------------2-2-2-2-------------------------2-2-2-2-|
C#|-2-2-2-2-2-2-2-2-0-0-0-0---------2-2-2-2-2-2-2-2-0-0-0-0---------|
    1 + 2 + 3 + 4 + 1 + 2 + 3 + 4 + 1 + 2 + 3 + 4 + 1 + 2 + 3 + 4 +

F#|-----------------------------------------------------------------|
C#|-----------------------------------------------------------------|
G#|-----------------0-0-0-0-------------------------2-2-2-2-2-2-2-2-|
C#|-2-2-2-2-2-2-2-2---------4-4-4-4-5-5-5-5-4-4-4-4-----------------|
    1 + 2 + 3 + 4 + 1 + 2 + 3 + 4 + 1 + 2 + 3 + 4 + 1 + 2 + 3 + 4 +

3:15
F#|-----------------------------------------------------------------|
C#|-----------------------------------------------------------------|
G#|-----------------2-2-2-2-2-2-2-2-0-0-0-0-0-0-0-0-----------------|
C#|-2-2-2-2-2-2-2-2---------------------------------2-2-2-2-2-2-2-2-|
    1 + 2 + 3 + 4 + 1 + 2 + 3 + 4 + 1 + 2 + 3 + 4 + 1 + 2 + 3 + 4 +

F#|-----------------------------------------------------------------|
C#|-----------------------------------------------------------------|
G#|-2-2-2-2-2-2-2-2-----------------2-2-2-2-2-2-2-2-2---------------|
C#|-----------------2-2-2-2-2-2-2-2-------------------------5-4-0---|
    1 + 2 + 3 + 4 + 1 + 2 + 3 + 4 + 1 + 2 + 3 + 4 + 1 + 2 + 3 + 4 +

F#|-----------------------------------------------------------------|
C#|-----------------------------------------------------------------|
G#|-----------------2-2-2-2-2-2-2-2-0-0-0-0-0-0-0-0-----------------|
C#|-2-2-2-2-2-2-2-2---------------------------------2-2-2-2-2-2-2-2-|
    1 + 2 + 3 + 4 + 1 + 2 + 3 + 4 + 1 + 2 + 3 + 4 + 1 + 2 + 3 + 4 +

F#|-----------------------------------------------------------------|
C#|---------------------------------1-------4---------------2---4---|
G#|-2-2-2-2-2-2-2-2---------------------------------2---------------|
C#|-----------------2-2-2-2-2-2-2-2---------------------------------|
    1 + 2 + 3 + 4 + 1 + 2 + 3 + 4 + 1 + 2 + 3 + 4 + 1 + 2 + 3 + 4 +

F#|-----------------------------------------------------------------|
C#|-----------------------------------------------------------------|
G#|-----------------------------------------------------------------|
C#|-2---------------------------------------------------------------|
    1 + 2 + 3 + 4 + 1 + 2 + 3 + 4 + 1 + 2 + 3 + 4 + 1 + 2 + 3 + 4 +

3:55 Interlude
F#|-----------------------------------------------------------------|
C#|-----------------------------------------------------------------|
G#|-----------------------------------------------------------------|
C#|-2---4---5-----------------------2---4---5-----------------------|
    1 + 2 + 3 + 4 + 1 + 2 + 3 + 4 + 1 + 2 + 3 + 4 + 1 + 2 + 3 + 4 +

F#|---------------------------------------------------------------------------------|
C#|---------------------------------------------------------------------------------|
G#|---------------------------------------------------------------------------------|
C#|-2---4---5-----------------------2---4---5---0-0-----------------0-0-0-0-0-0-0-0-|
    1 + 2 + 3 + 4 + 1 + 2 + 3 + 4 + 1 + 2 + 3 + 4 + 1 + 2 + 3 + 4 + 1 + 2 + 3 + 4 +

4:14 Chorus
F#|-------------------------------------------------------------------|
C#|o-----------------------------------------------------------------o|
G#|o---------------------------------3---3---3-0-3-5---5-5-5---------o|
C#|--2---2---2-0-2-0-0-0-0-0-5-4-0---------------------------5-4-0----|
     1 + 2 + 3 + 4 + 1 + 2 + 3 + 4 + 1 + 2 + 3 + 4 + 1 + 2 + 3 + 4 +

F#|-----------------------------------------------------------------|
C#|-----------------------------------------------------------------|
G#|---------------------------------3---3---3-0-3-5---5-5-5---------|
C#|-----2---2-0-2-0-0-0-0-0-5-4-0---------------------------5-4-0---|
    1 + 2 + 3 + 4 + 1 + 2 + 3 + 4 + 1 + 2 + 3 + 4 + 1 + 2 + 3 + 4 +

F#|-----------------------------------------------------------------|
C#|-----------------------------------------------------------------|
G#|---------------------------------3---3---3-0-3-5---5-5-5---------|
C#|-2---2---2-0-2-0-0-0-0-0-5-4-0---------------------------5-4-0---|
    1 + 2 + 3 + 4 + 1 + 2 + 3 + 4 + 1 + 2 + 3 + 4 + 1 + 2 + 3 + 4 +

Outro 4:46
F#|-----------------------------------------------------------------|
C#|-----------------------------------------------------------------|
G#|-----------------------------------------------------------------|
C#|-2---4---5---2-2-2-2-2-2-2-2-2-2-2---4---5---0-0-----------------|
    1 + 2 + 3 + 4 + 1 + 2 + 3 + 4 + 1 + 2 + 3 + 4 + 1 + 2 + 3 + 4 +
Tabbed by Dave Vucko

=========================================================

Doing Time

G|-----------------------------------------------------------------|
D|-----------------------------------------------------------------|
A|-----------------------------------------------------------------|
D|-2-------------------------------0-------------------------------|
   1 + 2 + 3 + 4 + 1 + 2 + 3 + 4 + 1 + 2 + 3 + 4 + 1 + 2 + 3 + 4 + 

G|-----------------------------------------------------------------|
D|-----------------------------------------------------------------|
A|-0---------------------------------------------------------------|
D|-----------------------------5p4-2-------------------------------|
   1 + 2 + 3 + 4 + 1 + 2 + 3 + 4 + 1 + 2 + 3 + 4 + 1 + 2 + 3 + 4 + 
 
G|-----------------------------------------------------------------|
D|---------------------------------------------------------------5-|
A|---------------------------------5-5-5-5-5-5-5-5-5-5-5-5-5-4-5---|
D|-2-2-2-2-2-2-2-2-2-2-2-2-2-2-2-5---------------------------------|
   1 + 2 + 3 + 4 + 1 + 2 + 3 + 4 + 1 + 2 + 3 + 4 + 1 + 2 + 3 + 4 + 

G|-----------------------------------------------------------------|
D|-7-7-7-7-7-7-7-7-7-7-7-7-7-7-7-7-9-9-9-8-8-8-7-7-7-5-5-5---------|
A|---------------------------------------------------------7-7-5-5-|
D|-----------------------------------------------------------------|
   1 + 2 + 3 + 4 + 1 + 2 + 3 + 4 + 1 + 2 + 3 + 4 + 1 + 2 + 3 + 4 + 

10:57
G|-----------------------------------------------------------------|
D|-----------------------------------------------------------------|
A|-----------------------------------------------------------------|
D|-2---5-2-5-2-0-2---2-5-2-5-2-0-2---2-5-2-5-2-0-8---8-7-5-7-5-0-2-|
   1 + 2 + 3 + 4 + 1 + 2 + 3 + 4 + 1 + 2 + 3 + 4 + 1 + 2 + 3 + 4 + 

G|-----------------------------------------------------------------|
D|-----------------------------------------------------------------|
A|-----------------------------------------------------------------|
D|---2-5-2-5-2-0-2---2-5-2-5-2-0-2---2-5-2-5-2-0-8---8-7-5-7-5-0-2-|
   1 + 2 + 3 + 4 + 1 + 2 + 3 + 4 + 1 + 2 + 3 + 4 + 1 + 2 + 3 + 4 + 

Verse 
G|-----------------------------------------------------------------|
D|-----------------------------------------------------------------|
A|-----------------------------------------------------------------|
D|---2-2-2-2-2-2-2-2-2-2-2-2-1-0-2---2-2-2-2-2-2-2-2-2-2-2-2-1-0-2-|
   1 + 2 + 3 + 4 + 1 + 2 + 3 + 4 + 1 + 2 + 3 + 4 + 1 + 2 + 3 + 4 + 

G|-----------------------------------------------------------------|
D|-----------------------------------------------------------------|
A|-----------------------------------------------------------------|
D|---2-2-2-2-2-2-2-2-2-2-2-2-1-0-2---2-2-2-2-2-2-2-2-2-2-2-2-1-0-4-|
   1 + 2 + 3 + 4 + 1 + 2 + 3 + 4 + 1 + 2 + 3 + 4 + 1 + 2 + 3 + 4 + 

Pre Chorus
G|-----------------------------------------------------------------|
D|-----------------------------------------------------------------|
A|-----------------------------------------------------------------|
D|---4-4---4-4-4---4-4-4---4-2-4-5---5-5---5-5-5---5-5-5---5-5-5-5-|
   1 + 2 + 3 + 4 + 1 + 2 + 3 + 4 + 1 + 2 + 3 + 4 + 1 + 2 + 3 + 4 + 


G|-----------------------------------------------------------------|
D|-----------------------------------------------------------------|
A|-2-2-2-0-0-0-2-2-2-5-5-5-2-2-0-------------------0---0-5-0-0-4-5-|
D|-------------------------------5---5-5---5-5-5-5-----------------|
   1 + 2 + 3 + 4 + 1 + 2 + 3 + 4 + 1 + 2 + 3 + 4 + 1 + 2 + 3 + 4 + 

Chorus
G|-----------------------------------------------------------------|
D|-----------------------------------------------------------------|
A|-------------------------------------------------0---0-5-0-0-4-5-|
D|-9---\-3---0-0-0-9---\-3---0-0-0-5---5---5-5-4-5-----------------|
   1 + 2 + 3 + 4 + 1 + 2 + 3 + 4 + 1 + 2 + 3 + 4 + 1 + 2 + 3 + 4 + 

G|---------------------------------|
D|---------------------------------|
A|---------------------------------|
D|-9---\-3---0-3-0-9---------------|
   1 + 2 + 3 + 4 + 1 + 2 + 3 + 4 + 

Verse
G|-----------------------------------------------------------------|
D|-----------------------------------------------------------------|
A|-----------------------------------------------------------------|
D|-2---2-2-2-2-2-2-2-2-2-2-2-1-0-2---2-2-2-2-2-2-2-2-2-2-2-2-1-0-2-|
   1 + 2 + 3 + 4 + 1 + 2 + 3 + 4 + 1 + 2 + 3 + 4 + 1 + 2 + 3 + 4 + 

G|-----------------------------------------------------------------|
D|-----------------------------------------------------------------|
A|-----------------------------------------------------------------|
D|---2-2-2-2-2-2-2-2-2-2-2-2-1-0-2---2-2-2-2-2-2-2-2-2-2-2-2-1-0-4-|
   1 + 2 + 3 + 4 + 1 + 2 + 3 + 4 + 1 + 2 + 3 + 4 + 1 + 2 + 3 + 4 + 

Pre Chorus
G|-----------------------------------------------------------------|
D|-----------------------------------------------------------------|
A|-----------------------------------------------------------------|
D|---4-4---4-4-4---4-4-4---4-2-4-5---5-5---5-5-5---5-5-5---5-5-5-5-|
   1 + 2 + 3 + 4 + 1 + 2 + 3 + 4 + 1 + 2 + 3 + 4 + 1 + 2 + 3 + 4 + 


G|-----------------------------------------------------------------|
D|-----------------------------------------------------------------|
A|-2-2-2-0-0-0-2-2-2-5-5-5-2-2-0-------------------0---0-5-0-0-4-5-|
D|-------------------------------5---5-5---5-5-5-5-----------------|
   1 + 2 + 3 + 4 + 1 + 2 + 3 + 4 + 1 + 2 + 3 + 4 + 1 + 2 + 3 + 4 + 

Chorus
G|-----------------------------------------------------------------|
D|-----------------------------------------------------------------|
A|-------------------------------------------------0---0-5-0-0-8-7-|
D|-9---\-3---0-0-0-9---\-3---0-0-0-5---5---5-5-4-5-----------------|
   1 + 2 + 3 + 4 + 1 + 2 + 3 + 4 + 1 + 2 + 3 + 4 + 1 + 2 + 3 + 4 + 

G|---------------------------------|
D|---------------------------------|
A|---------------------------------|
D|-9---\-3---0-3-0-9---------------|
   1 + 2 + 3 + 4 + 1 + 2 + 3 + 4 + 

Bridge
G|-----------------------------------------------------------------|
D|-----------------------------------------------------------------|
A|---------------------------------2---2-2-2-2-5-4-0---0-0-0-5-4---|
D|-5---5---5-5-5-5-4---4-4-4-4-2-4-------------------------------5-|
   1 + 2 + 3 + 4 + 1 + 2 + 3 + 4 + 1 + 2 + 3 + 4 + 1 + 2 + 3 + 4 + 

G|-----------------------------------------------------------------|
D|-----------------------------------------------------------------|
A|---------------------------------2---2-2---2-2---2-2---2-2---2---|
D|-5---5---5-5-5-5-4---4-4-4-4-2-4---------------------------------|
   1 + 2 + 3 + 4 + 1 + 2 + 3 + 4 + 1 + 2 + 3 + 4 + 1 + 2 + 3 + 4 + 

G|-------------------------------------------------|
D|/9--9--9-9--9--9-9--9--9-9--9--7-----------------|
A|---------------------------------9--7--5-4-------|
D|--------------------------------------------9--7-|
   Triplet Triplet Triplet Triplet Triplet Triplet

Solo
G|-----------------------------------------------------------------|
D|-----------------------------------------------------------------|
A|-----------------------------------------------------------------|
D|-2---5-2-5-2-0-2---2-5-2-5-2-0-2---2-5-2-5-2-0-8---8-7-5-7-5-0-2-|
   1 + 2 + 3 + 4 + 1 + 2 + 3 + 4 + 1 + 2 + 3 + 4 + 1 + 2 + 3 + 4 + 

G|-------------------------------------------------------------------|
D|o-----------------------------------------------------------------o|
A|o-----------------------------------------------------------------o|
D|----2-5-2-5-2-0-2---2-5-2-5-2-0-2---2-5-2-5-2-0-8---8-7-5-7-5-0-2--|
    1 + 2 + 3 + 4 + 1 + 2 + 3 + 4 + 1 + 2 + 3 + 4 + 1 + 2 + 3 + 4 + 


G|-----------------------------------------------------------------|
D|-----------------------------------------------------------------|
A|-----------------------------------------------------------------|
D|---2-5-2-5-2-0-2---2-5-2-5-2-0-2---2-5-2-5-2-0-8---8-7-5-7-5-0-0-|
   1 + 2 + 3 + 4 + 1 + 2 + 3 + 4 + 1 + 2 + 3 + 4 + 1 + 2 + 3 + 4 + 

Interlude
G|-----------------------------------------------------------------|
D|---------------------------------------------------------------5-|
A|-------------------------------/-5-----------------------7-5-7---|
D|-2---------------------------------------------------------------|
   1 + 2 + 3 + 4 + 1 + 2 + 3 + 4 + 1 + 2 + 3 + 4 + 1 + 2 + 3 + 4 + 

G|-----------------------------------------------------------------|
D|-7-----------------------7-5-----9-9-9-8-8-8-7-7-7-5-5-5---------|
A|-----------------------------7---------------------------7-7-5-5-|
D|-----------------------------------------------------------------|
   1 + 2 + 3 + 4 + 1 + 2 + 3 + 4 + 1 + 2 + 3 + 4 + 1 + 2 + 3 + 4 + 

Verse
G|-----------------------------------------------------------------|
D|-----------------------------------------------------------------|
A|-----------------------------------------------------------------|
D|-2---2-2-2-2-2-2-2-2-2-2-2-1-0-2---2-2-2-2-2-2-2-2-2-2-2-2-1-0-2-|
   1 + 2 + 3 + 4 + 1 + 2 + 3 + 4 + 1 + 2 + 3 + 4 + 1 + 2 + 3 + 4 + 

G|-----------------------------------------------------------------|
D|---------------------------------------------0-2-5-2-0-----------|
A|-------------------------------------------------------2-0-------|
D|---2-2-2-2-2-2-2-2-2-2-2-2-1-0-2---2-2-2-2-2---------------4-2-4-|
   1 + 2 + 3 + 4 + 1 + 2 + 3 + 4 + 1 + 2 + 3 + 4 + 1 + 2 + 3 + 4 + 

Pre Chorus
G|-----------------------------------------------------------------|
D|-----------------------------------------------------------------|
A|-----------------------------------------------------------------|
D|---4-4---4-4-4---4-4-4---4-2-4-5---5-5---5-5-5---5-5-5---5-5-5-5-|
   1 + 2 + 3 + 4 + 1 + 2 + 3 + 4 + 1 + 2 + 3 + 4 + 1 + 2 + 3 + 4 + 


G|-----------------------------------------------------------------|
D|-----------------------------------------------------------------|
A|-2-2-2-0-0-0-2-2-2-5-5-5-2-2-0-------------------0---0-5-0-0-4-5-|
D|-------------------------------5---5-5---5-5-5-5-----------------|
   1 + 2 + 3 + 4 + 1 + 2 + 3 + 4 + 1 + 2 + 3 + 4 + 1 + 2 + 3 + 4 + 

Chorus 
G|-----------------------------------------------------------------|
D|-----------------------------------------------------------------|
A|-2---2-----------2---2---------------------------0---0-5-0-0-4-5-|
D|-------3---0-0-0-------3---0-0-0-5---5---5-5-4-5-----------------|
   1 + 2 + 3 + 4 + 1 + 2 + 3 + 4 + 1 + 2 + 3 + 4 + 1 + 2 + 3 + 4 + 

G|-----------------------------------------------------------------|
D|-----------------------------------------------------4-2-0-------|
A|-2---2-----------2---2---------------------------0---------2-0-1-|
D|-------3---0-0-0-------3---0-0-0-5---5---5-5-4-5-----------------|
   1 + 2 + 3 + 4 + 1 + 2 + 3 + 4 + 1 + 2 + 3 + 4 + 1 + 2 + 3 + 4 + 

G|-------------------------------------------------|
D|-------------------------------------------------|
A|-2-2-2-1-1-1-0-0-0---------------------------2---|
D|-------------------5-5-5-2-2-0-0-0-0-0-2-2-2-----|
   1 + 2 + 3 + 4 + 1 + 2 + 3 + 4 + 1 + 2 + 3 + 4 + 
Tabbed by Dave Vucko

=========================================================

This Means War

G|-----------------------------------------------------------------|
D|-----------------------------------------------------------------|
A|-------------------------------------------------3-----------1-0-|
D|-5-------5-5-5-5-5---------------1-------------------------------|
   1 + 2 + 3 + 4 + 1 + 2 + 3 + 4 + 1 + 2 + 3 + 4 + 1 + 2 + 3 + 4 +

G|-----------------------------------------------------------------|
D|-----------------------------------------------------------------|
A|-----------------------------------------------------------------|
D|-5-------5-5-5-5-5---------------1---------------3---------------|
   1 + 2 + 3 + 4 + 1 + 2 + 3 + 4 + 1 + 2 + 3 + 4 + 1 + 2 + 3 + 4 +

Slowing down
G|---------------------------------|
D|---------------------------------|
A|---------------------------------|
D|-3-3-3-3-3-3-3-3-3---------------|
   1 + 2 + 3 + 4 + 1 + 2 + 3 + 4 +

Rest

Main Riff 0:33
G|----------------------------------------------------------------------|
D|o-------------------------------------------------------------5-------|
A|o-------------8-8-6h8p6-5---5-------------------8-8-6h8p6-5-----5-----|
D|--0-------------------------------x-0---------------------------------|
    1 e + a 2 e + a 3  e  + a 4 e + a 1 e + a 2 e + a 3  e  + a 4 e + a

G|--------------------------------------------------------------------|
D|-------------------------------------------------------------------o|
A|-------------8-8-6h8p6-5---5-------3-----5-----6-------------------o|
D|-0-------------------------------------0-----0-----1---1---1-3-3----|
   1 e + a 2 e + a 3  e  + a 4 e + a 1 e + a 2 e + a 3 e + a 4 e + a

G|---------------------------------|
D|---------------------------------|
A|---------------------------------|
D|-1-------------------------------|
   1 + 2 + 3 + 4 + 1 + 2 + 3 + 4 +

Verse 0:57
G|-------------------------------------------------------------------|
D|-------------------------------------------------------------------|
A|---------------------------------------------8-8-6h8p6-5---5-------|
D|-0-------0-0-0-------0-0-0-------0-------0-0-----------------------|
   1 e + a 2 e + a 3 e + a 4 e + a 1 e + a 2 e + a 3  e  + a 4 e + a

G|-------------------------------------------------------------------|
D|-----------------------------------------------------------5-------|
A|---------------------------------------------8-8-6h8p6-5-----5-----|
D|-0-------0-0-0-------0-0-0-------0-------0-0-----------------------|
   1 e + a 2 e + a 3 e + a 4 e + a 1 e + a 2 e + a 3  e  + a 4 e + a

G|-------------------------------------------------------------------|
D|-------------------------------------------------------------------|
A|---------------------------------------------8-8-6h8p6-5---5-------|
D|-0-0-0---0-0-0-------0-0-0-------0-------0-0-----------------------|
   1 e + a 2 e + a 3 e + a 4 e + a 1 e + a 2 e + a 3  e  + a 4 e + a

G|-------------------------------------------------------------------|
D|-----------------------------------------------------------5-------|
A|---------------------------------------------8-8-6h8p6-5-----5-----|
D|-0-------0-0-0-------0-0-0-------0-------0-0-----------------------|
   1 e + a 2 e + a 3 e + a 4 e + a 1 e + a 2 e + a 3  e  + a 4 e + a

Chorus 1:18
G|-----------------------------------------------------------------|
D|-----------------------------------------------------------------|
A|-----------------------------------------------------------------|
D|-1-------1-1-1-1---------1-1-----5-------5-5-5-5---------5-5-----|
   1 e + a 2 e + a 3 e + a 4 e + a 1 e + a 2 e + a 3 e + a 4 e + a

G|-----------------------------------------------------------------|
D|-----------------------------------------------------------------|
A|-------------------------------------------------0-------1-------|
D|-0-------0-0-0-0---------0-0-----5-------------------------------|
   1 e + a 2 e + a 3 e + a 4 e + a 1 e + a 2 e + a 3 e + a 4 e + a

G|-----------------------------------------------------------------|
D|-----------------------------------------------------------------|
A|-----------------------------------------------------------------|
D|-1-------1-1-1-1---------1-1-----5-------5-5-5-5---------5-5-----|
   1 e + a 2 e + a 3 e + a 4 e + a 1 e + a 2 e + a 3 e + a 4 e + a

G|-----------------------------------------------------------------|
D|-----------------------------------------------------------------|
A|-----------------------------------------------------------------|
D|-0-------0-0-0-0---------0-0-----1---------------3-------1-------|
   1 e + a 2 e + a 3 e + a 4 e + a 1 e + a 2 e + a 3 e + a 4 e + a

G|-----------------------------------------------------------------|
D|-----------------------------------------------------------------|
A|-------------------------0---1-0-----------------3-------1---0---|
D|-5-------------------------------1-------------------------------|
   1 + 2 + 3 + 4 + 1 + 2 + 3 + 4 + 1 + 2 + 3 + 4 + 1 + 2 + 3 + 4 +

Interlude 1:50
G|----------------------------------------------------------------------|
D|o-------------------------------------------------------------5-------|
A|o-------------8-8-6h8p6-5---5-------------------8-8-6h8p6-5-----5-----|
D|--0-------------------------------x-0---------------------------------|
    1 e + a 2 e + a 3  e  + a 4 e + a 1 e + a 2 e + a 3  e  + a 4 e + a

G|--------------------------------------------------------------------|
D|-------------------------------------------------------------------o|
A|-------------8-8-6h8p6-5---5-------3-----5-----6-------------------o|
D|-0-------------------------------------0-----0-----1---1---1-3-3----|
   1 e + a 2 e + a 3  e  + a 4 e + a 1 e + a 2 e + a 3 e + a 4 e + a

G|---------------------------------|
D|---------------------------------|
A|---------------------------------|
D|-1-------------------------------|
   1 + 2 + 3 + 4 + 1 + 2 + 3 + 4 +

Verse 2:14
G|-------------------------------------------------------------------|
D|-------------------------------------------------------------------|
A|---------------------------------------------8-8-6h8p6-5---5-------|
D|-0-------0-0-0-------0-0-0-------0-------0-0-----------------------|
   1 e + a 2 e + a 3 e + a 4 e + a 1 e + a 2 e + a 3  e  + a 4 e + a

G|-------------------------------------------------------------------|
D|-----------------------------------------------------------5-------|
A|---------------------------------------------8-8-6h8p6-5-----5-----|
D|-0-------0-0-0-------0-0-0-------0-------0-0-----------------------|
   1 e + a 2 e + a 3 e + a 4 e + a 1 e + a 2 e + a 3  e  + a 4 e + a

G|-------------------------------------------------------------------|
D|-------------------------------------------------------------------|
A|---------------------------------------------8-8-6h8p6-5---5-------|
D|-0-0-0---0-0-0-------0-0-0-------0-------0-0-----------------------|
   1 e + a 2 e + a 3 e + a 4 e + a 1 e + a 2 e + a 3  e  + a 4 e + a

G|-------------------------------------------------------------------|
D|-----------------------------------------------------------5-------|
A|---------------------------------------------8-8-6h8p6-5-----5-----|
D|-0-------0-0-0-------0-0-0-------0-------0-0-----------------------|
   1 e + a 2 e + a 3 e + a 4 e + a 1 e + a 2 e + a 3  e  + a 4 e + a

Chorus 2:35
G|-----------------------------------------------------------------|
D|-----------------------------------------------------------------|
A|-----------------------------------------------------------------|
D|-1-------1-1-1-1---------1-1-----5-------5-5-5-5---------5-5-----|
   1 e + a 2 e + a 3 e + a 4 e + a 1 e + a 2 e + a 3 e + a 4 e + a

G|-----------------------------------------------------------------|
D|-----------------------------------------------------------------|
A|-------------------------------------------------0-------1-------|
D|-0-------0-0-0-0---------0-0-----5-------------------------------|
   1 e + a 2 e + a 3 e + a 4 e + a 1 e + a 2 e + a 3 e + a 4 e + a

G|-----------------------------------------------------------------|
D|-----------------------------------------------------------------|
A|-----------------------------------------------------------------|
D|-1-------1-1-1-1---------1-1-----5-------5-5-5-5---------5-5-----|
   1 e + a 2 e + a 3 e + a 4 e + a 1 e + a 2 e + a 3 e + a 4 e + a

G|-----------------------------------------------------------------|
D|-----------------------------------------------------------------|
A|-----------------------------------------------------------------|
D|-0-------0-0-0-0---------0-0-----1---------------3-------1-------|
   1 e + a 2 e + a 3 e + a 4 e + a 1 e + a 2 e + a 3 e + a 4 e + a

G|-----------------------------------------------------------------|
D|-----------------------------------------------------------------|
A|-------------------------0---1-0-----------------3-------1---0---|
D|-5---5---5---5---5---------------1---1---1---1-------------------|
   1 + 2 + 3 + 4 + 1 + 2 + 3 + 4 + 1 + 2 + 3 + 4 + 1 + 2 + 3 + 4 +

G|-----------------------------------------------------------------|
D|-----------------------------------------------------------------|
A|-------------------------0-0-1-0-----------------3-------1---0---|
D|-5---5---5---5---5---5-----------1---1---1---1-1-----------------|
   1 + 2 + 3 + 4 + 1 + 2 + 3 + 4 + 1 + 2 + 3 + 4 + 1 + 2 + 3 + 4 +

Solo 3:18
G|-----------------------------------------------------------------|
D|-----------------------------------------------------------------|
A|-----------------------------------------------------------------|
D|-0-----------0-0---0-0---3-------0-----------0-0---0-0---1-------|
   1 e + a 2 e + a 3 e + a 4 e + a 1 e + a 2 e + a 3 e + a 4 e + a

G|-----------------------------------------------------------------|
D|-----------------------------------------------------------------|
A|---------------------------------3-----5-----6-------------------|
D|-0-----------0-0---0-0---3-----------0-----0-----1---1---1-3-3-3-|
   1 e + a 2 e + a 3 e + a 4 e + a 1 e + a 2 e + a 3 e + a 4 e + a

G|-----------------------------------------------------------------|
D|-----------------------------------------------------------------|
A|-----------------------------------------------------------------|
D|-0-----------0-0---0-0---3-3-3-3-0-----------0-0---0-0---1-1-1-1-|
   1 e + a 2 e + a 3 e + a 4 e + a 1 e + a 2 e + a 3 e + a 4 e + a

G|-----------------------------------------------------------------|
D|-----------------------------------------------------------------|
A|---------------------------------3-----5-----6-------------------|
D|-0-0-0-------0-0---0-0---3-----------0-----0-----1---1---1-3-3-3-|
   1 e + a 2 e + a 3 e + a 4 e + a 1 e + a 2 e + a 3 e + a 4 e + a

3:39
G|-----------------------------------------------------------------|
D|-----------------------------------------------------------------|
A|-----------------------------------------------------------------|
D|-1-------1-1-1-1---------1-1-----5-------5-5-5-5---------5-5-----|
   1 e + a 2 e + a 3 e + a 4 e + a 1 e + a 2 e + a 3 e + a 4 e + a

G|-----------------------------------------------------------------|
D|-----------------------------------------------------------------|
A|-------------------------------------------------0-------1-------|
D|-0-------0-0-0-0---------0-0-----5-------------------------------|
   1 e + a 2 e + a 3 e + a 4 e + a 1 e + a 2 e + a 3 e + a 4 e + a

G|-----------------------------------------------------------------|
D|-----------------------------------------------------------------|
A|-----------------------------------------------------------------|
D|-1-------1-1-1-1---------1-1-----5-------5-5-5-5---------5-5-----|
   1 e + a 2 e + a 3 e + a 4 e + a 1 e + a 2 e + a 3 e + a 4 e + a

G|-----------------------------------------------------------------|
D|-----------------------------------------------------------------|
A|-----------------------------------------------------------------|
D|-0-------0-0-0-0---------0-0-----1---------------3-------1-------|
   1 e + a 2 e + a 3 e + a 4 e + a 1 e + a 2 e + a 3 e + a 4 e + a

Bridge 4:01
G|-----------------------------------------------------------------|
D|-----------------------------------------------------------------|
A|-------------------------------------------------3-----------1-0-|
D|-5-------5-5-5-5-5---------------1-------------------------------|
   1 + 2 + 3 + 4 + 1 + 2 + 3 + 4 + 1 + 2 + 3 + 4 + 1 + 2 + 3 + 4 +

G|-----------------------------------------------------------------|
D|-----------------------------------------------------------------|
A|-----------------------------------------------------------------|
D|-5-------5-5-5-5-5-----------5-\-1---------------3---------------|
   1 + 2 + 3 + 4 + 1 + 2 + 3 + 4 + 1 + 2 + 3 + 4 + 1 + 2 + 3 + 4 +

G|---------------------------------|
D|---------------------------------|
A|---------------------------------|
D|-3-3-3-3-3-3-3-3-3-3-3-3-3-3-3-3-|
   1 + 2 + 3 + 4 + 1 + 2 + 3 + 4 +

Verse 4:27
G|-------------------------------------------------------------------|
D|-------------------------------------------------------------------|
A|---------------------------------------------8-8-6h8p6-5---5-------|
D|-0-------0-0-0-------0-0-0-------0-------0-0-----------------------|
   1 e + a 2 e + a 3 e + a 4 e + a 1 e + a 2 e + a 3  e  + a 4 e + a

G|-------------------------------------------------------------------|
D|-----------------------------------------------------------5-------|
A|---------------------------------------------8-8-6h8p6-5-----5-----|
D|-0-------0-0-0-------0-0-0-------0-------0-0-----------------------|
   1 e + a 2 e + a 3 e + a 4 e + a 1 e + a 2 e + a 3  e  + a 4 e + a

G|-------------------------------------------------------------------|
D|-------------------------------------------------------------------|
A|---------------------------------------------8-8-6h8p6-5---5-------|
D|-0---0-------0-0---0-0-------0-0-0-------0-0-----------------------|
   1 e + a 2 e + a 3 e + a 4 e + a 1 e + a 2 e + a 3  e  + a 4 e + a

G|-------------------------------------------------------------------|
D|-----------------------------------------------------------5-------|
A|---------------------------------------------8-8-6h8p6-5-----5-----|
D|-0-------0-0-0-------0-0-0-------0-------0-0-----------------------|
   1 e + a 2 e + a 3 e + a 4 e + a 1 e + a 2 e + a 3  e  + a 4 e + a

Chorus 4:48
G|-----------------------------------------------------------------|
D|-----------------------------------------------------------------|
A|-----------------------------------------------------------------|
D|-1-------1-1-1-1---------1-1-----5-------5-5-5-5---------5-5-----|
   1 e + a 2 e + a 3 e + a 4 e + a 1 e + a 2 e + a 3 e + a 4 e + a

G|-----------------------------------------------------------------|
D|-----------------------------------------------------------------|
A|-------------------------------------------------0-------1-------|
D|-0-------0-0-0-0---------0-0-----5-------------------------------|
   1 e + a 2 e + a 3 e + a 4 e + a 1 e + a 2 e + a 3 e + a 4 e + a

G|-----------------------------------------------------------------|
D|-----------------------------------------------------------------|
A|-----------------------------------------------------------------|
D|-1-------1-1-1-1---------1-1-----5-------5-5-5-5---------5-5-----|
   1 e + a 2 e + a 3 e + a 4 e + a 1 e + a 2 e + a 3 e + a 4 e + a

G|-----------------------------------------------------------------|
D|-----------------------------------------------------------------|
A|-----------------------------------------------------------------|
D|-0-------0-0-0-0---------0-0-----1---------------3-------1-------|
   1 e + a 2 e + a 3 e + a 4 e + a 1 e + a 2 e + a 3 e + a 4 e + a

G|-----------------------------------------------------------------|
D|-----------------------------------------------------------------|
A|-------------------------------------------------3---3---1---0---|
D|-5---5---5---5---5---5---7---8-\-1---1---1---1-1-----------------|
   1 + 2 + 3 + 4 + 1 + 2 + 3 + 4 + 1 + 2 + 3 + 4 + 1 + 2 + 3 + 4 +

G|-----------------------------------------------------------------|
D|-----------------------------------------------------------------|
A|-------------------------0---1-0-----------------3-------1---0---|
D|-5---5---5---5---5---5-----------1---1---1---1-1-----------------|
   1 + 2 + 3 + 4 + 1 + 2 + 3 + 4 + 1 + 2 + 3 + 4 + 1 + 2 + 3 + 4 +

Outro 5:32
G|----------------------------------------------------------------------|
D|o-------------------------------------------------------------5-------|
A|o-------------8-8-6h8p6-5---5-------------------8-8-6h8p6-5-----5-----|
D|--0-------------------------------x-0---------------------------------|
    1 e + a 2 e + a 3  e  + a 4 e + a 1 e + a 2 e + a 3  e  + a 4 e + a

G|--------------------------------------------------------------------|
D|-------------------------------------------------------------------o|
A|-------------8-8-6h8p6-5---5-------3-----5-----6-------------------o|
D|-0-------------------------------------0-----0-----1---1---1-3-3----|
   1 e + a 2 e + a 3  e  + a 4 e + a 1 e + a 2 e + a 3 e + a 4 e + a

G|-----------------------------------------------------------------|
D|-----------------------------------------------------------------|
A|-----------------------------------------------------------------|
D|-1-----------------------3---1---0-------------------------------|
   1 + 2 + 3 + 4 + 1 + 2 + 3 + 4 + 1 + 2 + 3 + 4 + 1 + 2 + 3 + 4 +
Tabbed by Dave Vucko

===========================================================

Requiem

0:10
F#|--------------------------------------------------|
C#|o-------------------------------------5-5-5-5-5-5-|
G#|o-------8-5-7-8-----------8-5-7-8-----------------|
C#|--0-----------------0-----------------------------|
     1 2 3 1 2 3 1 2 3 1 2 3 1 2 3 1 2 3 1 2 3 1 2 3 

F#|--------------------------------------------------|
C#|-------------------------------------8-8-8-8-8-8-o|
G#|-------8-5-7-8-----------8-5-7-8-----------------o|
C#|-0-----------------0------------------------------|
    1 2 3 1 2 3 1 2 3 1 2 3 1 2 3 1 2 3 1 2 3 1 2 3 

0:25 Verse
F#|--------------------------------------------------|
C#|o-------------------------------------------------|
G#|o-------------------------------------------1-1-1-|
C#|--0---0-0-0-0-0---0-0-0-0-0-----0-0-0-0---0-------|
     1 2 3 1 2 3 1 2 3 1 2 3 1 2 3 1 2 3 1 2 3 1 2 3 

F#|------------------------------------------------------------------|
C#|-----------------------------------------------------------------o|
G#|-----------------------------------------------------------------o|
C#|-0---0-0-0-0-0---0-0-0-0-0-----0-0-0-0---0-0-0-0-6-------3-3-3-3--|
    1 2 3 1 2 3 1 2 3 1 2 3 1 2 3 1 2 3 1 2 3 1 2 3 1 2 3 4 1 2 3 4

0:48 Pre Chours
F#|-----------------------------------------------------------------|
C#|-----------------------------------------------------------------|
G#|-----------------------------------------------------------------|
C#|-7-----6-5-----6-7-----5-8-----7-7-0-0---0-----2-2-3-0---0-------|
    1 + 2 + 3 + 4 + 1 + 2 + 3 + 4 + 1 + 2 + 3 + 4 + 1 + 2 + 3 + 4 +

F#|---------------------------------|
C#|---------------------------------|
G#|---------------------------------|
C#|-7-----6-5-----6-7-----5-8---7-6-|
    1 + 2 + 3 + 4 + 1 + 2 + 3 + 4 + 

Chorus 0:58
F#|-------------------------------------------------|
C#|-------------------------------------5-5-5-5-5-5-|
G#|-------8-5-7-8-----------8-5-7-8-----------------|
C#|-0-----------------0-----------------------------|
    1 2 3 1 2 3 1 2 3 1 2 3 1 2 3 1 2 3 1 2 3 1 2 3 

F#|-------------------------------------------------|
C#|-------------------------------------8-8-8-8-8-8-|
G#|-------8-5-7-8-----------8-5-7-8-----------------|
C#|-0-----------------0-----------------------------|
    1 2 3 1 2 3 1 2 3 1 2 3 1 2 3 1 2 3 1 2 3 1 2 3 

F#|-------------------------------------------------|
C#|-------------------------------------5-5-5-5-5-5-|
G#|-------8-5-7-8-----------8-5-7-8-----------------|
C#|-0-----------------0-----------------------------|
    1 2 3 1 2 3 1 2 3 1 2 3 1 2 3 1 2 3 1 2 3 1 2 3 

F#|-------------------------------------------------|
C#|-------------------------------------------------|
G#|-------------------------------------------------|
C#|-0-----------------------------------------------|
    1 2 3 1 2 3 1 2 3 1 2 3 1 2 3 1 2 3 1 2 3 1 2 3 

1:11 Verse
F#|--------------------------------------------------|
C#|o-------------------------------------------------|
G#|o-------------------------------------------1-1-1-|
C#|--0---0-0-0-0-0---0-0-0-0-0-----0-0-0-0---0-------|
     1 2 3 1 2 3 1 2 3 1 2 3 1 2 3 1 2 3 1 2 3 1 2 3 

F#|------------------------------------------------------------------|
C#|-----------------------------------------------------------------o|
G#|-----------------------------------------------------------------o|
C#|-0---0-0-0-0-0---0-0-0-0-0-----0-0-0-0---0-0-0-0-6-------3-3-3-3--|
    1 2 3 1 2 3 1 2 3 1 2 3 1 2 3 1 2 3 1 2 3 1 2 3 1 2 3 4 1 2 3 4

Pre Chorus 1:35
F#|-----------------------------------------------------------------|
C#|-----------------------------------------------------------------|
G#|-----------------------------------------------------------------|
C#|-7-----6-5-----6-7-----5-8-----7-7-0-0---0-----2-2-3-0---0-------|
    1 + 2 + 3 + 4 + 1 + 2 + 3 + 4 + 1 + 2 + 3 + 4 + 1 + 2 + 3 + 4 +

F#|---------------------------------|
C#|---------------------------------|
G#|---------------------------------|
C#|-7-----6-5-----6-7-----5-8---7-6-|
    1 + 2 + 3 + 4 + 1 + 2 + 3 + 4 + 

Chorus 1:45
F#|-------------------------------------------------|
C#|-------------------------------------5-5-5-5-5-5-|
G#|-------8-5-7-8-----------8-5-7-8-----------------|
C#|-0-----------------0-----------------------------|
    1 2 3 1 2 3 1 2 3 1 2 3 1 2 3 1 2 3 1 2 3 1 2 3 

F#|-------------------------------------------------|
C#|-------------------------------------8-8-8-8-8-8-|
G#|-------8-5-7-8-----------8-5-7-8-----------------|
C#|-0-----------------0-----------------------------|
    1 2 3 1 2 3 1 2 3 1 2 3 1 2 3 1 2 3 1 2 3 1 2 3 

F#|-------------------------------------------------|
C#|-------------------------------------5-5-5-5-5-5-|
G#|-------8-5-7-8-----------8-5-7-8-----------------|
C#|-0-----------------0-----------------------------|
    1 2 3 1 2 3 1 2 3 1 2 3 1 2 3 1 2 3 1 2 3 1 2 3 

F#|-------------------------------------------------|
C#|-------------------------------------------------|
G#|-------------------------------------------------|
C#|-0-----------------------------------------------|
    1 2 3 1 2 3 1 2 3 1 2 3 1 2 3 1 2 3 1 2 3 1 2 3 

Solo 1:59
F#|--------------------------------------------------|
C#|o-------------------------------------------------|
G#|o-------------------------------------------1-1-1-|
C#|--0---0-0-0-0-0---0-0-0-0-0-----0-0-0-0---0-------|
     1 2 3 1 2 3 1 2 3 1 2 3 1 2 3 1 2 3 1 2 3 1 2 3 

F#|------------------------------------------------------------------|
C#|-----------------------------------------------------------------o|
G#|-----------------------------------------------------------------o|
C#|-0---0-0-0-0-0---0-0-0-0-0-----0-0-0-0---0-0-0-0-6-------3-3-3-3--|
    1 2 3 1 2 3 1 2 3 1 2 3 1 2 3 1 2 3 1 2 3 1 2 3 1 2 3 4 1 2 3 4

2:22
F#|-----------------------------------------------------------------|
C#|-----------------------------------------------------------------|
G#|-----------------------------------------------------------------|
C#|-7-----6-5-----6-7-----5-8-----7-7-0-0---0-----2-2-3-0---0-------|
    1 + 2 + 3 + 4 + 1 + 2 + 3 + 4 + 1 + 2 + 3 + 4 + 1 + 2 + 3 + 4 +

F#|-----------------------------------------------------------------|
C#|-----------------------------------------------------------------|
G#|-----------------------------------------------------------------|
C#|-7-----6-5-----6-7-----5-8---7-6-6-0-0---------2-2-3-0-----------|
    1 + 2 + 3 + 4 + 1 + 2 + 3 + 4 + 1 + 2 + 3 + 4 + 1 + 2 + 3 + 4 +

2:35 Bridge
F#|------------------------------------------------------------------|
C#|o-----------------------------------------------------------------|
G#|o-----------------------------------------------------------------|
C#|--8---------------8-------7-------6-------------------------------|
     1 + 2 + 3 + 4 + 1 + 2 + 3 + 4 + 1 + 2 + 3 + 4 + 1 + 2 + 3 + 4 +

F#|------------------------------------------------------------------|
C#|-----------------------------------------------------------------o|
G#|-----------------------------------------------------------------o|
C#|-7---------------7---------------0---------------2-------3--------|
    1 + 2 + 3 + 4 + 1 + 2 + 3 + 4 + 1 + 2 + 3 + 4 + 1 + 2 + 3 + 4 +

F#|-----------------------------------------------------------------|
C#|-----------------------------------------------------------------|
G#|-----------------------------------------------------------------|
C#|-5---------------5-------3-------1-------------------------------|
    1 + 2 + 3 + 4 + 1 + 2 + 3 + 4 + 1 + 2 + 3 + 4 + 1 + 2 + 3 + 4 +

F#|-----------------------------------------------------------------|
C#|-----------------------------------------------7-7-7-7-7-7-7-7-7-|
G#|---------------------------------3-3-3-3-7-7-7-------------------|
C#|-7---------------7-----------------------------------------------|
    1 + 2 + 3 + 4 + 1 + 2 + 3 + 4 + 1 + 2 + 3 + 4 + 1 + 2 + 3 + 4 +

3:17
F#|-------------------------------------------------------|
C#|-------------------------------------------5-5-5-5-----|
G#|--------8-8-8-8-----------7-7-7-7----------------------|
C#|-0-----------------0-----------------0-----------------|
    1 2 3 1 2 3 1 2 3 1 2 3 1 2 3 1 2 3 1 2 3 1 2 3 1 2 3 

F#|-------------------------------------------------------|
C#|--------------------------7-7-7-8----------------5-----|
G#|-------8-8-8-8-----------------------------7-7-7-------|
C#|-0-----------------0-----------------0-----------------|
    1 2 3 1 2 3 1 2 3 1 2 3 1 2 3 1 2 3 1 2 3 1 2 3 1 2 3

F#|---------------------------------------------------------------------|
C#|---------------------------------------------------------------------|
G#|-------8-8-8-7-----5-----7-7-7-5-------------------------------------|
C#|-0-----------------------------------6-------------------------------|
    1 2 3 1 2 3 1 2 3 1 2 3 1 2 3 1 2 3 1 + 2 + 3 + 4 + 1 + 2 + 3 + 4 +

3:30 Verse
F#|-------------------------------------------------|
C#|-------------------------------------------------|
G#|-------------------------------------------1-1-1-|
C#|-0---0-0-0-0-0---0-0-0-0-0-----0-0-0-0---0-------|
    1 2 3 1 2 3 1 2 3 1 2 3 1 2 3 1 2 3 1 2 3 1 2 3 

F#|-----------------------------------------------------------------|
C#|-----------------------------------------------------------------|
G#|-----------------------------------------------------------------|
C#|-0---0-0-0-0-0---0-0-0-0-0-----0-0-0-0---0-0-0-0-6-------3-3-3-3-|
    1 2 3 1 2 3 1 2 3 1 2 3 1 2 3 1 2 3 1 2 3 1 2 3 1 2 3 4 1 2 3 4

F#|-------------------------------------------------|
C#|-------------------------------------------------|
G#|-------------------------------------------1-1-1-|
C#|-0---0---0-0-0---0-0-0-0-0-----0-0-0-0---0-------|
    1 2 3 1 2 3 1 2 3 1 2 3 1 2 3 1 2 3 1 2 3 1 2 3 

F#|-----------------------------------------------------------------|
C#|-----------------------------------------------------------------|
G#|-----------------------------------------------------------------|
C#|-0---0---0-0-0---0-0-0-0-0-----0-0-0-0---0-0-0-0-6-------3-3-3-3-|
    1 2 3 1 2 3 1 2 3 1 2 3 1 2 3 1 2 3 1 2 3 1 2 3 1 2 3 4 1 2 3 4

3:53 Pre Chorus 
F#|-----------------------------------------------------------------|
C#|-----------------------------------------------------------------|
G#|-----------------------------------------------------------------|
C#|-7-----6-5-----6-7-----5-8-----7-7-0-0---------2-2-3-0-----------|
    1 + 2 + 3 + 4 + 1 + 2 + 3 + 4 + 1 + 2 + 3 + 4 + 1 + 2 + 3 + 4 +

F#|---------------------------------|
C#|---------------------------------|
G#|---------------------------------|
C#|-7-----6-5-----6-7-----5-8---7-6-|
    1 + 2 + 3 + 4 + 1 + 2 + 3 + 4 + 

Chorus
F#|-------------------------------------------------|
C#|-------------------------------------5-5-5-5-5-5-|
G#|-------8-5-7-8-----------8-5-7-8-----------------|
C#|-0-----------------0-----------------------------|
    1 2 3 1 2 3 1 2 3 1 2 3 1 2 3 1 2 3 1 2 3 1 2 3 

F#|-------------------------------------------------|
C#|-------------------------------------8-8-8-8-8-8-|
G#|-------8-5-7-8-----------8-5-7-8-----------------|
C#|-0-----------------0-----------------------------|
    1 2 3 1 2 3 1 2 3 1 2 3 1 2 3 1 2 3 1 2 3 1 2 3 

F#|-------------------------------------------------|
C#|-------------------------------------5-5-5-5-5-5-|
G#|-------8-5-7-8-----------8-5-7-8-----------------|
C#|-0-----------------0-----------------------------|
    1 2 3 1 2 3 1 2 3 1 2 3 1 2 3 1 2 3 1 2 3 1 2 3 

F#|-------------------------------------------------|
C#|-------------------------------------------------|
G#|-------------------------------------------------|
C#|-0-----------------------------------------------|
    1 2 3 1 2 3 1 2 3 1 2 3 1 2 3 1 2 3 1 2 3 1 2 3 
Tabbed by Dave Vucko	

==========================================================

Crimson Day

Chorus 0:56
G|---------------------------------|
D|---------------------------------|
A|-------------------------0---2---|
D|-2-------4-------5---------------|
   1 + 2 + 3 + 4 + 1 + 2 + 3 + 4 +

G|-----------------------------------------------------------------|
D|-----------------------------------------------------------------|
A|-3-------------3-3---3---3---3-2---------------------------------|
D|---------------------------------5---------------5---5---5---5-5-|
   1 + 2 + 3 + 4 + 1 + 2 + 3 + 4 + 1 + 2 + 3 + 4 + 1 + 2 + 3 + 4 +

G|-----------------------------------------------------------------|
D|-----------------------------------------------------------------|
A|-3---------------3---3---3---3-2-------------------------------3-|
D|---------------------------------5---------------5---5---5---5---|
   1 + 2 + 3 + 4 + 1 + 2 + 3 + 4 + 1 + 2 + 3 + 4 + 1 + 2 + 3 + 4 +

1:14
G|-----------------------------------------------------------------|
D|-----------------------------------------------------------------|
A|-5---------------5---5-----------7---------------5---------------|
D|-----------------------------------------------------------------|
   1 + 2 + 3 + 4 + 1 + 2 + 3 + 4 + 1 + 2 + 3 + 4 + 1 + 2 + 3 + 4 +

G|-----------------------------------------------------------------|
D|-----------------------------------------------------------------|
A|-3---------------2---------------0-------------------------------|
D|-------------------------------------------------5---------------|
   1 + 2 + 3 + 4 + 1 + 2 + 3 + 4 + 1 + 2 + 3 + 4 + 1 + 2 + 3 + 4 +

G|-----------------------------------------------------------------|
D|-----------------------------------------------------------------|
A|-5---------------3---------------2---------------0---------------|
D|-----------------------------------------------------------------|
   1 + 2 + 3 + 4 + 1 + 2 + 3 + 4 + 1 + 2 + 3 + 4 + 1 + 2 + 3 + 4 +

G|---------------------------------|
D|---------------------------------|
A|---------------------------------|
D|-5-----------------------4-------|
   1 + 2 + 3 + 4 + 1 + 2 + 3 + 4 +

1:39 Verse
G|-----------------------------------------------------------------|
D|-----------------------------------------------------------------|
A|---------------/-5-------------------------------3---------------|
D|-2-----------2-------------------5-----------5-------------------|
   1 + 2 + 3 + 4 + 1 + 2 + 3 + 4 + 1 + 2 + 3 + 4 + 1 + 2 + 3 + 4 +

G|-----------------------------------------------------------------|
D|-----------------------------------------------------------------|
A|-0---------------5-----------------------------------------------|
D|---------------------------------5---------------5-------4-------|
   1 + 2 + 3 + 4 + 1 + 2 + 3 + 4 + 1 + 2 + 3 + 4 + 1 + 2 + 3 + 4 +

G|-----------------------------------------------------------------|
D|-----------------------------------------------------------------|
A|---------------/-5-------------------------------3---------------|
D|-2-----------2-------------------5-----------5-------------------|
   1 + 2 + 3 + 4 + 1 + 2 + 3 + 4 + 1 + 2 + 3 + 4 + 1 + 2 + 3 + 4 +

G|-----------------------------------------------------------------|
D|-----------------------------------------------------------------|
A|-0-----------0---------------------------------------------------|
D|-----------------0---------------2-------------------------------|
   1 + 2 + 3 + 4 + 1 + 2 + 3 + 4 + 1 + 2 + 3 + 4 + 1 + 2 + 3 + 4 +

Pre Chorus 2:07
G|-----------------------------------------------------------------|
D|-----------------------------------------------------------------|
A|-0---------------0---0-------0-/-7---------------7---7-----------|
D|-----------------------------------------------------------------|
   1 + 2 + 3 + 4 + 1 + 2 + 3 + 4 + 1 + 2 + 3 + 4 + 1 + 2 + 3 + 4 +

G|-----------------------------------------------------------------|
D|-----------------------------------------------------------------|
A|-5---------------5---5-------5-\-3---------------3-------3-------|
D|-----------------------------------------------------------------|
   1 + 2 + 3 + 4 + 1 + 2 + 3 + 4 + 1 + 2 + 3 + 4 + 1 + 2 + 3 + 4 +

Chorus 2:21
G|---------------------------------|
D|---------------------------------|
A|-------------------------0---2---|
D|-2-------4-------5---------------|
   1 + 2 + 3 + 4 + 1 + 2 + 3 + 4 +

G|-----------------------------------------------------------------|
D|-----------------------------------------------------------------|
A|-3---------------3---3---3---3-2---------------------------------|
D|---------------------------------5---------------5---5---5---5-5-|
   1 + 2 + 3 + 4 + 1 + 2 + 3 + 4 + 1 + 2 + 3 + 4 + 1 + 2 + 3 + 4 +

G|-----------------------------------------------------------------|
D|-----------------------------------------------------------------|
A|-3---------------3---3---3---3-2-------------------------------3-|
D|---------------------------------5---------------5---5---5---5---|
   1 + 2 + 3 + 4 + 1 + 2 + 3 + 4 + 1 + 2 + 3 + 4 + 1 + 2 + 3 + 4 +

2:40
G|-----------------------------------------------------------------|
D|-----------------------------------------------------------------|
A|-5---------------5---5-------5-/-7---------------5---------------|
D|-----------------------------------------------------------------|
   1 + 2 + 3 + 4 + 1 + 2 + 3 + 4 + 1 + 2 + 3 + 4 + 1 + 2 + 3 + 4 +

G|-----------------------------------------------------------------|
D|-----------------------------------------------------------------|
A|-3---------------2---------------0-------------------------------|
D|-------------------------------------------------5---------------|
   1 + 2 + 3 + 4 + 1 + 2 + 3 + 4 + 1 + 2 + 3 + 4 + 1 + 2 + 3 + 4 +

G|-----------------------------------------------------------------|
D|-----------------------------------------------------------------|
A|-5---------------3---------------2---------------0---------------|
D|-----------------------------------------------------------------|
   1 + 2 + 3 + 4 + 1 + 2 + 3 + 4 + 1 + 2 + 3 + 4 + 1 + 2 + 3 + 4 +

Solo 3:00
G|-----------------------------------------------------------------|
D|-----------------------------------------------------------------|
A|-3---------------5-----------------------------------------------|
D|---------------------------------2---------------2---2---2---2---|
   1 + 2 + 3 + 4 + 1 + 2 + 3 + 4 + 1 + 2 + 3 + 4 + 1 + 2 + 3 + 4 +

G|-----------------------------------------------------------------|
D|-----------------------------------------------------------------|
A|-3---------------5-----------5---7---------------5h7-7-7-7-7-7-5-|
D|-----------------------------------------------------------------|
   1 + 2 + 3 + 4 + 1 + 2 + 3 + 4 + 1 + 2 + 3 + 4 + 1 + 2 + 3 + 4 +

G|-----------------------------------------------------------------|
D|-----------------------------------------------------------------|
A|-3---------------5-----------5---7-------5-------3-------2-------|
D|-----------------------------------------------------------------|
   1 + 2 + 3 + 4 + 1 + 2 + 3 + 4 + 1 + 2 + 3 + 4 + 1 + 2 + 3 + 4 +

G|-----------------------------------------------------------------|
D|-----------------------------------------------------------------|
A|-0---------------------------------------------------------------|
D|-----------------0---------------2---------------2-2-2-2-2-2-2-2-|
   1 + 2 + 3 + 4 + 1 + 2 + 3 + 4 + 1 + 2 + 3 + 4 + 1 + 2 + 3 + 4 +

Verse 3:29
G|-------------------------------------------------9---11-12-11--------|
D|-----------------------------------------------9---9----------12-9---|
A|-0---------------0-----------0-/-7-----------------------------------|
D|---------------------------------------------------------------------|
   1 + 2 + 3 + 4 + 1 + 2 + 3 + 4 + 1 + 2 + 3 + 4 + 1 + 2  +  3  +  4 +

G|-----------------------------------------------------------------|
D|-----------------------/-9---7-----------------------------------|
A|-5---------------5---5-----------3---------------3-------2-------|
D|-----------------------------------------------------------------|
   1 + 2 + 3 + 4 + 1 + 2 + 3 + 4 + 1 + 2 + 3 + 4 + 1 + 2 + 3 + 4 +

G|-------------------------------------------------9---------------|
D|-----------------------------------------------9---9-------------|
A|-0---------------0-----------0-/-7-------------------7---7-9-7---|
D|-----------------------------------------------------------------|
   1 + 2 + 3 + 4 + 1 + 2 + 3 + 4 + 1 + 2 + 3 + 4 + 1 + 2 + 3 + 4 +

G|-----------------------------------------------------------------|
D|-----------------------------------------------------------------|
A|-5---------------5---5---5h7-5---3---------------2---------------|
D|-----------------------------------------------------------------|
   1 + 2 + 3 + 4 + 1 + 2 + 3 + 4 + 1 + 2 + 3 + 4 + 1 + 2 + 3 + 4 +

G|-----------------------------------------------------------------|
D|-----------------------------------------------------------------|
A|-0-------------------------------5---------------3---------------|
D|-----------------5-----------------------------------------------|
   1 + 2 + 3 + 4 + 1 + 2 + 3 + 4 + 1 + 2 + 3 + 4 + 1 + 2 + 3 + 4 +

G|---------------------------------|
D|---------------------------------|
A|-2---------------0---------------|
D|---------------------------------|
   1 + 2 + 3 + 4 + 1 + 2 + 3 + 4 +

Chorus 4:08
G|-----------------------------------------------------------------|
D|-----------------------------------------------------------------|
A|-3---------------3---3---3---3-2---------------------------------|
D|---------------------------------5---------------5---5---5---5-5-|
   1 + 2 + 3 + 4 + 1 + 2 + 3 + 4 + 1 + 2 + 3 + 4 + 1 + 2 + 3 + 4 +

G|-----------------------------------------------------------------|
D|-----------------------------2---5-------------------------------|
A|-3---------------3p2-3---3h5-----------------------------------3-|
D|-----------------------------------------5-------5---5---5p4-5---|
   1 + 2 + 3 + 4 + 1 + 2 + 3 + 4 + 1 + 2 + 3 + 4 + 1 + 2 + 3 + 4 +

4:22 
G|-----------------------------------------------------------------|
D|-----------------------------------------------------------------|
A|-5---------------5---5-------5-/-7---------------5---------------|
D|-----------------------------------------------------------------|
   1 + 2 + 3 + 4 + 1 + 2 + 3 + 4 + 1 + 2 + 3 + 4 + 1 + 2 + 3 + 4 +

G|-----------------------------------------------------------------|
D|-----------------------------------------------------------------|
A|-3---------------2---------------0-------------------------------|
D|-------------------------------------------------5---------------|
   1 + 2 + 3 + 4 + 1 + 2 + 3 + 4 + 1 + 2 + 3 + 4 + 1 + 2 + 3 + 4 +

G|-----------------------------------------------------------------|
D|-----------------------------------------------------------------|
A|-5---------------3---------------2---------------0---------------|
D|-----------------------------------------------------------------|
   1 + 2 + 3 + 4 + 1 + 2 + 3 + 4 + 1 + 2 + 3 + 4 + 1 + 2 + 3 + 4 +

4:44
G|-----------------------------------------------------------------|
D|-----------------------------------------------------------------|
A|-3---------------------------------------------------------------|
D|---------------------------------5-------------------------------|
   1 + 2 + 3 + 4 + 1 + 2 + 3 + 4 + 1 + 2 + 3 + 4 + 1 + 2 + 3 + 4 +
Tabbed by Dave Vucko

==========================================================

Heretic

Verse 0:12
G|-------------------------------------------------------------------|
D|o-----------------------------------------------------------------o|
A|o-----------------------------------------------------------------o|x4
D|--0-0-0-0-0-0-0-0-0-0-0-0-0-0-0-0-0-0-0-0-0-0-0-0-0-0-0-0-0-0-0-0--|
    1 + 2 + 3 + 4 + 1 + 2 + 3 + 4 + 1 + 2 + 3 + 4 + 1 + 2 + 3 + 4 +

Pre Chorus 0:41
G|-----------------------------------------------------------------|
D|-----------------------------------------------------------------|
A|-5-5-5-5-5-5-5-5-1-1-1-1-1-1-1-1-2-2-2-2-2-2-2-2-3-3-3-3-4-4-4-4-|
D|-----------------------------------------------------------------|
   1 + 2 + 3 + 4 + 1 + 2 + 3 + 4 + 1 + 2 + 3 + 4 + 1 + 2 + 3 + 4 +

G|-----------------------------------------------------------------|
D|-----------------------------------------------------------------|
A|-5-5-5-5-5-5-5-5-1-1-1-1-1-1-1-1-2-2-2-2-2-2-2-2-3---------------|
D|-----------------------------------------------------------------|
   1 + 2 + 3 + 4 + 1 + 2 + 3 + 4 + 1 + 2 + 3 + 4 + 1 + 2 + 3 + 4 +

Chorus 0:55
G|-----------------------------------------------------------------|
D|-----------------------------5-7---------------------------3-2-3-|
A|-5-5-5-5-5-5-5-5-5-5-5-5-5-7-----3-3-3-3-3-3-3-3-3-3-3-3-3-------|
D|-----------------------------------------------------------------|
   1 + 2 + 3 + 4 + 1 + 2 + 3 + 4 + 1 + 2 + 3 + 4 + 1 + 2 + 3 + 4 +

G|-----------------------------------------------------------------|
D|---------------------------3-2---------------------------2-3-----|
A|-2-2-2-2-2-2-2-2-2-2-2-2-2-----2-1-1-1-1-1-1-1-1-0-0-0-0-----4---|
D|-----------------------------------------------------------------|
   1 + 2 + 3 + 4 + 1 + 2 + 3 + 4 + 1 + 2 + 3 + 4 + 1 + 2 + 3 + 4 +

G|-----------------------------------------------------------------|
D|-----------------------------5-7---------------------------3-2-3-|
A|-5-5-5-5-5-5-5-5-5-5-5-5-5-7-----3-3-3-3-3-3-3-3-3-3-3-3-3-------|
D|-----------------------------------------------------------------|
   1 + 2 + 3 + 4 + 1 + 2 + 3 + 4 + 1 + 2 + 3 + 4 + 1 + 2 + 3 + 4 +

G|-----------------------------------------------------------------|
D|---------------------------3-2---------------------------2-3-----|
A|-2-2-2-2-2-2-2-2-2-2-2-2-2-----2-1-1-1-1-1-1-1-1-0-0-0-0-----4-4-|
D|-----------------------------------------------------------------|
   1 + 2 + 3 + 4 + 1 + 2 + 3 + 4 + 1 + 2 + 3 + 4 + 1 + 2 + 3 + 4 +

Verse 1:23
G|-------------------------------------------------------------------|
D|o-----------------------------------------------------------------o|
A|o-----------------------------------------------------------------o|x4
D|--0-0-0-0-0-0-0-0-0-0-0-0-0-0-0-0-0-0-0-0-0-0-0-0-0-0-0-0-0-0-0-0--|
    1 + 2 + 3 + 4 + 1 + 2 + 3 + 4 + 1 + 2 + 3 + 4 + 1 + 2 + 3 + 4 +

Pre Chorus 1:51
G|-----------------------------------------------------------------|
D|-----------------------------------------------------------------|
A|-5-5-5-5-5-5-5-5-1-1-1-1-1-1-1-1-2-2-2-2-2-2-2-2-3-3-3-3-4-4-4-4-|
D|-----------------------------------------------------------------|
   1 + 2 + 3 + 4 + 1 + 2 + 3 + 4 + 1 + 2 + 3 + 4 + 1 + 2 + 3 + 4 +

G|-----------------------------------------------------------------|
D|-----------------------------------------------------------------|
A|-5-5-5-5-5-5-5-5-1-1-1-1-1-1-1-1-2-2-2-2-2-2-2-2-3---------------|
D|-----------------------------------------------------------------|
   1 + 2 + 3 + 4 + 1 + 2 + 3 + 4 + 1 + 2 + 3 + 4 + 1 + 2 + 3 + 4 +

Chorus 2:05
G|-----------------------------------------------------------------|
D|-----------------------------5-7---------------------------3-2-3-|
A|-5-5-5-5-5-5-5-5-5-5-5-5-5-7-----3-3-3-3-3-3-3-3-3-3-3-3-3-------|
D|-----------------------------------------------------------------|
   1 + 2 + 3 + 4 + 1 + 2 + 3 + 4 + 1 + 2 + 3 + 4 + 1 + 2 + 3 + 4 +

G|-----------------------------------------------------------------|
D|---------------------------3-2---------------------------2-3-----|
A|-2-2-2-2-2-2-2-2-2-2-2-2-2-----2-1-1-1-1-1-1-1-1-0-0-0-0-----4---|
D|-----------------------------------------------------------------|
   1 + 2 + 3 + 4 + 1 + 2 + 3 + 4 + 1 + 2 + 3 + 4 + 1 + 2 + 3 + 4 +

G|-----------------------------------------------------------------|
D|-----------------------------5-7---------------------------3-2-3-|
A|-5-5-5-5-5-5-5-5-5-5-5-5-5-7-----3-3-3-3-3-3-3-3-3-3-3-3-3-------|
D|-----------------------------------------------------------------|
   1 + 2 + 3 + 4 + 1 + 2 + 3 + 4 + 1 + 2 + 3 + 4 + 1 + 2 + 3 + 4 +

G|-----------------------------------------------------------------|
D|---------------------------3-2---------------------------2-3-----|
A|-2-2-2-2-2-2-2-2-2-2-2-2-2-----2-1-1-1-1-1-1-1-1-0-0-0-0-----4-4-|
D|-----------------------------------------------------------------|
   1 + 2 + 3 + 4 + 1 + 2 + 3 + 4 + 1 + 2 + 3 + 4 + 1 + 2 + 3 + 4 +

Rest

Bridge 2:37
G|------------------------------------------------------------------|
D|o-----------------------------------------------------------------|
A|o-----------------------------0---1-------1-----1-0-------0-------|
D|--0-------0---2---3-------3-5-------------------------------5-3-2-|
    1 + 2 + 3 + 4 + 1 + 2 + 3 + 4 + 1 + 2 + 3 + 4 + 1 + 2 + 3 + 4 +

G|------------------------------------------------------------------|
D|-----------------------------------------------------------------o|
A|-----------------------------0---1-------1-----1-0-------0-4-----o|
D|-0-------0---2---3-------3-5--------------------------------------|
   1 + 2 + 3 + 4 + 1 + 2 + 3 + 4 + 1 + 2 + 3 + 4 + 1 + 2 + 3 + 4 +

3:06 Vocals Enter
G|-----------------------------------------------------------------|
D|-----------------------------------------------------------------|
A|-----------------------------0---1-------1-----1-0-------0-------|
D|-0-------0---2---3-------3-5-------------------------------5-3-2-|
   1 + 2 + 3 + 4 + 1 + 2 + 3 + 4 + 1 + 2 + 3 + 4 + 1 + 2 + 3 + 4 +

G|-----------------------------------------------------------------|
D|-----------------------------------------------------------------|
A|-----------------------------0---1-------1-----1-0-------0-4-----|
D|-0-------0---2---3-------3-5-------------------------------------|
   1 + 2 + 3 + 4 + 1 + 2 + 3 + 4 + 1 + 2 + 3 + 4 + 1 + 2 + 3 + 4 +

G|-----------------------------------------------------------------|
D|---------------------------5-----8-------8-----8-7-------7-8-7-5-|
A|-5-------5---7---8-------8---8-7---------------------------------|
D|-----------------------------------------------------------------|
   1 + 2 + 3 + 4 + 1 + 2 + 3 + 4 + 1 + 2 + 3 + 4 + 1 + 2 + 3 + 4 +

G|-----------------------------------------------------------------|
D|-----------------------------------------------------------------|
A|-----------------------------0---1---1-1-1-1-1-1-0-0-0-0-0-1-0---|
D|-0-------0---2---3-------3-5-----------------------------------5-|
   1 + 2 + 3 + 4 + 1 + 2 + 3 + 4 + 1 + 2 + 3 + 4 + 1 + 2 + 3 + 4 +

Solo 3:34
G|-------------------------------------------------------------------|
D|o-----------------------------------------------------------------o|
A|o---------------------------------1---1-1-1-1-1-0---0-0-4-4-4-4-4-o|x3
D|--0---0---00002-3---3-3---3-3-3-2----------------------------------|
    1 + 2 + 3 + 4 + 1 + 2 + 3 + 4 + 1 + 2 + 3 + 4 + 1 + 2 + 3 + 4 +

G|-----------------------------------------------------------------|
D|-----------------------------------------------------------------|
A|---------------------------------1-1-1-1-1-1-1-0-0-0-0-4-4-4-4-4-|
D|-0---0---00002-3---3-3---3-3-3-2---------------------------------|
   1 + 2 + 3 + 4 + 1 + 2 + 3 + 4 + 1 + 2 + 3 + 4 + 1 + 2 + 3 + 4 +

G|-----------------------------------------------------------------|
D|-----------------------------------------------------------------|
A|-5-5-5-5-5-5-5-5-1-1-1-1-1-1-1-1-2-2-2-2-2-2-2-2-3-3-3-3-4-4-4-4-|
D|-----------------------------------------------------------------|
   1 + 2 + 3 + 4 + 1 + 2 + 3 + 4 + 1 + 2 + 3 + 4 + 1 + 2 + 3 + 4 +

G|-----------------------------------------------------------------|
D|-----------------------------------------------------------------|
A|-5-5-5-5-5-5-5-5-1-1-1-1-1-1-1-1-2-2-2-2-2-2-2-2-3---------------|
D|-----------------------------------------------------------------|
   1 + 2 + 3 + 4 + 1 + 2 + 3 + 4 + 1 + 2 + 3 + 4 + 1 + 2 + 3 + 4 +

Chorus
G|-----------------------------------------------------------------|
D|-----------------------------5-7---------------------------3-2-3-|
A|-5-5-5-5-5-5-5-5-5-5-5-5-5-7-----3-3-3-3-3-3-3-3-3-3-3-3-3-------|
D|-----------------------------------------------------------------|
   1 + 2 + 3 + 4 + 1 + 2 + 3 + 4 + 1 + 2 + 3 + 4 + 1 + 2 + 3 + 4 +

G|-----------------------------------------------------------------|
D|---------------------------3-2---------------------------2-3-----|
A|-2-2-2-2-2-2-2-2-2-2-2-2-2-----2-1-1-1-1-1-1-1-1-0-0-0-0-----4---|
D|-----------------------------------------------------------------|
   1 + 2 + 3 + 4 + 1 + 2 + 3 + 4 + 1 + 2 + 3 + 4 + 1 + 2 + 3 + 4 +

G|-----------------------------------------------------------------|
D|-----------------------------5-7---------------------------3-2-3-|
A|-5-5-5-5-5-5-5-5-5-5-5-5-5-7-----3-3-3-3-3-3-3-3-3-3-3-3-3-------|
D|-----------------------------------------------------------------|
   1 + 2 + 3 + 4 + 1 + 2 + 3 + 4 + 1 + 2 + 3 + 4 + 1 + 2 + 3 + 4 +

G|-----------------------------------------------------------------|
D|---------------------------3-2---------------------------2-3-----|
A|-2-2-2-2-2-2-2-2-2-2-2-2-2-----2-1-1-1-1-1-1-1-1-0-0-0-0-----4-4-|
D|-----------------------------------------------------------------|
   1 + 2 + 3 + 4 + 1 + 2 + 3 + 4 + 1 + 2 + 3 + 4 + 1 + 2 + 3 + 4 +

Rest

Blood 4:49
G|----------|
D|----------|
A|----------|
D|-0--------|

Tabbed by Dave Vucko

========================================================

Coming Home
0:50
G|---------------------------------|
D|---------------------------------|
A|---------------------------------|
D|---------------------------------|
B|-0-------------------------------|
   1 + 2 + 3 + 4 + 1 + 2 + 3 + 4 + 

G|-----------------------------------------------------------------|
D|---------------6-------------------------------6-------------1---|
A|-2h4-4-4-4-4-4---4-4-4-4-4-4-4-4-2h4-4-4-4-4-4---4-4-4-4-2-4---2-|
D|-----------------------------------------------------------------|
B|-----------------------------------------------------------------|
   1 + 2 + 3 + 4 + 1 + 2 + 3 + 4 + 1 + 2 + 3 + 4 + 1 + 2 + 3 + 4 +

G|-----------------------------------------------------------------|
D|---------------4-----------------4-------------------------------|
A|-2h4-4-4-4-4-4---4-4-4-4-4-4-4-4-------7-----6-----4-----6---7---|
D|-----------------------------------------------------------------|
B|-----------------------------------------------------------------|
   1 + 2 + 3 + 4 + 1 + 2 + 3 + 4 + 1 + 2 + 3 + 4 + 1 + 2 + 3 + 4 +

Verse 1:04
G|-----------------------------------------------------------------|
D|---------------6-------------------------------6-----6---6-4-----|
A|-2h4-4-4-4-4-4---4-4-4-4-4-4-4-4-2h4-4-4-4-4-4---4-4---4-----7-6-|
D|-----------------------------------------------------------------|
B|-----------------------------------------------------------------|
   1 + 2 + 3 + 4 + 1 + 2 + 3 + 4 + 1 + 2 + 3 + 4 + 1 + 2 + 3 + 4 +

G|-----------------------------------------------------------------|
D|---------------4-----------------4-------------------------------|
A|-2h4-4-4-4-4-4---4-4-4-4-4-4-4-4-------7-----6-----4-----6---7---|
D|-----------------------------------------------------------------|
B|-----------------------------------------------------------------|
   1 + 2 + 3 + 4 + 1 + 2 + 3 + 4 + 1 + 2 + 3 + 4 + 1 + 2 + 3 + 4 +

G|-----------------------------------------------------------------|
D|---------------6-------------------------------6-------------1---|
A|-2h4-4-4-4-4-4---4-4-4-4-4-4-4-4-2h4-4-4-4-4-4---4-4-4-4-2-4---2-|
D|-----------------------------------------------------------------|
B|-----------------------------------------------------------------|
   1 + 2 + 3 + 4 + 1 + 2 + 3 + 4 + 1 + 2 + 3 + 4 + 1 + 2 + 3 + 4 +

G|-----------------------------------------------------------------|
D|---------------4-----------------4-------------------------------|
A|-2h4-4-4-4-4-4---4-4-4-4-4-4-4-4-------7-----6-----4-----6---7---|
D|-----------------------------------------------------------------|
B|-----------------------------------------------------------------|
   1 + 2 + 3 + 4 + 1 + 2 + 3 + 4 + 1 + 2 + 3 + 4 + 1 + 2 + 3 + 4 +

Pre Chorus 1:26
G|-----------------------------------------------------------------|
D|-----------------------------------------------------------------|
A|---------------------------------4-5---2-4---0-2-----------------|
D|-0-----0-----0-----0-0---0---0---------------------6-7---6-7-6-2-|
B|-----------------------------------------------------------------|
   1 + 2 + 3 + 4 + 1 + 2 + 3 + 4 + 1 + 2 + 3 + 4 + 1 + 2 + 3 + 4 +

Chorus 1:32
G|-----------------------------------------------------------------|
D|---------------------------------------------------------7-6-----|
A|-----------------------------------------------------5-7-----7-5-|
D|-4---4-4---4-4-----4-4---4-6-7-6-2---2-2---2-2-----2-------------|
B|-----------------------------------------------------------------|
   1 + 2 + 3 + 4 + 1 + 2 + 3 + 4 + 1 + 2 + 3 + 4 + 1 + 2 + 3 + 4 +

G|-----------------------------------------------------------------|
D|-----------------------------------------------------------------|
A|---------------------5---5-0-5-7---------------------------------|
D|-0---0-0---0-0-----0-------------2-2-2-2-----2-2-2-2-----2-2-2-2-|
B|-----------------------------------------------------------------|
   1 + 2 + 3 + 4 + 1 + 2 + 3 + 4 + 1 + 2 + 3 + 4 + 1 + 2 + 3 + 4 +

G|-----------------------------------------------------------------|
D|---------------------------------------------------------7-6-----|
A|-----------------------------------------------------5-7-----7-5-|
D|-4---4-4---4-4-----4-4---4-6-7-6-2---2-2---2-2-----2-------------|
B|-----------------------------------------------------------------|
   1 + 2 + 3 + 4 + 1 + 2 + 3 + 4 + 1 + 2 + 3 + 4 + 1 + 2 + 3 + 4 +

G|-----------------------------------------------------------------|
D|-----------------------------------------------------------------|
A|-------------------0-5-0-5-0-7-5---------------------------------|
D|-0---0-0---0-0-------------------2-2-2-2-----2-2-2-2-----2-2-2-2-|
B|-----------------------------------------------------------------|
   1 + 2 + 3 + 4 + 1 + 2 + 3 + 4 + 1 + 2 + 3 + 4 + 1 + 2 + 3 + 4 +

Interlude 1:52
G|-----------------------------------------------------------------|
D|-----------------------------------------------------------------|
A|-----------------------------------------------------------------|
D|-4---------------------------------------------------------------|
B|-----------------------------------------------------------------|
   1 + 2 + 3 + 4 + 1 + 2 + 3 + 4 + 1 + 2 + 3 + 4 + 1 + 2 + 3 + 4 +

1:57 Verse
G|-----------------------------------------------------------------|
D|---------------6-------------------------------6-----6---6---6---|
A|-2h4-4-4-4-4-4---4-4-4-4-4-4-4-4-2h4-4-4-4-4-4---4-4---4---4---4-|
D|-----------------------------------------------------------------|
B|-----------------------------------------------------------------|
   1 + 2 + 3 + 4 + 1 + 2 + 3 + 4 + 1 + 2 + 3 + 4 + 1 + 2 + 3 + 4 +

G|-----------------------------------------------------------------|
D|---------------4-----------------4-------------------------------|
A|-2h4-4-4-4-4-4---4-4-4-4-4-4-4-4-------7-----6-----4-----6---7---|
D|-----------------------------------------------------------------|
B|-----------------------------------------------------------------|
   1 + 2 + 3 + 4 + 1 + 2 + 3 + 4 + 1 + 2 + 3 + 4 + 1 + 2 + 3 + 4 +

G|-----------------------------------------------------------------|
D|---------------6-------------------------------6-------------1-2-|
A|-2h4-4-4-4-4-4---4-4-4-4-4-4-4-4-2h4-4-4-4-4-4---4-4-4-4-2-4-----|
D|-----------------------------------------------------------------|
B|-----------------------------------------------------------------|
   1 + 2 + 3 + 4 + 1 + 2 + 3 + 4 + 1 + 2 + 3 + 4 + 1 + 2 + 3 + 4 +

G|-----------------------------------------------------------------|
D|---------------4-----------------4-------------------------------|
A|-2h4-4-4-4-4-4---4-4-4-4-4-4-4-4-------7-----6-----4-----6---7---|
D|-----------------------------------------------------------------|
B|-----------------------------------------------------------------|
   1 + 2 + 3 + 4 + 1 + 2 + 3 + 4 + 1 + 2 + 3 + 4 + 1 + 2 + 3 + 4 +

Pre Chorus 2:20
G|-----------------------------------------------------------------|
D|-----------------------------------------------------------------|
A|---------------------------------4-5---2-4---0-2-----------------|
D|-0-----0-----0-----0-0---0---0---------------------6-7---6-7-6-2-|
B|-----------------------------------------------------------------|
   1 + 2 + 3 + 4 + 1 + 2 + 3 + 4 + 1 + 2 + 3 + 4 + 1 + 2 + 3 + 4 +

Chorus 2:25
G|-----------------------------------------------------------------|
D|---------------------------------------------------------7-6-----|
A|-----------------------------------------------------7-------7-5-|
D|-4---4-4---4-4-----4-4---4-6-7-6-2---2-2---2-2-----2-------------|
B|-----------------------------------------------------------------|
   1 + 2 + 3 + 4 + 1 + 2 + 3 + 4 + 1 + 2 + 3 + 4 + 1 + 2 + 3 + 4 +

G|-----------------------------------------------------------------|
D|-----------------------------------------------------------------|
A|---------------------5---5-0-5-7---------------------------------|
D|-0---0-0---0-0-----0-------------2-2-2-2-----2-2-2-2-----2-2-2-2-|
B|-----------------------------------------------------------------|
   1 + 2 + 3 + 4 + 1 + 2 + 3 + 4 + 1 + 2 + 3 + 4 + 1 + 2 + 3 + 4 +

G|-----------------------------------------------------------------|
D|-----------------------------------------------------9---7-6-----|
A|-------------------------------------------------------------7-5-|
D|-4---4-4---4-4-----4-4---4-6-7-6-2---2-2---2-2-----2-------------|
B|-----------------------------------------------------------------|
   1 + 2 + 3 + 4 + 1 + 2 + 3 + 4 + 1 + 2 + 3 + 4 + 1 + 2 + 3 + 4 +

G|-----------------------------------------------------------------|
D|-----------------------------------------------------------------|
A|-------------------0-5-0-5-0-7-5---------------------------------|
D|-0---0-0---0-0-------------------2-2-2-2-----2-2-2-2-----2-2-2-2-|
B|-----------------------------------------------------------------|
   1 + 2 + 3 + 4 + 1 + 2 + 3 + 4 + 1 + 2 + 3 + 4 + 1 + 2 + 3 + 4 +

Solo 2:46
G|-----------------------------------------------------------------|
D|-----------------------------------------------------------------|
A|-----------------------------------------------------------------|
D|-4-4-4-4-4-4-4-------------------2-2-2-2-2-2-2-------------------|
B|-----------------------------------------------------------------|
   1 + 2 + 3 + 4 + 1 + 2 + 3 + 4 + 1 + 2 + 3 + 4 + 1 + 2 + 3 + 4 +

G|-----------------------------------------------------------------|
D|-----------------------------------------------------------------|
A|-----------------------------------------------------------------|
D|-0-0-0-0-0-0-0-------------------2---2-2-2-2-2-2-2-2-2-2-2-2-2-2-|
B|-----------------------------------------------------------------|
   1 + 2 + 3 + 4 + 1 + 2 + 3 + 4 + 1 + 2 + 3 + 4 + 1 + 2 + 3 + 4 +

2:57
G|------------------------------------------------------------------|
D|o-6-----7-----4-----6-------------6-----7-----4-----6-------------|
A|----4-4---4-4---4-4---4-4-----------4-4---4-4---4-4---4-4---------|
D|o-----------------------------------------------------------------|
B|--------------------------2-2-2-2-------------------------2-2-2-2-|
    1 + 2 + 3 + 4 + 1 + 2 + 3 + 4 + 1 + 2 + 3 + 4 + 1 + 2 + 3 + 4 +

G|------------------------------------------------------------------|
D|-6-----7-----4-----6-------------4-----2-----1-----2-----1-2-1-2-o|
A|---4-4---4-4---4-4---4-4-----------2-2---2-2---2-2---2-2----------|
D|-----------------------------------------------------------------o|
B|-------------------------2-2-2-2----------------------------------|
   1 + 2 + 3 + 4 + 1 + 2 + 3 + 4 + 1 + 2 + 3 + 4 + 1 + 2 + 3 + 4 +

3:19
G|-----------------------------------------------------------------|
D|-----------------------------------------------------------------|
A|-0---0-0---0-0-----0-0---0-0-0-0-2---2-2---2-2-----2-2---2-2-2-2-|
D|-----------------------------------------------------------------|
B|-----------------------------------------------------------------|
   1 + 2 + 3 + 4 + 1 + 2 + 3 + 4 + 1 + 2 + 3 + 4 + 1 + 2 + 3 + 4 +

G|-----------------------------------------------------------------|
D|-----------------------------------------------------------------|
A|-----------------------------------------------------------------|
D|-------------------------2-4-2---------------------------2-4-2-6-|
B|-2---2-2-2-2-2-2-2-2-2-2-------0-2---2-2-2-2-2-2-2-2-2-2---------|
   1 + 2 + 3 + 4 + 1 + 2 + 3 + 4 + 1 + 2 + 3 + 4 + 1 + 2 + 3 + 4 +

G|-----------------------------------------------------------------|
D|-----------------------------------------------------------------|
A|-0---0-0---0-0-----0-0---0-0-0-0-2---2-2---2-2---2-2-2-2-2-2-2-2-|
D|-----------------------------------------------------------------|
B|-----------------------------------------------------------------|
   1 + 2 + 3 + 4 + 1 + 2 + 3 + 4 + 1 + 2 + 3 + 4 + 1 + 2 + 3 + 4 +

G|-----------------------------------------------------------------|
D|-----------------------------------------------------------------|
A|-----------------------------------------------------------------|
D|-------------------------2-4-2---------------------------2-4-2-6-|
B|-2---2-2-2-2-2-2-2-2-2-2-------0-2---2-2-2-2-2-2-2-2-2-2---------|
   1 + 2 + 3 + 4 + 1 + 2 + 3 + 4 + 1 + 2 + 3 + 4 + 1 + 2 + 3 + 4 +

3:40
G|-----------------------------------------------------------------|
D|-----------------------------------------------------------------|
A|-0---0-0---0-0-----0-0---0-0---0-2---2-2---2-2-----2-2---2-2-0-2-|
D|-----------------------------6-----------------------------------|
B|-----------------------------------------------------------------|
   1 + 2 + 3 + 4 + 1 + 2 + 3 + 4 + 1 + 2 + 3 + 4 + 1 + 2 + 3 + 4 +

G|-----------------------------------------------------------------|
D|-------------------------1-2-1-----------------------1---1-2-1---|
A|-4---4-4---4-4-----4-4---------4-2---2-2---2-2-----2---2-------2-|
D|-----------------------------------------------------------------|
B|-----------------------------------------------------------------|
   1 + 2 + 3 + 4 + 1 + 2 + 3 + 4 + 1 + 2 + 3 + 4 + 1 + 2 + 3 + 4 +

G|-----------------------------------------------------------------|
D|-----------------------------------------------------1---1-2-----|
A|-0---0-0---0-0-----0-0---0-0---0-2---2-2---2-2-----2---2-----2-3-|
D|-----------------------------6-----------------------------------|
B|-----------------------------------------------------------------|
   1 + 2 + 3 + 4 + 1 + 2 + 3 + 4 + 1 + 2 + 3 + 4 + 1 + 2 + 3 + 4 +

G|-----------------------------------------------------------------|
D|-------------------------1-2-1-----------------------1---1-2-1---|
A|-4---4-4---4-4-----4-4---------4-2---2-2-2-2-2-2-2-2---2-------2-|
D|-----------------------------------------------------------------|
B|-----------------------------------------------------------------|
   1 + 2 + 3 + 4 + 1 + 2 + 3 + 4 + 1 + 2 + 3 + 4 + 1 + 2 + 3 + 4 +

4:02
G|-----------------------------------------------------------------|
D|-----------------------------------------------------------------|
A|-0-----0-0-----0-0-4-0-----0-0-0---------------------------------|
D|---------------------------------4-----4-4-----4-4-4-4---4-4-2-4-|
B|-----------------------------------------------------------------|
   1 + 2 + 3 + 4 + 1 + 2 + 3 + 4 + 1 + 2 + 3 + 4 + 1 + 2 + 3 + 4 +

G|-----------------------------------------------------------------|
D|-----------------------------------------------------------------|
A|-2---2-2-2-2-2-2-2-2-2-2-2-2-2-2-3-3-3-3-3-3-3-3-3-3-3-3-3-3-3-3-|
D|-----------------------------------------------------------------|
B|-----------------------------------------------------------------|
   1 + 2 + 3 + 4 + 1 + 2 + 3 + 4 + 1 + 2 + 3 + 4 + 1 + 2 + 3 + 4 +

Interlude 4:12
G|-----------------------------------------------------------------|
D|---------------6-------------------------------6-----------------|
A|-2h4-4-4-4-4-4---4-4-4-4-4-4-4-4-2h4-4-4-4-4-4---4-4-4-4-4-4-4-4-|
D|-----------------------------------------------------------------|
B|-----------------------------------------------------------------|
   1 + 2 + 3 + 4 + 1 + 2 + 3 + 4 + 1 + 2 + 3 + 4 + 1 + 2 + 3 + 4 +

G|-----------------------------------------------------------------|
D|---------------4-----------------4-------------------------------|
A|-2h4-4-4-4-4-4---4-4-4-4-4-4-4-4-------7-----6-----4-----6---7---|
D|-----------------------------------------------------------------|
B|-----------------------------------------------------------------|
   1 + 2 + 3 + 4 + 1 + 2 + 3 + 4 + 1 + 2 + 3 + 4 + 1 + 2 + 3 + 4 +

4:24 Verse
G|---------------------------------------------------6-6-4---------|
D|---------------6-------------------------------6---------6-4-----|
A|-2h4-4-4-4-4-4---4-4-4-4-4-4-4-4-2h4-4-4-4-4-4---4-----------4-2-|
D|-----------------------------------------------------------------|
B|-----------------------------------------------------------------|
   1 + 2 + 3 + 4 + 1 + 2 + 3 + 4 + 1 + 2 + 3 + 4 + 1 + 2 + 3 + 4 +

G|-----------------------------------------------------------------|
D|---------------4-----------------4-------------------------------|
A|-2h4-4-4-4-4-4---4-4-4-4-4-4-4-4-------7-----6-----4-----6---7---|
D|-----------------------------------------------------------------|
B|-----------------------------------------------------------------|
   1 + 2 + 3 + 4 + 1 + 2 + 3 + 4 + 1 + 2 + 3 + 4 + 1 + 2 + 3 + 4 +

G|-----------------------------------------------------------------|
D|---------------6-------------------------------6-------------1---|
A|-2h4-4-4-4-4-4---4-4-4-4-4-4-4-4-2h4-4-4-4-4-4---4-4-4-4-2-4---2-|
D|-----------------------------------------------------------------|
B|-----------------------------------------------------------------|
   1 + 2 + 3 + 4 + 1 + 2 + 3 + 4 + 1 + 2 + 3 + 4 + 1 + 2 + 3 + 4 +

G|-----------------------------------------------------------------|
D|---------------4-----------------4-------------------------------|
A|-2h4-4-4-4-4-4---4-4-4-4-4-4-4-4-------7-----6-----4-----6---7---|
D|-----------------------------------------------------------------|
B|-----------------------------------------------------------------|
   1 + 2 + 3 + 4 + 1 + 2 + 3 + 4 + 1 + 2 + 3 + 4 + 1 + 2 + 3 + 4 +

Pre Chorus 4:45
G|-----------------------------------------------------------------|
D|-----------------------------------------------------------------|
A|---------------------------------4-5---2-4---0-2-----------------|
D|-0-----0-----0-----0-0---0---0---------------------6-7---6-7-6-2-|
B|-----------------------------------------------------------------|
   1 + 2 + 3 + 4 + 1 + 2 + 3 + 4 + 1 + 2 + 3 + 4 + 1 + 2 + 3 + 4 +

Chorus 4:51
G|-----------------------------------------------------------------|
D|-----------------------------------------------------6---7-6-----|
A|---------------------------------------------------7---7-----7-5-|
D|-4---4-4---4-4-----4-4---4-6-7-6-2---2-2---2-2-------------------|
B|-----------------------------------------------------------------|
   1 + 2 + 3 + 4 + 1 + 2 + 3 + 4 + 1 + 2 + 3 + 4 + 1 + 2 + 3 + 4 +

G|-----------------------------------------------------------------|
D|-----------------------------------------------------------------|
A|---------------------5---5-0-5-7---------------------------------|
D|-0---0-0---0-0-----0-------------2-2-2-2-----2-2-2-2-----2-2-2-2-|
B|-----------------------------------------------------------------|
   1 + 2 + 3 + 4 + 1 + 2 + 3 + 4 + 1 + 2 + 3 + 4 + 1 + 2 + 3 + 4 +

G|-----------------------------------------------------------------|
D|-----------------------------------------------------9---7-6-----|
A|-------------------------------------------------------------7---|
D|-4---4-4---4-4-----4-4---4-6-7-6-2---2-2---2-2-----2-------------|
B|-----------------------------------------------------------------|
   1 + 2 + 3 + 4 + 1 + 2 + 3 + 4 + 1 + 2 + 3 + 4 + 1 + 2 + 3 + 4 +

G|-----------------------------------------------------------------|
D|-----------------------------------------------------------------|
A|-------------------0-5-0-5-0-5-7---------------------------------|
D|-0---0-0---0-0-------------------2-2-2-2-----2-2-2-2-----2-2-0-2-|
B|-----------------------------------------------------------------|
   1 + 2 + 3 + 4 + 1 + 2 + 3 + 4 + 1 + 2 + 3 + 4 + 1 + 2 + 3 + 4 +

Outro 5:12
G|-----------------------------------------------------------------|
D|---------------------------------------------------------7-6-----|
A|-----------------------------------------------------7-------7-5-|
D|-4---4-4---4-4-----4-4---4-6-7-6-2---2-2---2-2-----2-------------|
B|-----------------------------------------------------------------|
   1 + 2 + 3 + 4 + 1 + 2 + 3 + 4 + 1 + 2 + 3 + 4 + 1 + 2 + 3 + 4 +

G|-----------------------------------------------------------------|
D|-----------------------------------------------------------------|
A|-------------------0-5-0-4-5-7-----------------------------------|
D|-0---0-0---0-0-----------------0-2---2-2---2-2---2-2-2---2-2-0-2-|
B|-----------------------------------------------------------------|
   1 + 2 + 3 + 4 + 1 + 2 + 3 + 4 + 1 + 2 + 3 + 4 + 1 + 2 + 3 + 4 +

G|-----------------------------------------------------------------|
D|---------------------------------------------------------6-7-6---|
A|-----------------------------------------------------7---------7-|
D|-4---4-4---4-4-----4-6-4-6-7-6-4-2---2-2---2-2-----2-------------|
B|-----------------------------------------------------------------|
   1 + 2 + 3 + 4 + 1 + 2 + 3 + 4 + 1 + 2 + 3 + 4 + 1 + 2 + 3 + 4 +

G|-----------------------------------------------------------------|
D|---------------------------------7-6---7-6---7-6---7-6---7-6-----|
A|---------------------5---5-4-5-7-----7-----7-----7-----7-----7---|
D|-0---0-0---0-0-----0---------------------------------------------|
B|-----------------------------------------------------------------|
   1 + 2 + 3 + 4 + 1 + 2 + 3 + 4 + 1 + 2 + 3 + 4 + 1 + 2 + 3 + 4 +

5:34
G|-----------------------------------------------------------------|
D|---------------------------------------------------------2-------|
A|-----------------------------------------------------2-------2---|
D|-4---4-4---4-4-----4-4---4-2-4-6-2---2-2---2-2-----2-------------|
B|-----------------------------------------------------------------|
   1 + 2 + 3 + 4 + 1 + 2 + 3 + 4 + 1 + 2 + 3 + 4 + 1 + 2 + 3 + 4 +

G|-----------------------------------------------------------------|
D|-------------------------------------------------7-6---7-6---7-6-|
A|-------------------0-5-0-5-0-4-5-7---7-7---7-7-7-----7-----7-----|
D|-0---0-0---0-0---------------------------------------------------|
B|-----------------------------------------------------------------|
   1 + 2 + 3 + 4 + 1 + 2 + 3 + 4 + 1 + 2 + 3 + 4 + 1 + 2 + 3 + 4 +

G|-----------------------------------------------------------------|
D|-----------------------------------------------------------------|
A|-----------------------------------------------------------------|
D|-4---4-4---4-4-----4-4---4-6-7-6-2---2-2---2-2-----2-2---2-4-2---|
B|-----------------------------------------------------------------|
   1 + 2 + 3 + 4 + 1 + 2 + 3 + 4 + 1 + 2 + 3 + 4 + 1 + 2 + 3 + 4 +

G|-----------------------------------------------------------------|
D|-----------------------------------------------------------------|
A|---------------------------------------------------0---0-2-2-4---|
D|-0---0-0---0-0-----0-0---0-0-0-0-2---2-4---4-6---6---------------|
B|-----------------------------------------------------------------|
   1 + 2 + 3 + 4 + 1 + 2 + 3 + 4 + 1 + 2 + 3 + 4 + 1 + 2 + 3 + 4 +

5:55
G|-----------------------------------------------------------------|
D|-----------------------------------------------------2---2-------|
A|-----------------------------------------------------------2-----|
D|-4---4-4---4-4-----4-4---4-6-4---2---2-2---2-2-----2---2-----2---|
B|-----------------------------------------------------------------|
   1 + 2 + 3 + 4 + 1 + 2 + 3 + 4 + 1 + 2 + 3 + 4 + 1 + 2 + 3 + 4 +

G|---------------------------------------------6-----9-----------6-|
D|---------------------------------7-6---9-7-6---7-6---7-6-7-6-7---|
A|-------------------0-5-0-5-7-5-0-----7---------------------------|
D|-0---0-0---0-0---------------------------------------------------|
B|-----------------------------------------------------------------|
   1 + 2 + 3 + 4 + 1 + 2 + 3 + 4 + 1 + 2 + 3 + 4 + 1 + 2 + 3 + 4 +

G|-----------------------------------------------------------------|
D|-----------------------------------------------------------------|
A|-----------------------------------------------------------------|
D|-4---4-4---4-4-----4-4---4-6-7-6-2---2-2---2-2-----2-2---2-2-2-2-|
B|-----------------------------------------------------------------|
   1 + 2 + 3 + 4 + 1 + 2 + 3 + 4 + 1 + 2 + 3 + 4 + 1 + 2 + 3 + 4 +

G|-----------------------------------------------------------------|
D|-----------------------------------------------------------------|
A|-----------------------------------------------------------------|
D|-0---0-0---0-0-----0-0---0-0-0-0-2---2-2---2-2-----2-2---2-2-2-2-|
B|-----------------------------------------------------------------|
   1 + 2 + 3 + 4 + 1 + 2 + 3 + 4 + 1 + 2 + 3 + 4 + 1 + 2 + 3 + 4 +
Tabbed by Dave Vucko

=====================================================

Planets

G|------------------------------------------------------------------|
D|o-----------------------------------------------------------------|
A|o-----------------------------------------------------------------|
D|--0-------------------------------1-------------------------------|
    1 + 2 + 3 + 4 + 1 + 2 + 3 + 4 + 1 + 2 + 3 + 4 + 1 + 2 + 3 + 4 +

G|------------------------------------------------------------------|
D|-----------------------------------------------------------------o|
A|-----------------------------------------------------------------o|x3
D|-4-------------------------1-1---0--------------------------------| third time staccato 
   1 + 2 + 3 + 4 + 1 + 2 + 3 + 4 + 1 + 2 + 3 + 4 + 1 + 2 + 3 + 4 +    open D

0:41
G|-----------------------------------------------------------------|
D|-----------------------------------------------------------------|
A|-----------------------------------------------------------------|
D|-0-------------------------------1-------------------------------|
   1 + 2 + 3 + 4 + 1 + 2 + 3 + 4 + 1 + 2 + 3 + 4 + 1 + 2 + 3 + 4 +

G|-----------------------------------------------------------------|
D|-----------------------------------------------------------------|
A|-----------------------------------------------------------------|
D|-4-------------------------1-1---0-------------------------1-1---|
   1 + 2 + 3 + 4 + 1 + 2 + 3 + 4 + 1 + 2 + 3 + 4 + 1 + 2 + 3 + 4 +

Verse 0:54
G|-------------------------------------------------------------------|
D|o-------------------------------------------------------------1---o|
A|o-----------------------------------------------------------23----o|
D|--0---0-0-0-0---0-0---0-0-0-0---0-4---4-4-4-4---4-1---1-1-1--------|
    1 + 2 + 3 + 4 + 1 + 2 + 3 + 4 + 1 + 2 + 3 + 4 + 1 + 2 + 3 + 4 +

G|-----------------------------------------------------------------|
D|-----------------------------------------------------------------|
A|-----------------------------------------------------------------|
D|-2---2-2-2-2---2-2---2-2-1---5---2---2-2-2-2---2-2---2-2-1---5---|
   1 + 2 + 3 + 4 + 1 + 2 + 3 + 4 + 1 + 2 + 3 + 4 + 1 + 2 + 3 + 4 +

G|-----------------------------------------------------------------|
D|-----------------------------------------------------------------|
A|-----------------------------------------------------------------|
D|-4---4-4-4-4---4-4---4-4-3---7---4---4-4-4-4-4-4-3-3-3-7-7-7-3-3-|
   1 + 2 + 3 + 4 + 1 + 2 + 3 + 4 + 1 + 2 + 3 + 4 + 1 + 2 + 3 + 4 +

Pre Chorus 1:22
G|-----------------------------------------------------------------|
D|-----------------------------------------------------------------|
A|-------------------------------------------------0---------------|
D|-0---------------3---------------4-------------------------------|
   1 + 2 + 3 + 4 + 1 + 2 + 3 + 4 + 1 + 2 + 3 + 4 + 1 + 2 + 3 + 4 +

G|-----------------------------------------------------------------|
D|-----------------------------------------------------------------|
A|-----------------------------------------------------------------|
D|-0---------------3---------------4-----------------------4-3-2-1-|
   1 + 2 + 3 + 4 + 1 + 2 + 3 + 4 + 1 + 2 + 3 + 4 + 1 + 2 + 3 + 4 +

Chorus 1:35
G|-------------------------------------------------------------------|
D|o-----------------------------------------------------------------o|
A|o-----------------------------------------------------------------o|
D|--0-----3-----7-----3-----0---6---4-----4-4-------4-3-2-1-4--------|
    1 + 2 + 3 + 4 + 1 + 2 + 3 + 4 + 1 + 2 + 3 + 4 + 1 + 2 + 3 + 4 +

Interlude
G|-----------------------------------------------------------------|
D|-----------------------------------------------------------------|
A|---------------------------------0-------------3-3---------------|
D|-0---------------4-----------------------------------------------|
   1 + 2 + 3 + 4 + 1 + 2 + 3 + 4 + 1 + 2 + 3 + 4 + 1 + 2 + 3 + 4 +

G|---------------------------------|
D|---------------------------------|
A|---------------------------------|
D|-0-------------------------------|
   1 + 2 + 3 + 4 + 1 + 2 + 3 + 4 +

Verse 1:59
G|-------------------------------------------------------------------|
D|o-------------------------------------------------------------1---o|
A|o-----------------------------------------------------------23----o|
D|--0---0-0-0-0---0-0---0-0-0-0---0-4---4-4-4-4---4-1---1-1-1--------|
    1 + 2 + 3 + 4 + 1 + 2 + 3 + 4 + 1 + 2 + 3 + 4 + 1 + 2 + 3 + 4 +

G|-----------------------------------------------------------------|
D|-----------------------------------------------------------------|
A|-----------------------------------------------------------------|
D|-2---2-2-2-2---2-2---2-2-1---5---2---2-2-2-2---2-2---2-2-1---5---|
   1 + 2 + 3 + 4 + 1 + 2 + 3 + 4 + 1 + 2 + 3 + 4 + 1 + 2 + 3 + 4 +

G|-----------------------------------------------------------------|
D|-----------------------------------------------------------------|
A|-----------------------------------------------------------------|
D|-4---4-4-4-4---4-4---4-4-3---7---4---4-4-4-4-4-4-3-3-3-7-7-7-3-3-|
   1 + 2 + 3 + 4 + 1 + 2 + 3 + 4 + 1 + 2 + 3 + 4 + 1 + 2 + 3 + 4 +

Pre Chorus
G|-----------------------------------------------------------------|
D|-----------------------------------------------------------------|
A|-------------------------------------------------0---------------|
D|-0---------------3---------------4-------------------------------|
   1 + 2 + 3 + 4 + 1 + 2 + 3 + 4 + 1 + 2 + 3 + 4 + 1 + 2 + 3 + 4 +

G|-----------------------------------------------------------------|
D|-----------------------------------------------------------------|
A|-----------------------------------------------------------------|
D|-0---------------3---------------4-----------------------4-3-2-1-|
   1 + 2 + 3 + 4 + 1 + 2 + 3 + 4 + 1 + 2 + 3 + 4 + 1 + 2 + 3 + 4 +

Chorus 2:40
G|-------------------------------------------------------------------|
D|o-----------------------------------------------------------------o|
A|o-----------------------------------------------------------------o|
D|--0-----3-----7-----3-----0---6---4-----4-4-------4-3-2-1-4--------|
    1 + 2 + 3 + 4 + 1 + 2 + 3 + 4 + 1 + 2 + 3 + 4 + 1 + 2 + 3 + 4 +

Bridge 2:54
G|-------------------------------------------------------------------|
D|o-----------------------------------------------------------------o|
A|o-----------------------------------------------------------------o|x5
D|--000-0-0-000-0-0-333-3-3-333-3-3-444-4-4-444-4-4-444-4-4-444-4-4--|
    1 + 2 + 3 + 4 + 1 + 2 + 3 + 4 + 1 + 2 + 3 + 4 + 1 + 2 + 3 + 4 +

G|-----------------------------------------------------------------|
D|-----------------------------------------------------------------|
A|-----------------------------------------------------------------|
D|-000-0-0-000-0-0-333-3-3-333-3-3-4-4-4-4-4-4-4-4-4-4-4-4-4-4-4-4-|
   1 + 2 + 3 + 4 + 1 + 2 + 3 + 4 + 1 + 2 + 3 + 4 + 1 + 2 + 3 + 4 +

Chorus 3:35
G|-----------------------------------------------------------------|
D|-----------------------------------------------------------------|
A|-----------------------------------------------------------------|
D|-0---------------3-------7-------4-------------------------------|
   1 + 2 + 3 + 4 + 1 + 2 + 3 + 4 + 1 + 2 + 3 + 4 + 1 + 2 + 3 + 4 +

G|-----------------------------------------------------------------|
D|-----------------------------------------------------------------|
A|-----------------------------------------------------------------|
D|-0---------------3-------7-------4---------------4---------------|
   1 + 2 + 3 + 4 + 1 + 2 + 3 + 4 + 1 + 2 + 3 + 4 + 1 + 2 + 3 + 4 +

G|-----------------------------------------------------------------|
D|-----------------------------------------------------------------|
A|-----------------------------------------------------------------|
D|-0---------------3-------7-------4-------------------------------|
   1 + 2 + 3 + 4 + 1 + 2 + 3 + 4 + 1 + 2 + 3 + 4 + 1 + 2 + 3 + 4 +

G|---------------------------------|
D|---------------------------------|
A|---------------------------------|
D|-0-0-0-------3-3-3---------------|
   1 + 2 + 3 + 4 + 1 + 2 + 3 + 4 + 

Solo 3:59
G|-------------------------------------------------------------------|
D|o-----------------------------------------------------------------o|
A|o-----------------------------------------------------------------o|x4
D|--4-4-4-4-4-4-4-4-4-4-4-4-4-4-4-4-0-----3-----7-----3-----0---6----|
    1 + 2 + 3 + 4 + 1 + 2 + 3 + 4 + 1 + 2 + 3 + 4 + 1 + 2 + 3 + 4 +

G|---------------------------------|
D|---------------------------------|
A|---------------------------------|
D|-4-------------------------------|
   1 + 2 + 3 + 4 + 1 + 2 + 3 + 4 + 

Verse 4:30
G|-----------------------------------------------------------------|
D|-----------------------------------------------------------------|
A|-----------------------------------------------------------------|
D|-2---2-2-2-2---2-2---2-2-1---5---2---2-2-2-2---2-2---2-2-1---5---|
   1 + 2 + 3 + 4 + 1 + 2 + 3 + 4 + 1 + 2 + 3 + 4 + 1 + 2 + 3 + 4 +

G|-----------------------------------------------------------------|
D|-----------------------------------------------------------------|
A|-----------------------------------------------------------------|
D|-4---4-4-4-4---4-4---4-4-3---7---4---4-4-4-4-4-4-3-3-3-7-7-7-3-3-|
   1 + 2 + 3 + 4 + 1 + 2 + 3 + 4 + 1 + 2 + 3 + 4 + 1 + 2 + 3 + 4 +

Pre Chorus 4:44
G|-----------------------------------------------------------------|
D|-----------------------------------------------------------------|
A|-------------------------------------------------0---------------|
D|-0---------------3---------------4-------------------------------|
   1 + 2 + 3 + 4 + 1 + 2 + 3 + 4 + 1 + 2 + 3 + 4 + 1 + 2 + 3 + 4 +

G|-----------------------------------------------------------------|
D|-----------------------------------------------------------------|
A|-----------------------------------------------------------------|
D|-0---------------3---------------4-------------------------------|
   1 + 2 + 3 + 4 + 1 + 2 + 3 + 4 + 1 + 2 + 3 + 4 + 1 + 2 + 3 + 4 +

Chorus 4:57
G|-----------------------------------------------------------------|
D|-----------------------------------------------------------------|
A|-----------------------------------------------------------------|
D|-0-----3-----7-----3-----0---6---4-----4-4-------4-3-2-1-4-------|
   1 + 2 + 3 + 4 + 1 + 2 + 3 + 4 + 1 + 2 + 3 + 4 + 1 + 2 + 3 + 4 +

G|-----------------------------------------------------------------|
D|-----------------------------------------------------------------|
A|-----------------------------------------------------------------|
D|-0-----3-----7-----3-----0---6---4-----4-4-------4--4--4-4--4--4-|
   1 + 2 + 3 + 4 + 1 + 2 + 3 + 4 + 1 + 2 + 3 + 4 + Triplet Triplet

G|-------------------------------------------------------------------|
D|o-----------------------------------------------------------------o|
A|o-----------------------------------------------------------------o|
D|--0-----3-----7-----3-----0---6---4--------------------------------|
    1 + 2 + 3 + 4 + 1 + 2 + 3 + 4 + 1 + 2 + 3 + 4 + 1 + 2 + 3 + 4 +

G|-----------------------------------------------------------------|
D|-----------------------------------------------------------------|
A|-----------------------------------------------------------------|
D|-0-----3-----7-----3-----0---6---4-----4-4-----------------------|
   1 + 2 + 3 + 4 + 1 + 2 + 3 + 4 + 1 + 2 + 3 + 4 + 1 + 2 + 3 + 4 +

G|-----------------------------------------------------------------|
D|-----------------------------------------------------------------|
A|-----------------------------------------------------------------|
D|-0-----3-----7-----3-----0---6---4-------------------------------|
   1 + 2 + 3 + 4 + 1 + 2 + 3 + 4 + 1 + 2 + 3 + 4 + 1 + 2 + 3 + 4 +
Tabbed by Dave Vucko

==========================================================

Acid Rain

0:32
G|-------------------------------------------------|
D|-------------------------------------------------|
A|-5-----------3-----------1---------1-0-----1-----|
D|-------------------------------------------------|
   1 2 3 4 5 6 1 2 3 4 5 6 1 2 3 4 5 6 1 2 3 4 5 6

G|-------------------------------------------------|
D|-------------------------------------------------|
A|-------------------------0---------0-0---0-0-----|
D|-5-----------3-----------------------------------|
   1 2 3 4 5 6 1 2 3 4 5 6 1 2 3 4 5 6 1 2 3 4 5 6

G|-------------------------------------------------|
D|-------------------------------------------------|
A|-5-----------3-----------1---------1-0-----1-----|
D|-------------------------------------------------|
   1 2 3 4 5 6 1 2 3 4 5 6 1 2 3 4 5 6 1 2 3 4 5 6

G|-------------------------------------------------|
D|-------------------------------------------------|
A|-------------------------0-------0-0-0-----------|
D|-5-----------3-----------------------------------|
   1 2 3 4 5 6 1 2 3 4 5 6 1 2 3 4 5 6 1 2 3 4 5 6

1:02 Verse
G|-------------------------------------------------|
D|-------------------------------------------------|
A|-----------------------1-3---------3-3-----3-----|
D|-5---------5-5-------5---------------------------|
   1 2 3 4 5 6 1 2 3 4 5 6 1 2 3 4 5 6 1 2 3 4 5 6

G|-------------------------------------------5-----|
D|---------------------------------------------5---|
A|-----------------------1-3-----------3---------3-|
D|-5---------5-5-------5---------------------------|
   1 2 3 4 5 6 1 2 3 4 5 6 1 2 3 4 5 6 1 2 3 4 5 6

G|---------------------------------------------------|
D|---------------------5h7-5-------------------------|
A|-------------------3-------3---------3-3-----------|
D|-5---------------5---------------------------------|
   1 2 3 4 5 6 1 2 3 4 5   6 1 2 3 4 5 6 1 2 3 4 5 6

G|-------------------------------------------------|
D|-------------------------------------------------|
A|-----------------------1-3---------3-3-----------|
D|-5---------5-5-----5-5---------------------------|
   1 2 3 4 5 6 1 2 3 4 5 6 1 2 3 4 5 6 1 2 3 4 5 6

Pre Chorus 1:34
G|-------------------------------------------------------|
D|-------------------------------------------------------|
A|-0---------0-0---0-0---0-0-0-0-0-0-0/12-12-12-12-12-12-|
D|-------------------------------------------------------|
   1 2 3 4 5 6 1 2 3 4 5 6 1 2 3 4 5 6 1  2  3  4  5  6

Chorus 1:42
G|-------------------------------------------------|
D|-------------------------------------------------|
A|-5-----5-----3-----3---3-1---------1-0-----1-----|
D|-------------------------------------------------|
   1 2 3 4 5 6 1 2 3 4 5 6 1 2 3 4 5 6 1 2 3 4 5 6

G|-------------------------------------------------|
D|-------------------------------------------------|
A|-------------------------0-----0---0-0-----0-----|
D|-5-----------3-----------------------------------|
   1 2 3 4 5 6 1 2 3 4 5 6 1 2 3 4 5 6 1 2 3 4 5 6

Verse 1:57
G|-------------------------------------------------|
D|-----------------------5-------------------------|
A|---------------------3---3---------3-3-----3-----|
D|-5-----------------5-----------------------------|
   1 2 3 4 5 6 1 2 3 4 5 6 1 2 3 4 5 6 1 2 3 4 5 6

G|-------------------------------------------2-----|
D|---------------------------------------------3---|
A|-----------------------1-3---3-3---3-3---------3-|
D|-5-------------------5---------------------------|
   1 2 3 4 5 6 1 2 3 4 5 6 1 2 3 4 5 6 1 2 3 4 5 6

G|-------------------------------------------------|
D|-------------------------------------------------|
A|-----------------------1-3---3-3---3-3-----3-----|
D|-5-----------5-------5---------------------------|
   1 2 3 4 5 6 1 2 3 4 5 6 1 2 3 4 5 6 1 2 3 4 5 6

G|-------------------------------------------------|
D|-------------------------------------------------|
A|-----------------------1-3-----3---3-3-----3-1---|
D|-5---------5-5-------5-------------------------5-|
   1 2 3 4 5 6 1 2 3 4 5 6 1 2 3 4 5 6 1 2 3 4 5 6

Pre Chorus 2:28
G|-------------------------------------------14-14-------|
D|----------------------------------------14-------14----|
A|-0-----0---0-0---0-0---0-0-0-0-0-0-0-12-------------12-|
D|-------------------------------------------------------|
   1 2 3 4 5 6 1 2 3 4 5 6 1 2 3 4 5 6 1  2  3  4  5  6

Chorus 2:36
G|-------------------------------------------------|
D|-------------------------------------------------|
A|-5-----5---5-3-----3---3-1---------1-0-----1-----|
D|-------------------------------------------------|
   1 2 3 4 5 6 1 2 3 4 5 6 1 2 3 4 5 6 1 2 3 4 5 6

G|-------------------------------------------------|
D|---------------------------------------------7---|
A|-------------------------0-----0---0-0-----0-----|
D|-5---------5-3---------3-------------------------|
   1 2 3 4 5 6 1 2 3 4 5 6 1 2 3 4 5 6 1 2 3 4 5 6

G|-------------------------------------------------|
D|-------------------------------------------------|
A|-5-----5-5-5-3---------3-1---------1-0-----0-1---|
D|-------------------------------------------------|
   1 2 3 4 5 6 1 2 3 4 5 6 1 2 3 4 5 6 1 2 3 4 5 6

G|-------------------------------------------------|
D|-------------------------------------------------|
A|-------------------------0---------0-0-----------|
D|-5---------5-3-----------------------------------|
   1 2 3 4 5 6 1 2 3 4 5 6 1 2 3 4 5 6 1 2 3 4 5 6

Interlude
G|-------------------------------------------------|
D|-------------------------------------------------|
A|-1-----0-----------------------------------------|
D|-------------5-----3-----0-----------------------|
   1 2 3 4 5 6 1 2 3 4 5 6 1 2 3 4 5 6 1 2 3 4 5 6

Bridge 3:15
G|-------------------------------------------------|
D|-------------------------------------------------|
A|-------------0-----------1-----------2-----------|
D|-5-----------------------------------------------|
   1 2 3 4 5 6 1 2 3 4 5 6 1 2 3 4 5 6 1 2 3 4 5 6

G|-------------------------------------------------|
D|-------------------------------------------------|
A|-3-----------4-----------5-----------7-----------|
D|-------------------------------------------------|
   1 2 3 4 5 6 1 2 3 4 5 6 1 2 3 4 5 6 1 2 3 4 5 6

G|-------------------------------------------------|
D|-------10----------10----------------------------|
A|-8-----------7-----------8-----------9-----------|
D|-------------------------------------------------|
   1 2 3 4 5 6 1 2 3 4 5 6 1 2 3 4 5 6 1 2 3 4 5 6

G|-------------------------------------------------|
D|-5-----------7-----------8-----8-7-8-------------|
A|-------------------------------------5-5-5-5-5-5-|
D|-------------------------------------------------|
   1 2 3 4 5 6 1 2 3 4 5 6 1 2 3 4 5 6 1 2 3 4 5 6

Solo 3:46
G|-------------------------------------------------|
D|-------------------------------------------------|
A|-----------------------1-3-----------3-----3-3-5-|
D|-5---------5-5-------5---------------------------|
   1 2 3 4 5 6 1 2 3 4 5 6 1 2 3 4 5 6 1 2 3 4 5 6

G|-------------------------------------5-----------|
D|-----------------------------------------5-------|
A|-----------------------1-3---3-3-3-3---------3---|
D|-5---------5-5-------5---------------------------|
   1 2 3 4 5 6 1 2 3 4 5 6 1 2 3 4 5 6 1 2 3 4 5 6

G|-------------------------------------------------|
D|-------------------------------------------------|
A|-----------------------1-3---------3-3-----3-----|
D|-5-----------5-------5---------------------------|
   1 2 3 4 5 6 1 2 3 4 5 6 1 2 3 4 5 6 1 2 3 4 5 6

G|-------------------------------------------------|
D|-------------------------------------------------|
A|-----------------------1-3-----------------------|
D|-5-----------5-------5---------------------------|
   1 2 3 4 5 6 1 2 3 4 5 6 1 2 3 4 5 6 1 2 3 4 5 6

Pre Chorus 4:17
G|-------------------------------------------------------|
D|-------------------------------------------------------|
A|-0---0-0---0-0---0-0---0-0-0-0-0-0-0/12-12-12-12-12-12-|
D|-------------------------------------------------------|
   1 2 3 4 5 6 1 2 3 4 5 6 1 2 3 4 5 6 1  2  3  4  5  6

Chorus 4:25
G|-------------------------------------------------|
D|-------------------------------------------------|
A|-5-----5-----3-----3---3-1-----1---1-0---0-1---1-|
D|-------------------------------------------------|
   1 2 3 4 5 6 1 2 3 4 5 6 1 2 3 4 5 6 1 2 3 4 5 6

G|-------------------------------------------------|
D|-------------------------------------------7-----|
A|-------------------------0-----0---0-0-----------|
D|-5-----5---5-3---------3-------------------------|
   1 2 3 4 5 6 1 2 3 4 5 6 1 2 3 4 5 6 1 2 3 4 5 6

G|-------------------------------------------------|
D|-------7-----------7-----------------------------|
A|-5-----------3-----------1---------1-0-----1-----|
D|-------------------------------------------------|
   1 2 3 4 5 6 1 2 3 4 5 6 1 2 3 4 5 6 1 2 3 4 5 6

G|-------------------------------------------------|
D|-------------------------------------7-----------|
A|-------------------------0---0-0---0-------------|
D|-5-----5---5-3-----3---3-------------------------|
   1 2 3 4 5 6 1 2 3 4 5 6 1 2 3 4 5 6 1 2 3 4 5 6

Outro
G|-------------------------------------------------|
D|-------------------------------------------------|
A|-1-----0-----------------------------------------|
D|-------------5-----3-----0-----0-----0-----0-----|
   1 2 3 4 5 6 1 2 3 4 5 6 1 2 3 4 5 6 1 2 3 4 5 6

G|---------------------------------------------------|
D|o-------------------------------------------------o|
A|o-1-----0-----------------------------------------o|x3
D|--------------5-----3-----0------------------------|
    1 2 3 4 5 6 1 2 3 4 5 6 1 2 3 4 5 6 1 2 3 4 5 6
Tabbed by Dave Vucko
comments
print report bad tab
I want to post or [tab]
guest
You may want to rate the tab now too:
select rating
Please do not post tabs as comments. Select "correction" instead!