Oops, an error
Loading. Please wait.

Lips Of Deceit Bass Tab

ver2
ver2

Whole song

More versions @911Tabs.com
86 views 1 this week
no commentswrite comment
1 2 3 4 5
accurate
x 2
Autoscroll
+/-
esc
set tempo
stop
Contributor
Tuning
D A D G B E
WARNING: You are trying to view
                                    content from Ultimate-Guitar.com
                                    in an unauthorized application,
                                    which is prohibited.

                                    Please use an official Ultimate
                                    Guitar Tabs application for iPhone,
                                    iPad or Android to access legitimate
                                    chords, guitar, bass, and drum tabs
                                    from Ultimate-Guitar.com database.

                                    Type "ultimate guitar tabs" in Apple
                                    App Store's or Android Market's
                                    search to find the application.
0:19
G|-----------------------------------------------------------------|
D|-----------------------------------------------------------------|
A|-5---------0/3---1-------------7-8-------------8-7-------3-----7-|
D|-----------------------------------------------------------------|
   1 + 2 + 3 + 4 + 1 + 2 + 3 + 4 + 1 + 2 + 3 + 4 + 1 + 2 + 3 + 4 +

G|-----------------------------------------------------------------|
D|-----------------------------------------------------------------|
A|-5---------7-8-7-1-------1---0-------------------3---------1-3-1-|
D|-------------------------------5-3-----------3-------------------|
   1 + 2 + 3 + 4 + 1 + 2 + 3 + 4 + 1 + 2 + 3 + 4 + 1 + 2 + 3 + 4 +

G|-----------------------------------------------------------------|
D|-----------------------------------------------------------------|
A|-0-0-0-0-0-0-0-0-0-0-0-0-0-0-0-0-0-0-0-0-0-0-0-0-0-0-0-0-0-0-0-0-|
D|-----------------------------------------------------------------|
   1 + 2 + 3 + 4 + 1 + 2 + 3 + 4 + 1 + 2 + 3 + 4 + 1 + 2 + 3 + 4 +

0:46
G|-----------------------------------------------------------------|
D|-------------------------------2-3-3-3-3-3-3-3-3-2---2---2-3-2---|
A|-5---5-5-5-5-5-0-1---1-1-1-1-1-------------------------3-------3-|
D|-----------------------------------------------------------------|
   1 + 2 + 3 + 4 + 1 + 2 + 3 + 4 + 1 + 2 + 3 + 4 + 1 + 2 + 3 + 4 +

G|-----------------------------------------------------------------|
D|-----------1-2-3-------------------------------------------------|
A|-5-----5-5-------1---1-1-1-1-0-------------------3-----3-3---3---|
D|-------------------------------5-3-----3-3-3---3-----------------|
   1 + 2 + 3 + 4 + 1 + 2 + 3 + 4 + 1 + 2 + 3 + 4 + 1 + 2 + 3 + 4 +

G|-----------------------------------------------------------------|
D|-----------------------------------------------------------------|
A|-0-0-0-0-0-0-0-0-0-0-0-0-0-0-0-0-0-------------------------------|
D|-----------------------------------------------------------------|
   1 + 2 + 3 + 4 + 1 + 2 + 3 + 4 + 1 + 2 + 3 + 4 + 1 + 2 + 3 + 4 +

rest

1:18
G|-----------------------------------------------------------------|
D|-----------------------------------------------------------------|
A|-------------3-3-1-1-1-1-1-1-0-0---------3-------0-0-0-0-0-0-0---|
D|-0-0-0-0-0-0---------------------5-5-5-5-----5-----------------5-|
   1 + 2 + 3 + 4 + 1 + 2 + 3 + 4 + 1 + 2 + 3 + 4 + 1 + 2 + 3 + 4 +

G|-----------------------------------------------------------------|
D|-----------------------------------------------------------------|
A|-------------3-3-1-1-1-1-1-1-0-0---------3---4---5---5---5---5---|
D|-0-0-0-0-0-0---------------------5-5-5-5-------------------------|
   1 + 2 + 3 + 4 + 1 + 2 + 3 + 4 + 1 + 2 + 3 + 4 + 1 + 2 + 3 + 4 +

1:28
G|-----------------------------------------------------------------|
D|-----------------------------------------------------------------|
A|-------------3---1---1---1---0-----------3-------0---0---0---0---|
D|-0---0---0-----------------------5---5-------5-----------------5-|
   1 + 2 + 3 + 4 + 1 + 2 + 3 + 4 + 1 + 2 + 3 + 4 + 1 + 2 + 3 + 4 +

G|-----------------------------------------------------------------|
D|-----------------------------------------------------------------|
A|-------------3---1---1---1---0-----------3---4---5---5---5---5---|
D|-0---0---0-----------------------5---5---------------------------|
   1 + 2 + 3 + 4 + 1 + 2 + 3 + 4 + 1 + 2 + 3 + 4 + 1 + 2 + 3 + 4 +

1:37
G|-----------------------------------------------------------------|
D|-----------------------------------------------------------------|
A|-------------3---1---1---1---0-----------3-------0---0---0---0---|
D|-0---0---0-----------------------5---5-------5-----------------5-|
   1 + 2 + 3 + 4 + 1 + 2 + 3 + 4 + 1 + 2 + 3 + 4 + 1 + 2 + 3 + 4 +

G|-------------------------------------------------|
D|-------------------------------------------------|
A|-------------3---1---1---1---0-----------3---4---|
D|-0---0---0-----------------------5---5-----------|
   1 + 2 + 3 + 4 + 1 + 2 + 3 + 4 + 1 + 2 + 3 + 4 +

Triplets
G|-------------------------------------|
D|-7--5-----5--------------------------|
A|-------8-----8--7--5--7--8--7--5--3--|
D|-------------------------------------|
   1  2  3  1  2  3  1  2  3  1  2  3

1:48
G|-----------------------------------------------------------------|
D|-----------------------------------------------------------------|
A|-----------7-7-7h8-8-8-8-8-0-0-0h1-1-1-1-1-1-1-1---------4-4-4-4-|
D|-0-0-0-0-0---------------------------------------3-3-3-3---------|
   1 + 2 + 3 + 4 + 1 + 2 + 3 + 4 + 1 + 2 + 3 + 4 + 1 + 2 + 3 + 4 +

G|-----------------------------------------------------------------|
D|---------------------------------5-5-5-5-5-5-5-5---------2-3-2---|
A|-----------7-7-7h8-8-8-8-8-8-8-8-----------------3-3-3-3-------3-|
D|-0-0-0-0-0-------------------------------------------------------|
   1 + 2 + 3 + 4 + 1 + 2 + 3 + 4 + 1 + 2 + 3 + 4 + 1 + 2 + 3 + 4 +

1:59
G|-----------------------------------------------------------------|
D|-----------------------------------------------------------------|
A|-----------7-7-7h8-8-8-8-8-0-0-0h1-1-1-1-1-1-1-1---------4-4-4-4-|
D|-0-0-0-0-0---------------------------------------3-3-3-3---------|
   1 + 2 + 3 + 4 + 1 + 2 + 3 + 4 + 1 + 2 + 3 + 4 + 1 + 2 + 3 + 4 +

G|-----------------------------------------------------------------|
D|---------------------------------5---5-5---5-5-5---------2-3-2---|
A|-----------7-7-7h8-8-8-8-8-8-8-8-----------------3-3-3---------3-|
D|-0-0-0-0-0-------------------------------------------------------|
   1 + 2 + 3 + 4 + 1 + 2 + 3 + 4 + 1 + 2 + 3 + 4 + 1 + 2 + 3 + 4 +

2:09
G|-----------------------------------------------------------------|
D|-----------------------------------------------------------------|
A|-----------7-7-7h8-8-8-8-8-0-0-0h1-1-1-1-1-1-1-1---------4-4-4-4-|
D|-0-0-0-0-0---------------------------------------3-3-3-3---------|
   1 + 2 + 3 + 4 + 1 + 2 + 3 + 4 + 1 + 2 + 3 + 4 + 1 + 2 + 3 + 4 +

G|-----------------------------------------------------------------|
D|---------------------------------5-5-5-5-5-5-5-5---------2-3-2---|
A|-----------7-7-7h8-8-8-8-8-8-8-8-----------------3-3-3-3-------3-|
D|-0-0-0-0-0-------------------------------------------------------|
   1 + 2 + 3 + 4 + 1 + 2 + 3 + 4 + 1 + 2 + 3 + 4 + 1 + 2 + 3 + 4 +

2:20
G|-----------------------------------------------------------------|
D|-----------------------------------------------------------------|
A|-----------7-7-7h8-8-8-8-8-0-0-0h1-1-1-1-1-1-1-1---------4-4-4-4-|
D|-0-0-0-0-0---------------------------------------3-3-3-3---------|
   1 + 2 + 3 + 4 + 1 + 2 + 3 + 4 + 1 + 2 + 3 + 4 + 1 + 2 + 3 + 4 +

G|-----------------------------------------------------------------|
D|---------------------------------5-5-5-5-5-5-5-5-----------------|
A|-----------7-7-7h8-8-8-8-8-8-8-8-----------------3-3-3-3---------|
D|-0-0-0-0-0-------------------------------------------------3-3-3-|
   1 + 2 + 3 + 4 + 1 + 2 + 3 + 4 + 1 + 2 + 3 + 4 + 1 + 2 + 3 + 4 +

2:30
G|-----------------------------------------------------------------|
D|-----------------------------------------------------------------|
A|-------------3---1---1-1-1-1-1-5-3---3-3-3-3-3-4-5---5-5-5-5-----|
D|-0---0-0-0-0-------------------------------------------------5-3-|
   1 + 2 + 3 + 4 + 1 + 2 + 3 + 4 + 1 + 2 + 3 + 4 + 1 + 2 + 3 + 4 +

G|-----------------------------------------------------------------|
D|-----------------------------------------------------------------|
A|-------------3---1---1-1-1-1-1-5-3---3-3-3-3-5-7-5---5-5-5-5-----|
D|-0---0-0-0-0-------------------------------------------------5-3-|
   1 + 2 + 3 + 4 + 1 + 2 + 3 + 4 + 1 + 2 + 3 + 4 + 1 + 2 + 3 + 4 +

2:40
G|-----------------------------------------------------------------|
D|-----------------------------------------------------------------|
A|-------------3-\-1---1-1-1-1-1-/-3---3-3-3-3-3-/-5---5---5---5---|
D|-0---0-0-0-0-----------------------------------------------------|
   1 + 2 + 3 + 4 + 1 + 2 + 3 + 4 + 1 + 2 + 3 + 4 + 1 + 2 + 3 + 4 +

G|-----------------------------------------------------------------|
D|-----------------------------------------------------------------|
A|-------------3-\-1---1-1-1-1-1-/-3---3-3-3-3-5-7-5---5---5---5---|
D|-0---0---0-------------------------------------------------------|
   1 + 2 + 3 + 4 + 1 + 2 + 3 + 4 + 1 + 2 + 3 + 4 + 1 + 2 + 3 + 4 +

G|-----------------------------------------------------------------|
D|-----------------------------------------------------------------|
A|-----------------------------------------------------------------|
D|-0-r-------------------------------------------------------------|

G|-----------------------------------------------------------------|
D|-----------------------------------------------------------------|
A|-----------------------------------------------------------------|
D|-0---------------------------------------------------------------|

3:00
G|-----------------------------------------------------------------|
D|-----------------------------------------------------------------|
A|-------------3---1---1---1---1-2-3---3---3---3-4-5---5---5-------|
D|-0---0---0---------------------------------------------------5-3-|
   1 + 2 + 3 + 4 + 1 + 2 + 3 + 4 + 1 + 2 + 3 + 4 + 1 + 2 + 3 + 4 +

G|-----------------------------------------------------------------|
D|-----------------------------------------------------------------|
A|-------------3---1---1-1-1-1-1-1-3---3-3-3-3-3-3-5---5---5-------|
D|-0---0---0---------------------------------------------------5-3-|
   1 + 2 + 3 + 4 + 1 + 2 + 3 + 4 + 1 + 2 + 3 + 4 + 1 + 2 + 3 + 4 +

3:09
G|-----------------------------------------------------------------|
D|-----------------------------------------------------------------|
A|-------------3---1---1---1---1---3---3---3---3---5---5---5-------|
D|-0---0---0---------------------------------------------------0---|
   1 + 2 + 3 + 4 + 1 + 2 + 3 + 4 + 1 + 2 + 3 + 4 + 1 + 2 + 3 + 4 +

G|-----------------------------------------------------------------|
D|-----------------------------------------------------------------|
A|-------------3---1---1---1-1-1-1-3---3-3-3-3-5-7-5---5---5---3---|
D|-0---0---0-------------------------------------------------------|
   1 + 2 + 3 + 4 + 1 + 2 + 3 + 4 + 1 + 2 + 3 + 4 + 1 + 2 + 3 + 4 +

3:18
G|-----------------------------------------------------------------|
D|-----------------------------------------------------------------|
A|-5-----5-----5-----5-----3-3-3-3-5-5---5-----5-5---5-----3-3-3-3-|
D|-----------------------------------------------------------------|
   1 + 2 + 3 + 4 + 1 + 2 + 3 + 4 + 1 + 2 + 3 + 4 + 1 + 2 + 3 + 4 +

G|-----------------------------------------------------------------|
D|-----------------------------------------------------------------|
A|-5-5---5-----5-5---5-----3-3-3-3-5-----6-----5-------------------|
D|-----------------------------------------------------------------|
   1 + 2 + 3 + 4 + 1 + 2 + 3 + 4 + 1 + 2 + 3 + 4 + 1 + 2 + 3 + 4 +

3:27
G|-----------------------------------------------------------------|
D|-----------------------------------------------------------------|
A|-5-------------------------------5-------------------------------|
D|-------6-----5-----0-3-5-6-5-3-0-------6-----5-----0-3-5-6-5-3-0-|
   1 + 2 + 3 + 4 + 1 + 2 + 3 + 4 + 1 + 2 + 3 + 4 + 1 + 2 + 3 + 4 +

G|-----------------------------------------------------------------|
D|-----------------------------------------------------------------|
A|-5-------------------------------5-----------5-------------------|
D|-------6-----5-----0-3---6-5-3-0-------6-------------------------|
   1 + 2 + 3 + 4 + 1 + 2 + 3 + 4 + 1 + 2 + 3 + 4 + 1 + 2 + 3 + 4 +

3:37
G|-----------------------------------------------------------------|
D|-----------------------------------------------------------------|
A|-5-----------5-----6-6-6-6-6-6-6-5-----------5-------------------|
D|-------6-------------------------------6-------------------------|
   1 + 2 + 3 + 4 + 1 + 2 + 3 + 4 + 1 + 2 + 3 + 4 + 1 + 2 + 3 + 4 +

G|---------------------------------|
D|---------------------------------|
A|-5-----------5-------------------|
D|-------6-------------------------|
   1 + 2 + 3 + 4 + 1 + 2 + 3 + 4 + 

3:44
G|------------------------------------------------------------------|
D|o-----------------------------------------------------------------|
A|o-----------------0-0-0-0-0-0-0-0-1-1-1-1-1-1-1-1-----------------|
D|--0-0-0-0-0-0-0-0---------------------------------3-3-3-3-2-2-2-2-|
    1 + 2 + 3 + 4 + 1 + 2 + 3 + 4 + 1 + 2 + 3 + 4 + 1 + 2 + 3 + 4 +

G|------------------------------------------------------------------|---|
D|-----------------------------------------------------------------o|---|
A|-----------------0-0-0-0-0-0-0-0-1-1-1-1-1-1-1-1-----------------o|---|
D|-0-0-0-0-0-0-0-0---------------------------------3---3---2---2----|-0-|
   1 + 2 + 3 + 4 + 1 + 2 + 3 + 4 + 1 + 2 + 3 + 4 + 1 + 2 + 3 + 4 +
Tabbed by Dave Vucko
comments
We did not receive enough feedback on this tab! Please rate:
1 2 3 4 5
I want to post or [tab]
guest
You may want to rate the tab now too:
select rating
Please do not post tabs as comments. Select "correction" instead!