Oops, an error
Loading. Please wait.

Natural Born Killer Tab

ver3
ver3

Solo

Whole song

More versions @911Tabs.com
17,140 views 18 this week
no commentswrite comment
1 2 3 4 5
accurate
x 8
Autoscroll
+/-
esc
set tempo
stop
Contributor
Difficulty
Tuning
advanced
D A D G B E
Hey! There's an official Ultimate Guitar app which is ideal
for learning songs when you're away from computer. Get the app
WARNING: You are trying to view
                                    content from Ultimate-Guitar.com
                                    in an unauthorized application,
                                    which is prohibited.

                                    Please use an official Ultimate
                                    Guitar Tabs application for iPhone,
                                    iPad or Android to access legitimate
                                    chords, guitar, bass, and drum tabs
                                    from Ultimate-Guitar.com database.

                                    Type "ultimate guitar tabs" in Apple
                                    App Store's or Android Market's
                                    search to find the application.
#----------------------------------PLEASE NOTE---------------------------------#
#This file is the author's own work and represents their interpretation of the #
#song. You may only use this file for private study, scholarship, or research. #
#------------------------------------------------------------------------------##

                               NATURAL BORN KILLER
                        As recorded by Avenged Sevenfold
                         (From the 2010 Album NIGHTMARE)

Words and Music by Avenged Sevenfold
Transcribed by Liam Briggs - lb.guitar.boy@gmail.com

          Bb5                  C#5                  Eb5                Bbsus2
      8 8 8 x x x        11 11 11 x x x         x 6 8 8 x x         8 8 10 10 8 8

         Gsus2                 D5                   A5                   G5
      5 5 7 7 5 5          0 0 0 x x x          7 7 7 x x x          5 5 5 x x x

    Bbsus2(type 2)            Csus2                A/C#              Eb5(type 2)
     8 8 10 x x x        10 10 12 x x x       11 12 14 x x x       13 13 13 x x x

      Eb5(type 3)
      1 1 x x x x

Gtr I (D A D G B E) - 'Left Rhy.'
Gtr II (D A D G B E) - 'Right Rhy.'
Gtr III (D A D G B E) - 'Pick Slides'
Gtr IV (D A D G B E) - 'Neutral Lead'
Gtr V (D A D G B E) - 'Left Lead'
Gtr VI (D A D G B E) - 'Right Lead'

   Intro
    Fast Q=184
    N.C.                                       Bb5C#5
   4/4
    Gtr II
    W                              H           Q   Q
                                               |   |
                                               /   /

    Gtr I
               PM|    PM|    PM|     PM|   PM|
    S S S S  E S S  E S S  E S S   E S S E S S Q   Q  3x
||-------------------------------|--------------------||
||o------------------------------|-------------------o||
||-------------------------------|--------------------||
||-------------------------------|-------------8--11--||
||o------------------------------|-------------8--11-o||
||--0-0-0-0-12-0-0-11-0-0-12-0-0-|-8-0-0-7-0-0-8--11--||


  D5             C#5    D5       Bb5   A5     Bb5C#5
  Gtr I
             PM|    PM|    PM|     PM|    PM|
  S S S S  E S S  E S S  E S S   E S S E  S S Q   Q
|------------------------------|---------------------|
|------------------------------|---------------------|
|------------------------------|---------------------|
|------------------------------|--------------8--11--|
|------------------------------|--------------8--11--|
|-0-0-0-0-12-0-0-11-0-0-12-0-0-|-8-0-0-7--0-0-8--11--|
|
| Gtr III                                     Gtr II
| TP       TP     TP     TP      TP    TP
| Q        Q      Q      Q       Q     Q      Q   Q
|------------------------------|---------------------|
|------------------------------|---------------------|
|------------------------------|---------------------|
|-xs=======xs=====xs=====xs====|=xs====x/-----8--11--|
|-xs=======xs=====xs=====xs====|=xs====x/-----8--11--|
|------------------------------|--------------8--11--|


    D5             C#5    D5       Bb5   A5    Bb5C#5
    Gtrs I, II
               PM|    PM|    PM|     PM|   PM|
    S S S S  E S S  E S S  E S S   E S S E S S Q   Q   4x
||-------------------------------|---------------------||
||o------------------------------|--------------------o||
||-------------------------------|---------------------||
||-------------------------------|-------------8--11---||
||o------------------------------|-------------8--11--o||
||--0-0-0-0-12-0-0-11-0-0-12-0-0-|-8-0-0-7-0-0-8--11---||


  Eb5
  Gtrs I, II
   E     E     E     E     E     E     E     E
   |     |     |     |     |     |     |     |
   /     /     /     /     /     /     /     /

  Gtr IV
   S  S  S  S  S  S  S  S  S  S  S  S  S  S  S  S
|-------------------18-16-------------------------|
|-20-18-16----------------20-18-------20-18-16----|
|----------19-17-15-------------17-15----------19-|
|-------------------------------------------------|
|-------------------------------------------------|
|-------------------------------------------------|


   E     E     E     E     E        E        E     E
   |     |     |     |     |        |        |     |
   /     /     /     /     /        /        /     /

                           |------6-------|        |--3--|
   S  S  S  S  S  S  S  S  S  S  S  S  S  S  S  S  S  S  S
|----------------------------------------------------------|
|-------16-------------------------------16-15p11S13h15h16-|
|-17-15----19-17-15----------15h16-17h19-------------------|
|-------------------18-17S18-------------------------------|
|----------------------------------------------------------|
|----------------------------------------------------------|


   E     E     E     E     E        E     E     E
   |     |     |     |     |        |     |     |
   /     /     /     /     /        /     /     /

                           |--3--|
   S  S  S  S  S  S  S  S  S  S  S  S  S  S  S  S  S
|-------------------18-16----------------------------|
|-20-18-16----------------19p17p16-------20-18-------|
|----------19-17-16----------------17p15-------20-19-|
|----------------------------------------------------|
|----------------------------------------------------|
|----------------------------------------------------|


   E        E     E     E     E E Q
   |        |     |     |     |
   /        /     /     /     /

   |--3--|
   S  S  S  S  S  S  S  S  S  E E Q
|------------------------------------||
|------------------------------------||
|----17-19-20-19-17------------------||
|-20----------------20-18-17-17------||
|------------------------------------||
|------------------------------------||


    $
    D5         F5D5  G5D5A5D5AbD5  D5
    Gtrs I, II
       PM----|
    Q  E E E E E E   E E E E E E E E
||-----------------|-----------------|
||o----------------|-----------------|
||-----------------|-----------------|
||-----------------|-----------------|
||o-0--------------|-----------------|
||--0--0-0-0-0-3p0-|-5p0-7p0-6p0-5p0-|


  F5D5
      PM------------------------------------------|
  E E E E E E E E   S S S S S S S S S S S S S S S S
|-----------------|----------------------------------||
|-----------------|---------------------------------o||
|-----------------|----------------------------------||
|-----------------|----------------------------------||
|-----------------|---------------------------------o||
|-3p0-0-0-0-0-0-0-|-0-0-0-0-0-0-0-0-0-0-0-0-0-0-0-0--||


 Verse
  D5                       Bb5C#5   D5                       Bb5C#5
  Gtrs I, II
     PM------------------|             PM------------------|
  Q  E E E E E E   E E E E Q   Q    Q  E E E E E E   E E E E Q   Q
|----------------|----------------|----------------|----------------|
|----------------|----------------|----------------|----------------|
|----------------|----------------|----------------|----------------|
|-0--------------|---------8--11--|-0--------------|---------8--11--|
|-0--0-0-0-0-0-0-|-0-0-0-0-8--11--|-0--0-0-0-0-0-0-|-0-0-0-0-8--11--|
|-0--0-0-0-0-0-0-|-0-0-0-0-8--11--|-0--0-0-0-0-0-0-|-0-0-0-0-8--11--|


  D5                                 G5D5A5D5BbD5A5D5  G5D5A5D5G5D5A5D5
     PM--------------------------|
  Q  E E E E E E   E E E E E E E E   E E E E E E E E   E E E E E E E E
|----------------|-----------------|-----------------|-----------------|
|----------------|-----------------|-----------------|-----------------|
|----------------|-----------------|-----------------|-----------------|
|-0--------------|-----------------|-----------------|-----------------|
|-0--0-0-0-0-0-0-|-0-0-0-0-0-0-0-0-|-----------------|-----------------|
|-0--0-0-0-0-0-0-|-0-0-0-0-0-0-0-0-|-5p0-7p0-8p0-7p0-|-5p0-7p0-5p0-7p0-|


    Eb5
    E E E E E E E E   E E E E E E E E
||------------------|-----------------|
||o-----------------|-----------------|
||--8-8-8-8-8-8-8-8-|-8-8-8-8-8-8-8-8-|
||--8-8-8-8-8-8-8-8-|-8-8-8-8-8-8-8-8-|
||o-6-6-6-6-6-6-6-6-|-6-6-6-6-6-6-6-6-|
||------------------|-----------------|


                                       F5
                    PM------------|
  E E E E E E E E   S S S S S S S S Q   Q
|-----------------|-------------------------|
|-----------------|-------------------------|
|-8-8-8-8-8-8-8-8-|-----------------8--10---|
|-8-8-8-8-8-8-8-8-|-----------------8--10---|
|-6-6-6-6-6-6-6-6-|-6-6-6-6-6-6-6-6-6---8---|
|-----------------|-------------------------|


  D5         F5D5  G5D5A5D5AbD5G5D5  F5D5
     PM----|                             PM-----------
  Q  E E E E E E   E E E E E E E E   E E E E E E E E
|----------------|-----------------|-----------------|
|----------------|-----------------|-----------------|
|----------------|-----------------|-----------------|
|----------------|-----------------|-----------------|
|-0--------------|-----------------|-----------------|
|-0--0-0-0-0-3p0-|-5p0-7p0-6p0-5p0-|-3p0-0-0-0-0-0-0-|


 -------------------------------|
  S S S S S S S S S S S S S S S S
|-----------------------------------||
|----------------------------------o||
|-----------------------------------||
|-----------------------------------||
|----------------------------------o||
|-0-0-0-0-0-0-0-0-0-0-0-0-0-0-0-0---||


 Pre-Chorus
  Bbsus2                        Gsus2
  Gtr IV
   W           +W               W          +W
   |            |               |           |
   /            /               /           /

  Gtrs I, II
   W           +H.       +Q     W          +H.      +Q
|-----------|-----------------|----------|---------------|
|-----------|-----------------|----------|---------------|
|-----------|-----------------|----------|---------------|
|-10--------|-(10)------(10)S=|=7--------|-(7)------(7)--|
|--8--------|--(8)-------(8)S=|=5--------|-(5)------(5)--|
|--8--------|--(8)-------(8)S=|=5--------|-(5)------(5)--|


  Bbsus2                        C5          A/C#
   W           +W                W           W
   |            |
   /            /

   W           +H.       +Q      W           W
|-----------|-----------------|-----------|---------------||
|-----------|-----------------|-----------|---------------||
|-----------|-----------------|-----------|---------------||
|-10--------|-(10)------(10)/-|-10--------|---------------||
|--8--------|--(8)-------(8)S=|=10--------|-12------------||
|--8--------|--(8)-------(8)S=|=10--------|-11------------||
|
| Gtr III
|                                            TP TP TP TP
|  W            W                W           Q  Q  Q  Q
|-----------|-----------------|-----------|---------------||
|-----------|-----------------|-----------|---------------||
|-----------|-----------------|-----------|---------------||
|-----------|-----------------|-----------|--xs=xs=xs=x\--||
|-----------|-----------------|-----------|--xs=xs=xs=x\--||
|-----------|-----------------|-----------|---------------||


   Chorus
    D5               A5
    Gtrs I, II
    Q.   E Q   Q      Q.    E  Q   Q
    |    | |   |      |     |  |   |
    /    / /   /      /     /  /   /

    Gtr V
    H      Q  +Q      Q.    E  Q   E  E
||-----------------|--------------------|
||o----------------|--------------------|
||--7------7--(7)S=|=14----14-14--12s14-|
||--x------x-------|--x-----x--x---x----|
||o-5------5--(5)S=|=12----12-12--10s12-|
||-----------------|--------------------|
|
|   Gtr VI
|   H      Q  +Q      Q.    E  H
||-----------------|--------------------|
||o----------------|--------------------|
||--7------7--(7)S=|=14----14-14--------|
||--x------x-------|--x-----x--x--------|
||o-5------5--(5)S=|=12----12-12--------|
||-----------------|--------------------|


  Bb5                G5
   Q.    E  Q   Q     E  E  E  E  E  E  E  E
   |     |  |   |     |  |  |  |  |  |  |  |
   /     /  /   /     /  /  /  /  /  /  /  /

   Q.    E  Q   Q     E  E  E  E  E  E  E  E    3x
|------------------|----------------------------||
|------------------|---------------------------o||
|-15----15-15--15S=|=12-12-12-12S15-15-15-15\---||
|--x-----x--x---x--|--x--x--x--x--x--x--x--x----||
|-13----13-13--13S=|=10-10-10-10S13-13-13-13\--o||
|------------------|----------------------------||
|
|  Q.    E  Q   Q     E  E  E  E  E  E  E  E    3x
|------------------|----------------------------||
|------------------|---------------------------o||
|-15----15-15--15S=|=12-12-12-12-12-12-12-12\---||
|--x-----x--x---x--|--x--x--x--x--x--x--x--x----||
|-13----13-13--13S=|=10-10-10-10-10-10-10-10\--o||
|------------------|----------------------------||


  D5               A5
  Q.   E Q   Q      Q.    E  Q   Q
  |    | |   |      |     |  |   |
  /    / /   /      /     /  /   /

  H      Q  +Q      Q.    E  Q   E  E
|----------------|--------------------|
|----------------|--------------------|
|-7------7--(7)S=|=14----14-14--12s14-|
|-x------x-------|--x-----x--x---x----|
|-5------5--(5)S=|=12----12-12--10s12-|
|----------------|--------------------|
|
| H      Q  +Q      Q.    E  H
|----------------|--------------------|
|----------------|--------------------|
|-7------7--(7)S=|=14----14-14--------|
|-x------x-------|--x-----x--x--------|
|-5------5--(5)S=|=12----12-12--------|
|----------------|--------------------|


  Bb5                G5
   Q.    E  Q   Q     E   E  E  E  E  E   Q
   |     |  |   |     |   |  |  |  |  |   |
   /     /  /   /     /   /  /  /  /  /   /

   Q.    E  Q   Q     E   E  E  E  E  E   E    E
|------------------|-----------------------------|
|------------------|-----------------------------|
|-15----15-15--15S=|=12--12-12-12S15-15--15---15-|
|--x-----x--x---x--|--x---x--x--x--x--x---x----x-|
|-13----13-13--13S=|=10--10-10-10S13-13--13---13-|
|------------------|-----------------------------|
|
|  Q.    E  Q   Q     H.                 +Q
|------------------|-----------------------------|
|------------------|-----------------------------|
|-15----15-15--15S=|=12-----------------(12)/----|
|--x-----x--x---x--|--x--------------------------|
|-13----13-13--13S=|=10-----------------(10)/----|
|------------------|-----------------------------|


                                                  D.S.
  Eb5
  Gtrs I, II
   E      E E  E  E E  E  E     E   E  E  E  E    E Q
   |      | |  |  | |  |  |     |   |  |  |  |
   /      / /  /  / /  /  /     /   /  /  /  /

  Gtrs V, VI
   ~~~~~~~~~~~~~~~~~~~~~~~~~~~~~~~~~~~~~~~
   E      Q    E  Q    E  E    +E   E  Q     E    E Q
|-11-----11---11-11---11-11-|-(11)-11-11----11---------||
|-14b16==14---14-14---14-14-|-(14)-14-14r---14b16------||
|---------------------------|--------------------------||
|---------------------------|--------------------------||
|---------------------------|--------------------------||
|---------------------------|--------------------------||


 Guitar Solo
  G5            D5   Eb5           D5
  Gtrs I, II
  Q.      E  Q  Q      Q.   E  Q   Q
|------------------|------------------|
|------------------|------------------|
|------------------|------------------|
|-5-------5--5--0--|---1----1--1---0--|
|-5-------5--5--0--|---1----1--1---0--|
|-5-------5--5--0--|---1----1--1---0--|
|
| Gtr V
|            ~~~~~~~~~~~~~
| Q   +Q     H        +H       Q   Q
|------------------|------------------|
|------------------|------------------|
|------------------|------------------|
|-5---(5)S===8-----|--(8)------8------|
|------------------|---------------5--|
|------------------|------------------|
|
| Gtr VI
|            ~~~~~~~~~~~~~
| Q   +Q     H        +H       Q   Q
|------------------|------------------|
|------------------|------------------|
|------------------|------------------|
|-8---(8)S==12-----|-(12)-----12\-----|
|------------------|---------------8--|
|------------------|------------------|


  Eb5                 D5    C5              Bb5A5
       PM------|                 PM------|
   Q   S  S  S  S  Q   Q     Q   S  S  S  S Q  Q
|-------------------------|-----------------------|
|-------------------------|-----------------------|
|-------------------------|-----------------------|
|-13--------------13--12--|-10--------------8--7--|
|-13--------------13--12--|-10--------------8--7--|
|-13--13-13-13-13-13--12--|-10--10-10-10-10-8--7--|
|
|  ~~                        ~~
|  H               Q   Q     Q   E     E    Q  Q
|-------------------------|-----------------------|
|-------------------------|-----------------------|
|-------------------------|-----------------------|
|-------------------------|-----------------------|
|--6---------------6---5--|--3---3-----3----1--0--|
|-------------------------|-----------------------|
|
|  ~~                        ~~
|  H               Q   Q     Q   E     E    Q  Q
|-------------------------|-----------------------|
|-------------------------|-----------------------|
|-------------------------|-----------------------|
|-------------------------|-----------------------|
|-10--------------10---8--|--6---6-----6----5--3--|
|-------------------------|-----------------------|


    G5        D5   Eb5       D5
    Q.   E Q  Q    Q.   E Q  Q
|----------------|--------------|
|----------------|--------------|
|----------------|--------------|
|---5----5-5--0--|-1----1-1--0--|
|---5----5-5--0--|-1----1-1--0--|
|---5----5-5--0--|-1----1-1--0--|
|
|   ~~             ~~
|   H      Q  Q    H      Q  Q
|----------------|--------------|
|----------------|--------------|
|----------------|--------------|
|----------------|--------------|
|----------------|--------------|
|---5------5--0--|-1------1--0--|
|
|   ~~             ~~
| a H      Q  Q    Q.   E Q  Q
|----------------|--------------|
|----------------|--------------|
|----------------|--------------|
|----------------|--------------|
|----------------|--------------|
|-5s8------8S=3--|-5----5-5--3--|


  Eb5                   D5    C5               Bb5A5
       PM------|                    PM------|
   Q   S  S  S  S    Q   Q     Q    S  S  S  S Q  Q
|---------------------------|------------------------|
|---------------------------|------------------------|
|---------------------------|------------------------|
|-13----------------13--12--|-10---------------8--7--|
|-13----------------13--12--|-10---------------8--7--|
|-13--13-13-13-13---13--12--|-10---10-10-10-10-8--7--|
|
|  ~~                ~~~~~~~~~~~~~
|  H              a  H         H               Q  Q
|---------------------------|------------------------|
|---------------------------|------------------------|
|---------------------------|------------------------|
|---------------------------|------------------------|
|-----------------3s=5------|--3---------------1--0--|
|--1------------------------|------------------------|
|
|  ~~                ~~~~~~~~~~~~~
|  H              a  H         Q.         E    Q  Q
|---------------------------|------------------------|
|---------------------------|------------------------|
|---------------------------|------------------------|
|---------------------------|------------------------|
|-----------------6s=8------|--6----------6----5--3--|
|--5------------------------|------------------------|


  G5                 D5      Eb5                D5
   Q.        E  Q     Q       Q.        E  Q     Q
|--------------------------|--------------------------|
|--------------------------|--------------------------|
|--------------------------|--------------------------|
|--5---------5--5-----0----|--1---------1--1-----0----|
|--5---------5--5-----0----|--1---------1--1-----0----|
|--5---------5--5-----0----|--1---------1--1-----0----|
|
|  E   E  E  E  E  E  E  E    E   E  E  E  E  E  E  E
|--------------------------|-----------11-15-11-------|
|--------------------------|-11-----11----------11----|
|-----------------12----12-|-----12----------------12-|
|--------12----12----12----|--------------------------|
|-10--13----13-------------|--------------------------|
|--------------------------|--------------------------|
|
|  E   E  E  E  E  E  E  E    E   E  E  E  E  E  E  E
|--------------------------|--------------11----------|
|--------------------------|--8------8-11----11-------|
|------------------7-----7-|------8-------------12----|
|------5--8--5--8-----8----|-----------------------13-|
|--5-----------------------|--------------------------|
|--------------------------|--------------------------|


  Eb5                     D5      C5                Bb5 A5
         PM------|                       PM------|
   Q     S  S  S  S  Q     Q       Q     S  S  S  S  Q   Q
|-------------------------------|---------------------------|
|-------------------------------|---------------------------|
|-------------------------------|---------------------------|
|-13----------------13----12----|-10-----------------8---7--|
|-13----------------13----12----|-10-----------------8---7--|
|-13----13-13-13-13-13----12----|-10----10-10-10-10--8---7--|
|
|                                                        ~~
|  E  E  E     E     E  E  E  E    E  E  E     E     Q   Q
|-18-17-15----------17-15-------|---------------------------|
|-------------16----------16----|-15-16-15----------16--15--|
|----------------------------15-|-------------17------------|
|-------------------------------|---------------------------|
|-------------------------------|---------------------------|
|-------------------------------|---------------------------|
|
|                                                        ~~
|  E  E  E     E     E  E  E  E    E  E  E     E     Q   Q
|-15-13-11----------13-11-------|---------------------------|
|-------------11----------11----|-11-13-11----10----13--11--|
|----------------------------12-|---------------------------|
|-------------------------------|---------------------------|
|-------------------------------|---------------------------|
|-------------------------------|---------------------------|


  G5                 D5      Eb5                D5
   Q.        E  Q     Q       Q.        E  Q     Q
|--------------------------|--------------------------|
|--------------------------|--------------------------|
|--------------------------|--------------------------|
|--5---------5--5-----0----|--1---------1--1-----0----|
|--5---------5--5-----0----|--1---------1--1-----0----|
|--5---------5--5-----0----|--1---------1--1-----0----|
|
|  E   E  E  E  E  E  E  E    E   E  E  E  E  E  E  E
|--------------------------|-----------17-18p17-------|
|-----------------15-------|-20-----20----------20----|
|--------15----15----15s20-|-----20----------------19-|
|-----15----15-------------|--------------------------|
|-17-----------------------|--------------------------|
|--------------------------|--------------------------|
|
|  E   E  E  E  E  E  E  E    E   E  E  E  E  E  E  E
|--------------------------|-----------13-15p13-------|
|--------------------------|-16-----16----------16----|
|--------12----12-15-12s15-|-----15----------------15-|
|-----12----12-------------|--------------------------|
|-13-----------------------|--------------------------|
|--------------------------|--------------------------|


  Eb5                                 D5    C5                              Bb5   A5
                PM-------------|                          PM-------------|
   Q            S   S     S     S  Q   Q     Q            S   S     S     S  Q     Q
|-----------------------------------------|----------------------------------------------||
|-----------------------------------------|----------------------------------------------||
|-----------------------------------------|----------------------------------------------||
|-13------------------------------13--12--|-10-------------------------------8-----7-----||
|-13------------------------------13--12--|-10-------------------------------8-----7-----||
|-13-----------13--13----13----13-13--12--|-10-----------10--10----10----10--8-----7-----||
|
|               |-----3------|                            |-----3------|
|  E      +E   +E      E     E     Q   Q     E      +E   +E      E     E     E  E  E  E
|-18b20==(18)r(18)p===15----18----15--18--|-22b23==(22)r(22)----18----22----18-22-18-----||
|-----------------------------------------|------------------------------------------22--||
|-----------------------------------------|----------------------------------------------||
|-----------------------------------------|----------------------------------------------||
|-----------------------------------------|----------------------------------------------||
|-----------------------------------------|----------------------------------------------||
|
|               |-----3------|                            |-----3------|
|  E      +E   +E      E     E     Q   Q     E      +E   +E      E     E     E  E  E  E
|-15b17==(15)r(15)----------15--------15--|-18b20==(18)r(18)p===15----18----15-18--------||
|---------------------16----------16------|----------------------------------------------||
|-----------------------------------------|---------------------------------------18-17--||
|-----------------------------------------|----------------------------------------------||
|-----------------------------------------|----------------------------------------------||
|-----------------------------------------|----------------------------------------------||


 Bridge
  G5         D5   Eb5            D5
  Gtrs I, II
   Q.   E Q  Q      Q.      E Q  Q
|---------------|-------------------|
|---------------|-------------------|
|---------------|-------------------|
|--5----5-5--0--|---1-------1-1--0--|
|--5----5-5--0--|---1-------1-1--0--|
|--5----5-5--0--|---1-------1-1--0--|
|
| Gtr V
|  ~~~
|  W               +E   E Q   H
|---------------|-------------------|
|-20------------|-(20)\-------------|
|---------------|-------------------|
|---------------|-------------------|
|---------------|-------------------|
|---------------|-------------------|
|
|  ~~~
|  W               +E   E Q   H
|---------------|-------------------|
|---------------|-------------------|
|-15------------|-(15)\-------------|
|---------------|-------------------|
|---------------|-------------------|
|---------------|-------------------|


  Eb5                 D5    C5              Bb5A5
       PM------|                 PM------|
   Q   S  S  S  S  Q   Q     Q   S  S  S  S Q  Q
|-------------------------|-----------------------|
|-------------------------|-----------------------|
|-------------------------|-----------------------|
|-13--------------13--12--|-10--------------8--7--|
|-13--------------13--12--|-10--------------8--7--|
|-13--13-13-13-13-13--12--|-10--10-10-10-10-8--7--|
|
|  W                         W
|-------------------------|-----------------------|
|-------------------------|-----------------------|
|-------------------------|-----------------------|
|-------------------------|-----------------------|
|-------------------------|-----------------------|
|-------------------------|-----------------------|
|
|  W                         W
|-------------------------|-----------------------|
|-------------------------|-----------------------|
|-------------------------|-----------------------|
|-------------------------|-----------------------|
|-------------------------|-----------------------|
|-------------------------|-----------------------|


  G5        D5   Eb5       D5
  Q.   E Q  Q    Q.   E Q  Q
|--------------|--------------|
|--------------|--------------|
|--------------|--------------|
|-5----5-5--0--|-1----1-1--0--|
|-5----5-5--0--|-1----1-1--0--|
|-5----5-5--0--|-1----1-1--0--|


  Eb5                 D5    C5              Bb5A5
       PM------|                 PM------|
   Q   S  S  S  S  Q   Q     Q   S  S  S  S Q  Q
|-------------------------|-----------------------|
|-------------------------|-----------------------|
|-------------------------|-----------------------|
|-13--------------13--12--|-10--------------8--7--|
|-13--------------13--12--|-10--------------8--7--|
|-13--13-13-13-13-13--12--|-10--10-10-10-10-8--7--|


  G5         D5   Eb5           D5
  Gtrs I, II
  Q.   E  Q  Q      Q.   E  Q   Q
|---------------|------------------|
|---------------|------------------|
|---------------|------------------|
|-5----5--5--0--|---1----1--1---0--|
|-5----5--5--0--|---1----1--1---0--|
|-5----5--5--0--|---1----1--1---0--|
|
| Gtr V
| ~~~~~~~~~~~~~~~~~~~~~
| H       H        +H       Q   Q
|---------------|------------------|
|---------------|------------------|
|---------------|------------------|
|-5-------8-----|--(8)------8------|
|---------------|---------------5--|
|---------------|------------------|
|
| Gtr VI
| ~~~~~~~~~~~~~~~~~~~~~
| H       H        +H       Q   Q
|---------------|------------------|
|---------------|------------------|
|---------------|------------------|
|-8------12-----|-(12)-----12\-----|
|---------------|---------------8--|
|---------------|------------------|


  Eb5                 D5    C5              Bb5A5
       PM------|                 PM------|
   Q   S  S  S  S  Q   Q     Q   S  S  S  S Q  Q
|-------------------------|-----------------------|
|-------------------------|-----------------------|
|-------------------------|-----------------------|
|-13--------------13--12--|-10--------------8--7--|
|-13--------------13--12--|-10--------------8--7--|
|-13--13-13-13-13-13--12--|-10--10-10-10-10-8--7--|
|
|  ~~                        ~~
|  H               Q   Q     H              Q  Q
|-------------------------|-----------------------|
|-------------------------|-----------------------|
|-------------------------|-----------------------|
|-------------------------|-----------------------|
|--6---------------6---5--|--3--------------1--0--|
|-------------------------|-----------------------|
|
|  ~~                        ~~
|  H               Q   Q     H              Q  Q
|-------------------------|-----------------------|
|-------------------------|-----------------------|
|-------------------------|-----------------------|
|-------------------------|-----------------------|
|-10--------------10---8--|--6--------------5--3--|
|-------------------------|-----------------------|


  G5        D5   Eb5       D5
  Q.   E Q  Q    Q.   E Q  Q
|--------------|--------------|
|--------------|--------------|
|--------------|--------------|
|-5----5-5--0--|-1----1-1--0--|
|-5----5-5--0--|-1----1-1--0--|
|-5----5-5--0--|-1----1-1--0--|
|
| ~~             ~~
| H      Q  Q    H      Q  Q
|--------------|--------------|
|--------------|--------------|
|--------------|--------------|
|--------------|--------------|
|--------------|--------------|
|-5------5--0--|-1------1--0--|
|
| ~~             ~~
| H      Q  Q    H      Q  Q
|--------------|--------------|
|--------------|--------------|
|--------------|--------------|
|--------------|--------------|
|--------------|--------------|
|-8------8S=3--|-5------5--3--|


  Eb5                 D5    C5              Bb5A5
       PM------|                 PM------|
   Q   S  S  S  S  Q   Q     Q   S  S  S  S Q  Q
|-------------------------|------------------------|
|-------------------------|------------------------|
|-------------------------|------------------------|
|-13--------------13--12--|-10--------------8--7/--|
|-13--------------13--12--|-10--------------8--7/--|
|-13--13-13-13-13-13--12--|-10--10-10-10-10-8--7/--|
|
|  ~~                        ~~
|  H               Q   Q     H              Q  Q
|-------------------------|------------------------|
|-------------------------|------------------------|
|-------------------------|------------------------|
|-------------------------|------------------------|
|--6---------------6---5--|--3--------------1--0---|
|-------------------------|------------------------|
|
|  ~~                        ~~
|  H               Q   Q     H              Q  Q
|-------------------------|------------------------|
|-------------------------|------------------------|
|-------------------------|------------------------|
|--5---------------5---3--|------------------------|
|-------------------------|--6--------------5--3/--|
|-------------------------|------------------------|


  Eb5(type 2)
  Gtrs I, II
   E  E E  E  E E  E  E     E  E E E  E E  Q
   |  |    |  |    |  |        | |    |    |
   /  /    /  /    /  /        / /    /    /

  Gtr V
   E  Q    E  Q    E  E    +E  E Q    q    Q
|-----------------------|----------------------|
|-----------------------|----------------------|
|-----------------------|----------------------|
|-----------------------|----------------------|
|--6--6----6--6----6--6-|--(6)-5-5----6----6\--|
|-----------------------|----------------------|
|
| Gtr VI
|  E  Q    E  Q    E  E    +E  E Q    q    Q
|-----------------------|----------------------|
|-----------------------|----------------------|
|-----------------------|----------------------|
|-----------------------|----------------------|
|-10-10---10-10---10-10-|-(10)-8-8---10---10\--|
|-----------------------|----------------------|
|
| Gtr IV
|  W                        W
|-----------------------|----------------------|
|-----------------------|----------------------|
|-----------------------|----------------------|
|-----------------------|----------------------|
|-----------------------|----------------------|
|-----------------------|----------------------|


       Eb5(type 3)
         Q.     E  +Q    Q     +E   Q.     Q    Q
         |      |   |    |      |   |      |
         /      /   /    /      /   /      /

         Q.     E  +Q    Q     +E   Q.     Q    Q
|---------------------------|---------------------------||
|---------------------------|---------------------------||
|---------------------------|---------------------------||
|---------------------------|---------------------------||
|-------10-----10-(10)--10--|-(10)--8-----10------------||
|---------------------------|---------------------------||
|
|        Q.     E  +Q    Q     +E   Q.     Q    Q
|---------------------------|---------------------------||
|---------------------------|---------------------------||
|---------------------------|---------------------------||
|--------8------8--(8)---8--|--(8)--7------8------------||
|---------------------------|---------------------------||
|---------------------------|---------------------------||
|
|  \3____/1_____________________/0_________\1
|  a    +W                     +H         +Q.      +E
|---------------------------|---------------------------||
|---------------------------|---------------------------||
|-<3>--(<3>)----------------|-(<3>)------(<3>)----(<3>)-||
|-<3>--(<3>)----------------|-(<3>)------(<3>)----(<3>)-||
|---------------------------|---------------------------||
|---------------------------|---------------------------||


 Guitar Solo
     D5              F5 D5      D5 A5 D5 Ab5D5 G5 D5   F5 D5
     Gtrs I, II
         PM-------|                                           PM-------------------------
      Q  E E   E   E  E  E    E  E  E  E  E  E  E  E    E  E  E E   E  E  E    E
|--------------------------|-------------------------|----------------------------------|
|--------------------------|-------------------------|----------------------------------|
|--------------------------|-------------------------|----------------------------------|
|--------------------------|-------------------------|----------------------------------|
|-----0--------------------|-------------------------|----------------------------------|
|-----0--0-0---0---0--3p=0-|--5p=0--7p=0--6p=0--5p=0-|--3p=0--0-0---0--0--0----0--------|
|
|    Gtr IV
|     ~~                                                   ~~~
|                                                                         |---3---|
|  a  H       +E   E  E  E    E  E  E  E  E  E  E  E    E  Q.      +Q     E  E    E
|--------------------13----|-15----17----16----15----|-13-------------------------------|
|-13s15------(15)-15----15-|----15----15----15----15-|----15------(15)---13-14---15b18==|
|--------------------------|-------------------------|----------------------------------|
|--------------------------|-------------------------|----------------------------------|
|--------------------------|-------------------------|----------------------------------|
|--------------------------|-------------------------|----------------------------------|


 ------------------------------------------------------|
    S  S S S   S  S   S     S     S S    S    S  S S S S
|--------------------------------------------------------|
|--------------------------------------------------------|
|--------------------------------------------------------|
|--------------------------------------------------------|
|--------------------------------------------------------|
|---0--0-0-0---0--0---0-----0-----0-0----0----0--0-0-0-0-|
|
|                                                ~~
|                     |---3----|  |----3----|
|  +Q         +E     +S   S    S  E    E    E    Q
|--------------------------------------------------------|
|-(15)-------(15)r==(15)p14p==13-------------------------|
|--------------------------------15---14---13s==10-------|
|--------------------------------------------------------|
|--------------------------------------------------------|
|--------------------------------------------------------|


  D5                 F5 D5   G5 D5 A5 D5 Ab5D5 G5 D5   F5 D5
         PM-------|                                           PM-------------------------
      Q  E E   E   E  E  E    E  E  E  E  E  E  E  E    E  E  E E   E  E  E    E
|--------------------------|-------------------------|----------------------------------|
|--------------------------|-------------------------|----------------------------------|
|--------------------------|-------------------------|----------------------------------|
|--------------------------|-------------------------|----------------------------------|
|-----0--------------------|-------------------------|----------------------------------|
|-----0--0-0---0---0--3p=0-|--5p=0--7p=0--6p=0--5p=0-|--3p=0--0-0---0--0--0----0--------|
|
|     ~~                                                   ~~~
|                                                                         |---3---|
|  a  H       +E   E  E  E    E  E  E  E  E  E  E  E    E  Q.      +Q     E  E    E
|--------------------13----|-15----17----16----15----|-13-------------------------------|
|-11s15------(15)-15----15-|----15----15----15----15-|----15------(15)---13-14---15b18==|
|--------------------------|-------------------------|----------------------------------|
|--------------------------|-------------------------|----------------------------------|
|--------------------------|-------------------------|----------------------------------|
|--------------------------|-------------------------|----------------------------------|


 ---------------------------------------------------|
    S   S S       S S S       S S  S    S S S S S S S
|-------------------------------------------------------|
|-------------------------------------------------------|
|-------------------------------------------------------|
|-------------------------------------------------------|
|-------------------------------------------------------|
|---0---0-0-------0-0-0-------0-0--0----0-0-0-0-0-0-0---|
|
|                                  ~~~~~
|   |---------3----------|
|  +Q        Q           Q         H
|-------------------------------------------------------|
|-(15)r-----15b18-------15b18-----15b18-----------------|
|-------------------------------------------------------|
|-------------------------------------------------------|
|-------------------------------------------------------|
|-------------------------------------------------------|


  Eb5
      E E  E  E   E      E     E  E    E  E  E  E  E  E E  E
|-----------------------------------|--------------------------|
|-----------------------------------|--------------------------|
|-----8-8--8--8---8------8-----8--8-|--8--8--8--8--8--8-8--8---|
|-----8-8--8--8---8------8-----8--8-|--8--8--8--8--8--8-8--8---|
|-----6-6--6--6---6------6-----6--6-|--6--6--6--6--6--6-6--6---|
|-----------------------------------|--------------------------|
|
|  a  Q    E  E  +S   S  S  S  E  E    E  E  E  E  E  E E.   S
|-----------------------------------|--------------------------|
|-13s16---16-15-(15)h16p15p13----13-|--------------------------|
|-----------------------------15----|-15S12--------------------|
|-----------------------------------|-------13-12-13-12S8------|
|-----------------------------------|------------------------8-|
|-----------------------------------|--------------------------|


                                                                    F5
                              PM-----------------|
  E E E E    E  E E    E      S S  S  S  S  S  S  S  Q                Q
|--------------------------|--------------------------------------------------------|
|--------------------------|--------------------------------------------------------|
|-8-8-8-8----8--8-8----8---|-------------------------8---------------10-------------|
|-8-8-8-8----8--8-8----8---|-------------------------8---------------10-------------|
|-6-6-6-6----6--6-6----6---|--6-6--6--6--6--6--6--6--6----------------8-------------|
|--------------------------|--------------------------------------------------------|
|
| ~
|                                                                          |--3---|
| Q   E E a  E  E S S  S S    S S  S  S  S  S  S  S  S  S  S  S      +E   +S   S  S
|--------------------------|--------------------------------------------------------|
|--------------------------|---------------------------15-16-18b20==(18)r(18)p16p15-|
|-------------------8-10p8-|-10p8-10h12-13h14p13h14s17------------------------------|
|-----------------8--------|--------------------------------------------------------|
|-6---8-6-8s10-10----------|--------------------------------------------------------|
|--------------------------|--------------------------------------------------------|


  D5                   F5 D5   G5 D5 A5 D5 Ab5D5 G5 D5
          PM--------|
   Q      E E   E    E  E  E    E  E  E  E  E  E  E  E
|----------------------------|-------------------------|
|----------------------------|-------------------------|
|----------------------------|-------------------------|
|----------------------------|-------------------------|
|--0-------------------------|-------------------------|
|--0------0-0---0----0--3p=0-|--5p=0--7p=0--6p=0--5p=0-|
|
|  ~~~~~~
|  H           +E    E  E  E    E  E  E  E  E  E  E  E
|----------------------------|-15----17----16----15----|
|-------------------15-18-15-|----15----15----15----15-|
|-17b19=======(17)r----------|-------------------------|
|----------------------------|-------------------------|
|----------------------------|-------------------------|
|----------------------------|-------------------------|


  F5 D5
         PM-----------------------------------------------------------------------------|
   E  E  E E  E     E     E     E          S     S S S S S   S  S   S  S S S S S   S    S
|---------------------------------------|---------------------------------------------------|
|---------------------------------------|---------------------------------------------------|
|---------------------------------------|---------------------------------------------------|
|---------------------------------------|---------------------------------------------------|
|---------------------------------------|---------------------------------------------------|
|--3p=0--0-0--0-----0-----0-----0-------|--0-----0-0-0-0-0---0--0---0--0-0-0-0-0---0----0---|
|
|     ~~~                                                    ~~~~~~~~~~
|                               |--3--|
|  E  Q.      S  S  S  S  S  S  S  S  S    Q.               +E     +Q.            +E
|-13---------------------------------13-|-16b17============(16)---(16)-----------(16)r\-----|
|----15------------------13-14-15-16----|---------------------------------------------------|
|------------------14-15----------------|---------------------------------------------------|
|------------12h15----------------------|---------------------------------------------------|
|---------------------------------------|---------------------------------------------------|
|---------------------------------------|---------------------------------------------------|


  Bbsus2(type 2)
  Gtrs I, II
     Q   E  E  +E  E  Q     +E   E     Q   E E   E  E
     |   |  |   |  |  |      |   |     |   | |   |  |
     /   /  /   /  /  /      /   /     /   / /   /  /

  Gtr IV
                      ~~
  a  Q.     E  +Q     Q     +Q      a  Q   Q     Q
|------------------------|----------------------------|
|----------10-(10)---11--|-(11)\----------11----10----|
|-7s10-------------------|----------------------------|
|------------------------|---------10s12--------------|
|------------------------|----------------------------|
|------------------------|----------------------------|
|
| Gtr V
|                     ~~~~~~~~~~~
|    Q.     E  +Q     Q     +H.                 +Q
|------------------------|----------------------------|
|------------------------|----------------------------|
|------------------------|----------------------------|
|---10-----10-(10)---12--|-(12)----------------(12)S==|
|------------------------|----------------------------|
|------------------------|----------------------------|
|
| Gtr VI
|                     ~~~~~~~~~~~
|    Q.     E  +Q     Q     +H.                 +Q
|------------------------|----------------------------|
|------------------------|----------------------------|
|------------------------|----------------------------|
|----7------7--(7)----8--|--(8)-----------------(8)S==|
|------------------------|----------------------------|
|------------------------|----------------------------|


  G5
   Q   E  E  +E  E  Q     +E  E     Q   E E   E   E
   |   |  |   |  |  |      |  |     |   | |   |   |
   /   /  /   /  /  /      /  /     /   / /   /   /

                    ~~~~~~~~~~~
   Q.     E  +Q     Q     +Q     a  Q   Q     Q
|----------------------|-----------------------------|
|--------10-(10)-------|---------------11----10------|
|-12-------------------|-----------------------------|
|------------------12--|-(12)s==10s12----------------|
|----------------------|-----------------------------|
|----------------------|-----------------------------|
|
|                   ~~~~~~~~~~~
|  Q.     E  +Q     Q     +H.                +Q
|----------------------|-----------------------------|
|----------------------|-----------------------------|
|----------------------|-----------------------------|
|--7------7--(7)----8--|--(8)----------------(8)/----|
|----------------------|-----------------------------|
|----------------------|-----------------------------|
|
|                   ~~~~~~~~~~~
|  Q.     E  +Q     Q     +H.                +Q
|----------------------|-----------------------------|
|----------------------|-----------------------------|
|----------------------|-----------------------------|
|-10-----10-(10)---12--|-(12)---------------(12)\----|
|----------------------|-----------------------------|
|----------------------|-----------------------------|


  Bbsus2(type 2)
   Q      E  E  +E    E      Q         +E    E     Q   E E   E  E
   |      |  |   |    |      |          |    |     |   | |   |  |
   /      /  /   /    /      /          /    /     /   / /   /  /

                             ~~~~~~
   H            +E   +S   S  Q         +Q       a  Q   Q     Q
|-----------------------------------|-----------------------------|
|-11b13========(11)r(11)p10-13b15===|=(13)r\----------11----10----|
|-----------------------------------|-----------------------------|
|-----------------------------------|----------10s12--------------|
|-----------------------------------|-----------------------------|
|-----------------------------------|-----------------------------|
|
|                            ~~~~~~~~~~~~~~~~
|  Q.        E  +Q           Q         +H.                  +Q
|-----------------------------------|-----------------------------|
|-----------------------------------|-----------------------------|
|-----------------------------------|-----------------------------|
|-10--------10-(10)---------12------|-(12)-----------------(12)S==|
|-----------------------------------|-----------------------------|
|-----------------------------------|-----------------------------|
|
|                            ~~~~~~~~~~~~~~~~
|  Q.        E  +Q           Q         +H.                  +Q
|-----------------------------------|-----------------------------|
|-----------------------------------|-----------------------------|
|-----------------------------------|-----------------------------|
|--7---------7--(7)----------8------|--(8)------------------(8)S==|
|-----------------------------------|-----------------------------|
|-----------------------------------|-----------------------------|


  G5
   Q     E      E  +E    E        Q      +E    E     Q   E E   E   E
   |     |      |   |    |        |       |    |     |   | |   |   |
   /     /      /   /    /        /       /    /     /   / /   /   /

                                  ~~~~
   Q    +Q         +E   +E       +Q      +Q       a  Q   Q     Q
|-------------------------------------|-------------------------------|
|-------------------------------------|-----------------11----10------|
|-12---(12)b14r===(12)-(12)b14==(12)--|-(12)r\------------------------|
|-------------------------------------|----------10s12----------------|
|-------------------------------------|-------------------------------|
|-------------------------------------|-------------------------------|
|
|                                 ~~~~~~~~~~~~~
|  Q.           E  +Q             Q      +H.                  +Q
|-------------------------------------|-------------------------------|
|-------------------------------------|-------------------------------|
|-------------------------------------|-------------------------------|
|--7------------7--(7)------------8---|--(8)------------------(8)/----|
|-------------------------------------|-------------------------------|
|-------------------------------------|-------------------------------|
|
|                                 ~~~~~~~~~~~~~
|  Q.           E  +Q             Q      +H.                  +Q
|-------------------------------------|-------------------------------|
|-------------------------------------|-------------------------------|
|-------------------------------------|-------------------------------|
|-10-----------10-(10)-----------12---|-(12)-----------------(12)\----|
|-------------------------------------|-------------------------------|
|-------------------------------------|-------------------------------|


  Bbsus2(type 2)
   Q      E  E  +E  E   Q      +E   E    Q   E E   E  E
   |      |  |   |  |   |       |   |    |   | |   |  |
   /      /  /   /  /   /       /   /    /   / /   /  /

                        ~~~~
   H            +Q     +Q      +Q     a  Q   Q     Q
|---------------------------|---------------------------|
|-13b15========(13)r==(13)--|-(13)\---------11----10----|
|---------------------------|---------------------------|
|---------------------------|---------6s12--------------|
|---------------------------|---------------------------|
|---------------------------|---------------------------|
|
|                       ~~~~~~~~~~~~
|  Q.        E  +Q      Q      +H.                +Q
|---------------------------|---------------------------|
|---------------------------|---------------------------|
|---------------------------|---------------------------|
|-10--------10-(10)----12---|-(12)---------------(12)S==|
|---------------------------|---------------------------|
|---------------------------|---------------------------|
|
|                       ~~~~~~~~~~~~
|  Q.        E  +Q      Q      +H.                +Q
|---------------------------|---------------------------|
|---------------------------|---------------------------|
|---------------------------|---------------------------|
|--7---------7--(7)-----8---|--(8)----------------(8)S==|
|---------------------------|---------------------------|
|---------------------------|---------------------------|


  G5
   Q     E      E  +E  E  Q     +E  E    Q   E E   E   E
   |     |      |   |  |  |      |  |    |   | |   |   |
   /     /      /   /  /  /      /  /    /   / /   /   /

                          ~~
   Q    +Q         +Q     Q     +Q    a  Q   Q     Q
|----------------------------|-----------------------------|
|----------------------------|--------------11----10-------|
|-12---(12)b14r===(12)-------|-----------------------------|
|------------------------12--|-(12)s==7s12-----------------|
|----------------------------|-----------------------------|
|----------------------------|-----------------------------|
|
|                         ~~~~~~~~~~~
|  Q.           E  +Q     Q     +H.               +Q
|----------------------------|-----------------------------|
|----------------------------|-----------------------------|
|----------------------------|-----------------------------|
|--7------------7--(7)----8--|--(8)---------------(8)/-----|
|----------------------------|-----------------------------|
|----------------------------|-----------------------------|
|
|                         ~~~~~~~~~~~
|  Q.           E  +Q     Q     +H.               +Q
|----------------------------|-----------------------------|
|----------------------------|-----------------------------|
|----------------------------|-----------------------------|
|-10-----------10-(10)---12--|-(12)--------------(12)\-----|
|----------------------------|-----------------------------|
|----------------------------|-----------------------------|


  Bbsus2(type 2)                                    Csus2
   Q   E  E  +E  E  Q      E   E  Q   Q       Q      E      E        E      E
   |   |  |   |  |  |      |   |  |   |       |      |               |      |
   /   /  /   /  /  /      /   /  /   /       /      /               /      /

                                      ~~~~~~~~~~~~~~~~~~
   Q.     E  +Q     Q     +E   Q.     H              H.            +Q
|----------------------|--------------------------|----------------------------|
|--------10-(10)---11--|-(11)-10-----11b13--------|----------------------------|
|-10-------------------|--------------------------|--9------------(9)S=========|
|----------------------|--------------------------|-10-----------(10)S=========|
|----------------------|--------------------------|----------------------------|
|----------------------|--------------------------|----------------------------|
|                                                    H.            +Q
|
|                   ~~~~~~~~~~
|                                                                             |------6-------|
|  Q.     E  +Q     Q     +H.    +Q      S   S  S  S  S  S  S  S  S  S  S  S  S  S   S   S  S  S
|----------------------|-------------|---------------------------------------------12--13-15-13-|
|----------------------|-------------|--------------------------------------13-15---------------|
|----------------------|-------------|-----------12-14-15-14p12----12-14-15---------------------|
|-10-----10-(10)---12--|-(12)--(12)--|-12--14-15----------------15------------------------------|
|----------------------|-------------|----------------------------------------------------------|
|----------------------|-------------|----------------------------------------------------------|
|
|                   ~~~~~~~~~~
|                                                                             |------6-------|
|  Q.     E  +Q     Q     +H.     +Q      S   S  S  S  S  S  S  S  S  S  S  S  S  S   S   S  S  S
|----------------------|------------|----------------------------------------------------------|
|----------------------|------------|-------------------------------------------------15-17-15-|
|----------------------|------------|-----------------12-------------------14-15--17-----------|
|--7------7--(7)----8--|--(8)--(8)--|--------12-14-15----15p14-12h14s16-17---------------------|
|----------------------|------------|-13--15---------------------------------------------------|
|----------------------|------------|----------------------------------------------------------|


  A/C#
   E     E     E        E     E  E     E        E
   |     |     |        |     |  |     |        |
   /     /     /        /     /  /     /        /

   ~~
   W
|----------------------------------------------------------||
|----------------------------------------------------------||
|--6-------------------------------------------------------||
|--7-------------------------------------------------------||
|----------------------------------------------------------||
|----------------------------------------------------------||
|  W
|
|              |--3--|                 |------6-------|
|  S  S  S  S  S  S  S  S  S  E  S  S  S  S  S  S  S  S
|-12-------------------------------12-13p12----12-13-15----||
|----15-13-12-15p13p12----12-13-15----------15-------------||
|----------------------14----------------------------------||
|----------------------------------------------------------||
|----------------------------------------------------------||
|----------------------------------------------------------||
|
|              |--3--|                 |------6-------|
|  S  S  S  S  S  S  S  S  S  E  S  S  S  S  S  S  S  S
|----------------------------------------------------------||
|-13-11-10----11p10----------10-11-13S15-13-11S13-15-17----||
|----------12-------12-10-12-------------------------------||
|----------------------------------------------------------||
|----------------------------------------------------------||
|----------------------------------------------------------||


 Chorus
  D5                       A5
  Gtrs I, II
   Q.          E Q   Q       Q.    E  Q    Q
   |           | |   |       |     |  |    |
   /           / /   /       /     /  /    /

  Gtr IV
            ~~~~~~~~~~~~~~~~~~~~
   Q       +H.              +H.           +Q
|-15b17===(15)-----------|-(15)----------(15)r\----|
|-17b18===(17)-----------|-(17)----------(17)r\----|
|------------------------|-------------------------|
|------------------------|-------------------------|
|------------------------|-------------------------|
|------------------------|-------------------------|
|  Q       +H.              +H.           +Q
|
| Gtr V
|  H             Q  +Q       Q.    E  Q    E     E
|------------------------|-------------------------|
|------------------------|-------------------------|
|--7-------------7--(7)S=|==14----14-14---12s===14-|
|--x-------------x-------|---x-----x--x----x-------|
|--5-------------5--(5)S=|==12----12-12---10s===12-|
|------------------------|-------------------------|
|
| Gtr VI
|  H             Q  +Q       Q.    E  H
|------------------------|-------------------------|
|------------------------|-------------------------|
|--7-------------7--(7)S=|==14----14-14------------|
|--x-------------x-------|---x-----x--x------------|
|--5-------------5--(5)S=|==12----12-12------------|
|------------------------|-------------------------|


  Bb5                G5
   Q.    E  Q   Q     E  E  E  E  E  E  E  E
   |     |  |   |     |  |  |  |  |  |  |  |
   /     /  /   /     /  /  /  /  /  /  /  /

   W                  W
|------------------|--------------------------|
|------------------|--------------------------|
|------------------|--------------------------|
|------------------|--------------------------|
|------------------|--------------------------|
|------------------|--------------------------|
|
|  Q.    E  Q   Q     E  E  E  E  E  E  E  E
|------------------|--------------------------|
|------------------|--------------------------|
|-15----15-15--15S=|=12-12-12-12S15-15-15-15\-|
|--x-----x--x---x--|--x--x--x--x--x--x--x--x--|
|-13----13-13--13S=|=10-10-10-10S13-13-13-13\-|
|------------------|--------------------------|
|
|  Q.    E  Q   Q     E  E  E  E  E  E  E  E
|------------------|--------------------------|
|------------------|--------------------------|
|-15----15-15--15S=|=12-12-12-12-12-12-12-12\-|
|--x-----x--x---x--|--x--x--x--x--x--x--x--x--|
|-13----13-13--13S=|=10-10-10-10-10-10-10-10\-|
|------------------|--------------------------|


    D5               A5
    Gtrs I, II
    Q.   E Q   Q      Q.    E  Q   Q
    |    | |   |      |     |  |   |
    /    / /   /      /     /  /   /

    Gtr V
    H      Q  +Q      Q.    E  Q   E  E
||-----------------|--------------------|
||o----------------|--------------------|
||--7------7--(7)S=|=14----14-14--12s14-|
||--x------x-------|--x-----x--x---x----|
||o-5------5--(5)S=|=12----12-12--10s12-|
||-----------------|--------------------|
|
|   H      Q  +Q      Q.    E  H
||-----------------|--------------------|
||o----------------|--------------------|
||--7------7--(7)S=|=14----14-14--------|
||--x------x-------|--x-----x--x--------|
||o-5------5--(5)S=|=12----12-12--------|
||-----------------|--------------------|


  Bb5                G5
   Q.    E  Q   Q     E  E  E  E  E  E  E  E
   |     |  |   |     |  |  |  |  |  |  |  |
   /     /  /   /     /  /  /  /  /  /  /  /

   Q.    E  Q   Q     E  E  E  E  E  E  E  E    3x
|------------------|----------------------------||
|------------------|---------------------------o||
|-15----15-15--15S=|=12-12-12-12S15-15-15-15\---||
|--x-----x--x---x--|--x--x--x--x--x--x--x--x----||
|-13----13-13--13S=|=10-10-10-10S13-13-13-13\--o||
|------------------|----------------------------||
|
|  Q.    E  Q   Q     E  E  E  E  E  E  E  E    3x
|------------------|----------------------------||
|------------------|---------------------------o||
|-15----15-15--15S=|=12-12-12-12-12-12-12-12\---||
|--x-----x--x---x--|--x--x--x--x--x--x--x--x----||
|-13----13-13--13S=|=10-10-10-10-10-10-10-10\--o||
|------------------|----------------------------||


    D5                  A5
    E E E E E E  E  E    E  E E  E  E E  E  E
    | | | | | |  |  |    |  | |  |  | |  |  |
    / / / / / /  /  /    /  / /  /  / /  /  /

    H       Q   +Q       Q.      E  Q    E  E
||--------------------|-----------------------|
||o-------------------|-----------------------|
||--7-------7---(7)S==|=14------14-14---12s14-|
||--x-------x---------|--x-------x--x----x----|
||o-5-------5---(5)S==|=12------12-12---10s12-|
||--------------------|-----------------------|
|
|   H       Q   +Q       Q.      E  H
||--------------------|-----------------------|
||o-------------------|-----------------------|
||--7-------7---(7)S==|=14------14-14---------|
||--x-------x---------|--x-------x--x---------|
||o-5-------5---(5)S==|=12------12-12---------|
||--------------------|-----------------------|


  Bb5                    G5
   E  E E  E  E E  E E    E  E  E  E  E  E  E  E
   |  | |  |  | |  | |    |  |  |  |  |  |  |  |
   /  / /  /  / /  / /    /  /  /  /  /  /  /  /

   Q.      E  Q    Q      E  E  E  E  E  E  E  E    3x
|----------------------|----------------------------||
|----------------------|---------------------------o||
|-15------15-15---15S==|=12-12-12-12S15-15-15-15\---||
|--x-------x--x----x---|--x--x--x--x--x--x--x--x----||
|-13------13-13---13S==|=10-10-10-10S13-13-13-13\--o||
|----------------------|----------------------------||
|
|  Q.      E  Q    Q      E  E  E  E  E  E  E  E    3x
|----------------------|----------------------------||
|----------------------|---------------------------o||
|-15------15-15---15S==|=12-12-12-12-12-12-12-12\---||
|--x-------x--x----x---|--x--x--x--x--x--x--x--x----||
|-13------13-13---13S==|=10-10-10-10-10-10-10-10\--o||
|----------------------|----------------------------||


  D5                  A5
  E E E E E E  E  E    E  E E  E  E E  E  E
  | | | | | |  |  |    |  | |  |  | |  |  |
  / / / / / /  /  /    /  / /  /  / /  /  /

  H       Q   +Q       Q.      E  Q    E  E
|-------------------|-----------------------|
|-------------------|-----------------------|
|-7-------7---(7)S==|=14------14-14---12s14-|
|-x-------x---------|--x-------x--x----x----|
|-5-------5---(5)S==|=12------12-12---10s12-|
|-------------------|-----------------------|
|
| H       Q   +Q       Q.      E  H
|-------------------|-----------------------|
|-------------------|-----------------------|
|-7-------7---(7)S==|=14------14-14---------|
|-x-------x---------|--x-------x--x---------|
|-5-------5---(5)S==|=12------12-12---------|
|-------------------|-----------------------|


  Bb5                    G5
   E  E E  E  E E  E E    E  E  E  E  E  E  E  E
   |  | |  |  | |  | |    |  |  |  |  |  |  |  |
   /  / /  /  / /  / /    /  /  /  /  /  /  /  /

   Q.      E  Q    Q      E  E  E  E  E  E  E  E
|----------------------|-------------------------||
|----------------------|-------------------------||
|-15------15-15---15S==|=12-12-12-12S15-15-15-15-||
|--x-------x--x----x---|--x--x--x--x--x--x--x--x-||
|-13------13-13---13S==|=10-10-10-10S13-13-13-13-||
|----------------------|-------------------------||
|
|  Q.      E  Q    Q      E  E  E  E  E  E  E  E
|----------------------|-------------------------||
|----------------------|-------------------------||
|-15------15-15---15S==|=12-12-12-12-12-12-12-12-||
|--x-------x--x----x---|--x--x--x--x--x--x--x--x-||
|-13------13-13---13S==|=10-10-10-10-10-10-10-10-||
|----------------------|-------------------------||


 Outro
  Eb5
  Gtrs I, II
   E  E E  E  E E  E  E   E  E  E E  E E  Q
|-----------------------|--------------------|
|-----------------------|--------------------|
|-----------------------|--------------------|
|-13-13---13-13---13-13-|---13-13---13---13--|
|-13-13---13-13---13-13-|---13-13---13---13--|
|-13-13---13-13---13-13-|---13-13---13---13--|


  PM----------|        PM---|
  Q.   E +Q   Q    +E  Q.   Q  Q
|----------------|----------------*|
|----------------|----------------*|
|----------------|----------------*|
|----------------|----------------*|
|-1----1-(1)--1--|-(1)-1----1-----*|
|-1----1-(1)--1--|-(1)-1----1-----*|


Duration Legend
---------------
W - whole; H - half; Q - quarter; E - 8th; S - 16th; T - 32nd; X - 64th; a - acciaccatura
+ - note tied to previous; . - note dotted; .. - note double dotted
Uncapitalized letters represent notes that are staccato (1/2 duration)
Irregular groupings are notated above the duration line
Duration letters will always appear directly above the note/fret number it represents the
duration for.  Duration letters with no fret number below them represent rests.  Multi-
bar rests are notated in the form Wxn, where n is the number of bars to rest for.  Low
melody durations appear below the staff

Tablature Legend
----------------
 h   - hammer-on
 p   - pull-off
 b   - bend
 pb  - pre-bend
 r   - bend release (if no number after the r, then release immediately)
 /\  - slide into or out of (from/to "nowhere")
 s   - legato slide
 S   - shift slide
  - natural harmonic
[n]  - artificial harmonic
n(n) - tapped harmonic
 ~   - vibrato
 tr  - trill
 T   - tap
 TP  - trem. picking
 PM  - palm muting
\n/  - tremolo bar dip; n = amount to dip
 \n  - tremolo bar down
 n/  - tremolo bar up
/n\  - tremolo bar inverted dip
 =   - hold bend; also acts as connecting device for hammers/pulls
 <>  - volume swell (louder/softer)
 x   - on rhythm slash represents muted slash
 o   - on rhythm slash represents single note slash

Misc Legend
-----------
 |  - bar
||  - double bar
||o - repeat start
o|| - repeat end
*|  - double bar (ending)
 :  - bar (freetime)
 $  - Segno
 &  - Coda
Tempo markers -  = BPM(8/16=s8/s16), where s8 = swing 8ths, s16 = swing 16ths


***************************************************************************************
* Generated using Power Tab Editor by Brad Larsen - http://powertab.guitarnetwork.org *
***************************************************************************************
comments
print report bad tab
I want to post or [tab]
guest
You may want to rate the tab now too:
select rating
Please do not post tabs as comments. Select "correction" instead!