Oops, an error
Loading. Please wait.

Nightmare Bass Tab

ver1
ver1
More versions @911Tabs.com
18,209 views 18 this week
3 commentsread comments
1 2 3 4 5
accurate
x 4
add to favorites launch autoscroll
font size
0
reset
Autoscroll
+/-
esc
set tempo
stop
Contributor
Difficulty
Tuning
intermediate
C G C F A D
WARNING: You are trying to view
                                    content from Ultimate-Guitar.com
                                    in an unauthorized application,
                                    which is prohibited.

                                    Please use an official Ultimate
                                    Guitar Tabs application for iPhone,
                                    iPad or Android to access legitimate
                                    chords, guitar, bass, and drum tabs
                                    from Ultimate-Guitar.com database.

                                    Type "ultimate guitar tabs" in Apple
                                    App Store's or Android Market's
                                    search to find the application.
Artist: Avenged Sevenfold
Album: Nightmare
Instrument: Guitar
Tabbed By: Many Of People
Compiled By: Thommoboy


-----------------------------------------------------------------------------------------

All songs written and composed by Sanders/Haner/Seward/Baker/Sullivan. 

Standard Single Disc Edition[21][22] 
No. Title Length 
1. "Nightmare"   6:14 - rafseu
2. "Welcome to the Family"   4:06 - VintageBassline
3. "Danger Line"   5:28 - VintageBassline
4. "Buried Alive"   6:44 - 6BassRocker66
5. "Natural Born Killer"   5:15 - spencer9449
6. "So Far Away"   5:27 - fender4string
7. "God Hates Us"   5:19 - VintageBassline
8. "Victim"   7:30 - Thommoboy (Currently Tabbing)
9. "Tonight the World Dies"   4:41 - Thommoboy (Currently Tabbing)
10. "Fiction"   5:13 - Thommoboy (Currently Tabbing)
11. "Save Me"   10:56 - Josh
Total length: 66:47 


-----------------------------------------------------------------------------------------

Track 1: Nightmare - rafseu

Intro

G|------------------------------------------------------------------|
D|------------------------------------------------------------------|
A|------------------------------------------------------------------|
D|-0~0000-----0~0000-----0~0000--000-000-000-000-000-000-000-000~~~-|

G|----------------------------------------------------|
D|----------------------------------------------------|
A|-------------------------------1~111-2~222-3~3334~~-|
D|-00000000000000~~~0000000000000---------------------|

Intro 2

G|------------------------------------------------------------------|
D|------------------------------------------------------------------|
A|------------------------------------------------------------------|
D|-00000000000000000000000000000000000000000000000000000000000-3/12-|

Verse

G|----------------------------------------------------------------|
D|----------------------------------------------------------------|
A|----------------------------------------------------------------| 2x
D|-3~-0--000000-3~-0--000000-3~-0--000000-5-333-6-333-5-333-6-333-|		Pre-Chorus

G|---------------------------------------------------------------|	|-------------------------|
D|---------------------------------------------------------------|	|-------------------------|
A|---------------------------------------------------------------| 2x   |-------------------------|
D|-3~-000-3-00-3-00-3-00-303-00-3-00-3-0-5-333-6-333-5-333-6-333-|	|-5-333-6-333-5-333-6-333-|

Chorus

G|---------------------------------------------|
D|---------------------------------------------|
A|-----3~~-----1~~-----3~530-----1~~-000000000-|
D|-0~~-----3~~-----0~~-------3~~---------------|

Pos-Chorus

G|------------------------------------------------------------------|
D|------------------------------------------------------------------|
A|------------------------------------------------------------------|
D|-00000000000000000000000000000000000000000000000000000000000-3/12-|

Verse 2

G|----------------------------------------------------------------|
D|----------------------------------------------------------------|
A|----------------------------------------------------------------| 2x
D|-3~-0--000000-3~-0--000000-3~-0--000000-5-333-6-333-5-333-6-333-|		Pre-Chorus

G|---------------------------------------------------------------|	|-------------------------|
D|---------------------------------------------------------------|	|-------------------------|
A|---------------------------------------------------------------| 2x   |-------------------------|
D|-3~-000-3-00-3-00-3-00-303-00-3-00-3-0-5-333-6-333-5-333-6-333-|	|-5-333-6-333-5-333-6-333-|

Chorus 2

G|-----------------------------------|	  |------------|
D|-----------------------------------|	  |------------|
A|-----3~~-----1~~-----3~530-----1~~-| 2x |-000000000-|
D|-0~~-----3~~-----0~~-------3~~-----|	  |------------|

Ponte

G|----------------------------------------------------------------------------|
D|----------------------------------------------------------------------------|
A|-------------------------------------------------------1~111-2~222-3~333-4~-|
D|------0~-0000~-0000~-0000~-0000~-0000~-0000~-0000~-000----------------------|


G|---------------------------------------------------------------------------------|
D|---------------------------------------------------------------------------------|
A|-------------------------------------------------------------1111-2222-3333-4444-| 2X
D|-0--0030-0-0030-003~-0--0030-0-0030-003~-0--0030-0-0030-003~---------------------|

Ponte 2

G|--------------------------------------------------| _ |-------------------|
D|--------------------------------------------------| _ |-------------------|
A|--------------------------------------------------| 3x |-11111111111111-2-|
D|-3~-000-3-00-3-00-3-00-303-00-3-00-303-00-3-00-30-| _ |-------------------|

G|--------------------------------------------------|
D|--------------------------------------------------|
A|--------------------------------------------------| 3x
D|-3~-000-3-00-3-00-3-00-303-00-3-00-303-00-3-00-30-|

Ponte 3

G|----------------------------------|
D|------------------------------4-0-|
A|-1-111-111-111-113-333-333-33-----|
D|----------------------------------|

G|----------------------------------|
D|---------------------------7-5-2--|
A|-1-111-111-111-113-333-333--------|
D|----------------------------------|

G|----------------------------------|
D|------------------------------4-0-|
A|-1-111-111-111-113-333-333-33-----|
D|----------------------------------|

G|------------------------------------------|
D|------------------------------------------|
A|-1-111-111-111-113-333-334444444444444444-|
D|------------------------------------------|

Pre-Chorus

G|------------------------------------------------------------------|
D|------------------------------------------------------------------|
A|------------------------------------------------------------------|
D|-00000000000000000000000000000000000000000000000000000000000-3/12-|

Chorus 2

G|-----------------------------------|	  |-----------|
D|-----------------------------------|	  |-----------|
A|-----3~~-----1~~-----3~530-----1~~-| 2x |000000000-|
D|-0~~-----3~~-----0~~-------3~~-----|	  |-----------|




-----------------------------------------------------------------------------------------


Track 2: Welcome to the Family - 


NB - (n) notes inside parentheses are optional 
   - where two 'o' are used, repeat between

Intro
G|---------------------------------|
D|---------------------------------|
A|---------------------------------|
D|---------------------------------| x3

Verse 1
G|---------------------------------|---------------------------------|
D|o--------------------------------|---------------------------------|
A|o--------------------------------|---------------------------------|
D|-0---0-0-0/8-\-7---0-0-0/5-\-8---|-0---0---0-0-0-3-5-3-2-3-2-0-----|

G|---------------------------------|---------------------------------|
D|---------------------------------|--------------------------------o|
A|---------------------------------|--------------------------------o|
D|-0---0-0-0/8-\-7---0-0-0/5-\-8---|-0---0---0-0-3-----2-----7-------| 

Pre Chorus
G|---------------------------------|---------------------------------|
D|o--------------------------------|--------------------------------o|
A|o--------------------------------|--------------------------------o|
D|-8---8-----8-8-8-7---7-7---7-7-7-|(8-8-7-7-8-8-7-7-8-8-3-5-3-2-3-2)|

G|---------------------------------|---------------------------------|
D|---------------------------------|---------------------------------|
A|---------------------------------|---------------------------------|
D|-8---8-----8-8-8-8-8-8-8-8-8-8-8-|-7---7-----7-7-7-7-7-7-7-7-7-7-7-|

G|---------------------------------|
D|---------------------------------|
A|---------------------------------|
D|-7-------5-------3---------------|

Chorus                              
G|---------------------------------|---------------------------------|    
D|---------------------------------|---------------------------------|   
A|---------------------------------|---------------------------------|    
D|-0---0-----0-0---8---8-----8-8---|-3---3-----3-3---2---2-----2-2---|   
                                       
G|---------------------------------|---------------------------------|
D|---------------------------------|---------------------------------|
A|---------------------------------|-----------------4-4-4-4-4-4-4-4-|
D|-0---0-----0-0---8---8-----8-8---|-3---3-----3-3-------------------|

G|---------------------------------|---------------------------------|    
D|---------------------------------|---------------------------------|   
A|---------------------------------|---------------------------------|    
D|-0---0-----0-0---8---8-----8-8---|-3---3-----3-3---2---2-----2-2---|   
                                       
G|---------------------------------|---------------------------------|
D|---------------------------------|---------------------------------|
A|---------------------------------|---------------------------------|
D|-0---0-----0-0---8---8-----8-8---|-7-------5-------3---------------|

Verse 2
G|---------------------------------|---------------------------------|
D|o--------------------------------|---------------------------------|
A|o--------------------------------|---------------------------------|
D|-0---0-0-0/8-\-7---0-0-0/5-\-8---|-0---0---0-0-0-3-5-3-2-3-2-0-----|

G|---------------------------------|---------------------------------|
D|---------------------------------|--------------------------------o|
A|---------------------------------|--------------------------------o|
D|-0---0-0-0/8-\-7---0-0-0/5-\-8---|-0---0---0-0-3-----2-----7-------| 

Pre Chorus
G|---------------------------------|---------------------------------|
D|o--------------------------------|--------------------------------o|
A|o--------------------------------|--------------------------------o|
D|-8---8-----8-8-8-7---7-7---7-7-7-|(8-8-7-7-8-8-7-7-8-8-3-5-3-2-3-2)|

G|---------------------------------|---------------------------------|
D|---------------------------------|---------------------------------|
A|---------------------------------|---------------------------------|
D|-8---8-----8-8-8-8-8-8-8-8-8-8-8-|-7---7-----7-7-7-7-7-7-7-7-7-7-7-|

G|---------------------------------|
D|---------------------------------|
A|---------------------------------|
D|-7-------5-------3---------------|

Chorus                                                            
G|---------------------------------|---------------------------------|    
D|---------------------------------|---------------------------------|   
A|---------------------------------|---------------------------------|    
D|-0---0-----0-0---8---8-----8-8---|-3---3-----3-3---2---2-----2-2---|   
                                       
G|---------------------------------|---------------------------------|
D|---------------------------------|---------------------------------|
A|---------------------------------|-----------------4-4-4-4-4-4-4-4-|
D|-0---0-----0-0---8---8-----8-8---|-3---3-----3-3-------------------|

G|---------------------------------|---------------------------------|    
D|---------------------------------|---------------------------------|   
A|---------------------------------|---------------------------------|    
D|-0---0-----0-0---8---8-----8-8---|-3---3-----3-3---2---2-----2-2---|   
                                       
G|---------------------------------|---------------------------------|
D|---------------------------------|---------------------------------|
A|---------------------------------|---------------------------------|
D|-0---0-----0-0---8---8-----8-8---|-7-------5-------3---------------|

Breakdown
G|---------------------------------|---------------------------------|
D|---------------------------------|---------------------------------|
A|---------------------------------|---------------------------------|
D|-0000---0000-------0000---0000---|--0000---0000-------0000---0000--|
 
G|---------------------------------|
D|---------------------------------|
A|---------------------------------|
D|-000000000000000000000000--------|

Solo
G|---------------------------------|---------------------------------|
D|o--------------------------------|--------------------------------o|
A|o--------------------------------|--------------------------------o|
D|-8---8-----8-8-8-7---7-7---7-7-7-|-0000000000000000000-3-3-2-2-1-1-| x4

G|---------------------------------|---------------------------------|
D|---------------------------------|---------------------------------|
A|---------------------------------|---------------------------------|
D|-8---8-----8-8-8-8-8-8-8-8-8-8-8-|-7---7-----7-7---7-7-7-7-7-7-7-7-|

G|---------------------------------|--------------------|
D|---------------------------------|--------------------|
A|---------------------------------|--------------------|
D|-8---8-----8-8-8-8-8-8-8-8-8-8-8-|-7---7-5---5-3---2--|

Bridge
G|---------------------------------|---------------------------------|
D|---------------------------------|---------------------------------|
A|---------------------------------|---------------------------------|
D|-0--------0-------0-0------------|-2--------2-------2-2------------|

G|---------------------------------|---------------------------------|
D|---------------------------------|---------------------------------|
A|---------------------------------|-1--------1-------1-1------------|
D|-3--------3-------3-3------------|---------------------------------|

G|---------------------------------|---------------------------------|
D|o--------------------------------|---------------------------------|
A|o1--------1-------1-1------------|-3--------3-------3-3------------|
D|---------------------------------|---------------------------------|

G|---------------------------------|---------------------------------|
D|---------------------------------|--------------------------------o|
A|---------------------------------|-1--------1-------1-1-----------o|
D|-3--------3-------3-3------------|---------------------------------|

G|---------------------------------|---------------------------------|
D|---------------------------------|---------------------------------|
A|-1--------1-------1-1------------|-3--------3-------3-3------------|
D|---------------------------------|---------------------------------|

G|---------------------------------|---------------------------------|
D|---------------------------------|---------------------------------|
A|---------------------------------|-----------------3------3------3-|
D|-3------3------3-2------2------2-|-0------0------0-----------------|

Pre Chorus (Play either optional note, personally I think the Bb [3] sounds better)
G|----(3)-----(3)-----(3)-----(3)--|---------------------------------|
D|---------------------------------|---------------------------------|
A|-1-1(1)--1-1(1)--1-1(1)--1-1(1)--|-0-0-0-0-0-0-0-0-0-0-0-0-0-------|
D|---------------------------------|---------------------------------|

Chorus                              
G|---------------------------------|---------------------------------|    
D|---------------------------------|---------------------------------|   
A|---------------------------------|---------------------------------|    
D|-0---0-----0-0---8---8-----8-8---|-3---3-----3-3---2---2-----2-2---|   
                                       
G|---------------------------------|---------------------------------|
D|---------------------------------|---------------------------------|
A|---------------------------------|-----------------4-4-4-4-4-4-4-4-|
D|-0---0-----0-0---8---8-----8-8---|-3---3-----3-3-------------------|

G|---------------------------------|---------------------------------|    
D|---------------------------------|---------------------------------|   
A|---------------------------------|---------------------------------|    
D|-0---0-----0-0---8---8-----8-8---|-3---3-----3-3---2---2-----2-2---|   
                                       
G|---------------------------------|---------------------------------|
D|---------------------------------|---------------------------------|
A|---------------------------------|---------------------------------|
D|-0---0-----0-0---8---8-----8-8---|-7---7---7---7---5---5---5---5---|

G|---------------------------------|
D|---------------------------------|
A|---------------------------------|
D|-3---3---3---3---2---2---2---2---|

Outro
G|---------------------------------|---------------------|
D|o--------------------------------|--------------------o|
A|o--------------------------------|--------------------o|
D|-0000---0000-------0000---0000---|--0000---00003---6---| x4



-----------------------------------------------------------------------------------------


Track 3: Danger Line - VintageBassline


NB - (n) notes inside parentheses are optional
   - where two 'o' are used, repeat between (if repeat is more than x2, it will be 
ABOVE bar)

Intro Pt. 1
G|--------------------------------|--------------------------------|
D|--------------------------------|--------------------------------|
A|--------------------------------|--------------------------------|
D|-1------1--1--1--1------1--1--1-|-1------1--1--1--1------1-------|

G|--------------------------------|--------------------------------|
D|--------------------------------|--------------------------------|
A|--------------------------------|--------------------------------|
D|-1------1--1--1--1------1--1--1-|-1------1------1------1--1--1--1|

G|--------------------------------|--------------------------------|
D|--------------------------------|--------------------------------|
A|--------------------------------|--------------------------------|
D|-1------1--1--1--1------1--1--1-|-1------1-------1-------1--1--1-|

G|--------------------------------|--------------------------------|
D|--------------------------------|--------------------------------|
A|--------------------------------|--------------------------------|
D|-1------1--1--1--1------1--1--1-|-1------1------1------1--1--1--1|

G|--------------------------------|--------------------------------|
D|--------------------------------|--------------------------------|
A|--------------------------------|--------------------------------|
D|-1------1--1--1--1------1--1--1-|-1-------1-------1-------1------|

G|--------------------------------|--------------------------------|
D|--------------------------------|--------------------------------|
A|--------------------------------|--------------------------------|
D|-1------1--1--1--1------1--1--1-|-1------1------1------1--1--1--1|

G|--------------------------------|--------------------------------|
D|--------------------------------|--------------------------------|
A|--------------------------------|--------------------------------|
D|-1------1--1--1--1------1--1--1-|-1------1-------1-------1--1--1-|

G|--------------------------------|--------------------------------|
D|--------------------------------|--------------------------------|
A|--------------------------------|--------------------------------|
D|-1------1--1--1--1------1--1--1-|-1------------------------------|

Intro Pt. 2
G|--------------------------------|--------------------------------|
D|o-------------------------------|--------------------------------|
A|o-------------------------------|--------------------------------|
D|-0-------0-------0-------0------|-0-------0-------0-------0------|

G|--------------------------------|--------------------------------|
D|--------------------------------|--------------------------------|
A|--------------------------------|--------------------------------|
D|-6-------6-------6-------6------|-6-------6-------6-------6------|

G|--------------------------------|--------------------------------|
D|--------------------------------|--------------------------------|
A|--------------------------------|--------------------------------|
D|-5-------5-------5-------5------|-5-------5-------5-------5------|

G|--------------------------------|--------------------------------|
D|--------------------------------|-------------------------------o|
A|--------------------------------|-------------------------------o|
D|-1-------1-------1-------1------|-1-------1-------1-------1------|

G|--------------------------------|--------------------------------|
D|--------------------------------|--------------------------------|
A|--------------------------------|--------------------------------|
D|--------------------------------|--------------------------------|

Verse 1
G|--------------------------------|--------------------------------|
D|o-------------------------------|-------------------------------o|
A|o-------------------------------|-------------------------------o|
D|-0----------0----------0--0--0--|-0----------0----------0--0--0--|

G|--------------------------------|--------------------------------|
D|o-------------------------------|-------------------------------o|
A|o-------------------------------|-------------------------------o|
D|-5----------5----------5--5--5--|-5----------5----------5--5--5--|
                                 x3
G|--------------------------------|--------------------------------|
D|o------------------------------o|--------------------------------|
A|o------------------------------o|--------------------------------|
D|--0----0----3----0----0-0-0-0-0-|-0----0----3----0----0----3----0|
                                 x3
G|--------------------------------|--------------------------------|
D|o------------------------------o|--------------------------------|
A|o------------------------------o|--------------------------------|
D|--5----5----8----5----5-5-5-5-5-|-5----5----8----5----5----8----5|

G|--------------------------------|--------------------------------|
D|--------------------------------|--------------------------------|
A|--------------------------------|--------------------------------|
D|--------------------------------|--------------------------------|

Chorus
G|--------------------------------|--------------------------------|
D|--------------------------------|--------------------------------|
A|--------------------------------|--------------------------------|
D|-0---0-------0---0---0-------0--|-0---0-------0---0---0-------0--|

G|--------------------------------|--------------------------------|
D|o-------------------------------|-------------------------------o|
A|o-------------------------------|-------------------------------o|
D|-5---5-------5---5---5-------5--|-5---5-------5---5---5-------5--|

G|--------------------------------|--------------------------------|
D|o-------------------------------|-------------------------------o|
A|o-------------------------------|-------------------------------o|
D|-0---0-------0---0---0-------0--|-0---0-------0---0---0-------0--|

G|--------------------------------|--------------------------------|
D|o-------------------------------|-------------------------------o|
A|o-------------------------------|-------------------------------o|
D|-5---5-------5---5---5-------5--|-5---5-------5---5---5-------5--|

G|--------------------------------|--------------------------------|
D|--------------------------------|--------------------------------|
A|--------------------------------|--------------------------------|
D|-0---0-------0---0---0-------0--|-0---0-------0---0---0-------0--|

G|--------------------------------|--------------------------------|
D|--------------------------------|--------------------------------|
A|--------------------------------|--------------------------------|
D|-0-------0-------0-------0------|-0-------0-------0-------0------|

G|--------------------------------|--------------------------------|
D|--------------------------------|--------------------------------|
A|--------------------------------|--------------------------------|
D|-6-------6-------6-------6------|-6-------6-------6-------6------|

G|--------------------------------|--------------------------------|
D|--------------------------------|--------------------------------|
A|--------------------------------|--------------------------------|
D|-5-------5-------5-------5------|-5-------5-------5-------5------|

G|--------------------------------|--------------------------------|
D|--------------------------------|--------------------------------|
A|--------------------------------|--------------------------------|
D|-1-------1-------1-------1------|-1-------1-------1-------1------|

G|--------------------------------|--------------------------------|
D|--------------------------------|--------------------------------|
A|--------------------------------|--------------------------------|
D|--------------------------------|--------------------------------|

Verse 2
G|--------------------------------|--------------------------------|
D|o-------------------------------|-------------------------------o|
A|o-------------------------------|-------------------------------o|
D|-0----------0----------0--0--0--|-0----------0----------0--0--0--|

G|--------------------------------|--------------------------------|
D|o-------------------------------|-------------------------------o|
A|o-------------------------------|-------------------------------o|
D|-5----------5----------5--5--5--|-5----------5----------5--5--5--|
                                 x3
G|--------------------------------|--------------------------------|
D|o------------------------------o|--------------------------------|
A|o------------------------------o|--------------------------------|
D|--0----0----3----0----0-0-0-0-0-|-0----0----3----0----0----3----0|
                                 x3
G|--------------------------------|--------------------------------|
D|o------------------------------o|--------------------------------|
A|o------------------------------o|--------------------------------|
D|--5----5----8----5----5-5-5-5-5-|-5----5----8----5----5----8----5|

G|--------------------------------|--------------------------------|
D|--------------------------------|--------------------------------|
A|--------------------------------|--------------------------------|
D|--------------------------------|--------------------------------|


Chorus
G|--------------------------------|--------------------------------|
D|--------------------------------|--------------------------------|
A|--------------------------------|--------------------------------|
D|-0---0-------0---0---0-------0--|-0---0-------0---0---0-------0--|

G|--------------------------------|--------------------------------|
D|o-------------------------------|-------------------------------o|
A|o-------------------------------|-------------------------------o|
D|-5---5-------5---5---5-------5--|-5---5-------5---5---5-------5--|

G|--------------------------------|--------------------------------|
D|o-------------------------------|-------------------------------o|
A|o-------------------------------|-------------------------------o|
D|-0---0-------0---0---0-------0--|-0---0-------0---0---0-------0--|

G|--------------------------------|--------------------------------|
D|o-------------------------------|-------------------------------o|
A|o-------------------------------|-------------------------------o|
D|-5---5-------5---5---5-------5--|-5---5-------5---5---5-------5--|

G|--------------------------------|--------------------------------|
D|--------------------------------|--------------------------------|
A|--------------------------------|--------------------------------|
D|-0---0-------0---0---0-------0--|-0---0-------0---0---0-------0--|

G|--------------------------------|--------------------------------|
D|--------------------------------|--------------------------------|
A|-1---1-------1---1---1-------1--|-1---1-------1---1---1-------1--|
D|--------------------------------|--------------------------------|

G|--------------------------------|--------------------------------|
D|--------------------------------|--------------------------------|
A|--------------------------------|--------------------------------|
D|-5---5-------5---5---5-------5--|-5---5-------5---5---5-------5--|

Bridge
G|--------------------------------|--------------------------------|
D|--------------------------------|--------------------------------|
A|-1---1---1---1---1---1---1---1--|-1---1---1---1---1---1---1---1--|
D|--------------------------------|--------------------------------|

G|--------------------------------|--------------------------------|
D|--------------------------------|--------------------------------|
A|--------------------------------|--------------------------------|
D|-3---3---3---3---3---3---3---3--|-3---3---3---3---3---3---3---3--|

G|--------------------------------|--------------------------------|
D|--------------------------------|--------------------------------|
A|--------------------------------|--------------------------------|
D|-2---2---2---2---2---2---2---2--|-2---2---2---2---2---2---2---2--|

G|--------------------------------|--------------------------------|
D|--------------------------------|--------------------------------|
A|--------------------------------|--------------------------------|
D|-0---0---0---0---0---0---0---0--|-0---0---0---0---0---0---0---0--|

G|--------------------------------|--------------------------------|
D|--------------------------------|--------------------------------|
A|-1---1---1---1---1---1---1---1--|-1---1---1---1---1---1---1---1--|
D|--------------------------------|--------------------------------|

G|--------------------------------|--------------------------------|
D|--------------------------------|--------------------------------|
A|--------------------------------|--------------------------------|
D|-3---3---3---3---3---3---3---3--|-3---3---3---3---3---3---3---3--|
                                 x3
G|--------------------------------|--------------------------------|
D|o------------------------------o|-----------------0---0---1---1--|
A|o0---0---0---0---0---0---0---0-o|-1---1---3---3------------------|
D|--------------------------------|--------------------------------|

G|--------------------------------|--------------------------------|
D|--------------------------------|--------------------------------|
A|-1---1-1-1-1---1-1-1-1---1---1-1|-1---1-1-1-1---1-1-1-1---1---1-1|
D|--------------------------------|--------------------------------|

G|--------------------------------|--------------------------------|
D|--------------------------------|--------------------------------|
A|--------------------------------|--------------------------------|
D|-3---3-3-3-3---3-3-3-3---3---3-3|-3---3-3-3-3---3-3-3-3---3---3-3|

G|--------------------------------|--------------------------------|
D|--------------------------------|--------------------------------|
A|--------------------------------|--------------------------------|
D|-2---2-2-2-2---2-2-2-2---2---2-2|-2---2-2-2-2---2-2-2-2---2---2-2|

G|--------------------------------|--------------------------------|
D|--------------------------------|--------------------------------|
A|--------------------------------|--------------------------------|
D|-0---0-0-0-0---0-0-0-0---0---0-0|-0---0-0-0-0---0-0-0-0---0---0-0|

G|--------------------------------|--------------------------------|
D|--------------------------------|--------------------------------|
A|-1---1-1-1-1---1-1-1-1---1---1-1|-1---1-1-1-1---1-1-1-1---1---1-1|
D|--------------------------------|--------------------------------|

G|--------------------------------|--------------------------------|
D|--------------------------------|--------------------------------|
A|--------------------------------|--------------------------------|
D|-3---3-3-3-3---3-3-3-3---3---3-3|-3---3-3-3-3---3-3-3-3---3---3-3|

G|--------------------------------|--------------------------------|
D|--------------------------------|--------------------------------|
A|-0---0-0-0-0---0-0-0-0---0---0-0|-0---0-0-0-0---0-0-0-0---0---0-0|
D|--------------------------------|--------------------------------|

G|--------------------------------|--------------------------------|
D|--------------------------------|-0---0-0-0-0---0-0-0-0---1---1-1|
A|-1---1-1-1-1---1-1-1-1---3---3-3|--------------------------------|
D|--------------------------------|--------------------------------|
                                                                 x16
G|--------------------------------|--------------------------------|
D|o-------------------------------|-------------------------------o|
A|o-------------------------------|-------------------------------o|
D|--------------------------------|--------------------------------|

Solo
G|--------------------------------|--------------------------------|
D|--------------------------------|--------------------------------|
A|-1------------------------------|------------------------0-------|
D|--------------------------------|--------------------------------|

G|--------------------------------|--------------------------------|
D|--------------------------------|--------------------------------|
A|--------------------------------|------------------------0-------|
D|-3------------------------------|--------------------------------|

G|--------------------------------|--------------------------------|
D|--------------------------------|------------------------2-------|
A|-3------------------------------|--------------------------------|
D|--------------------------------|--------------------------------|

G|--------------------------------|--------------------------------|
D|-0------------------------------|-2----------------3------\------|
A|--------------------------------|--------------------------------|
D|--------------------------------|--------------------------------|

G|--------------------------------|--------------------------------|
D|--------------------------------|--------------------------------|
A|-1------------------------------|-1-------3--------1-------0-----|
D|--------------------------------|--------------------------------|

G|--------------------------------|--------------------------------|
D|--------------------------------|--------------------------------|
A|--------------------------------|--------------------------------|
D|-3------------------------------|------------------------5-------|

G|--------------------------------|--------------------------------|
D|--------------------------------|------------------------2-------|
A|-0------------------------------|--------------------------------|
D|--------------------------------|--------------------------------|

G|-2------------------------------|-2----------------2-------------|
D|--------------------------------|--------------------------------|
A|--------------------------------|--------------------------------|
D|--------------------------------|--------------------------------|

G|--------------------------------|--------------------------------|
D|--------------------------------|--------------------------------|
A|-1------------------------------|------------------------0-------|
D|--------------------------------|--------------------------------|

G|--------------------------------|--------------------------------|
D|--------------------------------|--------------------------------|
A|--------------------------------|------------------------0-------|
D|-3------------------------------|--------------------------------|

G|--------------------------------|--------------------------------|
D|--------------------------------|------------------------2-------|
A|-3------------------------------|--------------------------------|
D|--------------------------------|--------------------------------|

G|--------------------------------|--------------------------------|
D|-0-------0---------------0------|---------2-------3--------------|
A|--------------------------------|------------------------0-------|
D|--------------------------------|--------------------------------|

G|--------------------------------|--------------------------------|
D|--------------------------------|--------------------------------|
A|-1------------------------------|-1-------3--------1-------0-----|
D|--------------------------------|--------------------------------|

G|--------------------------------|--------------------------------|
D|--------------------------------|--------------------------------|
A|--------------------------------|--------------------------------|
D|-3------------------------------|------------------------5-------|

G|--------------------------------|--------------------------------|
D|--------------------------------|------------------------2-------|
A|-0------------------------------|--------------------------------|
D|--------------------------------|--------------------------------|

G|-2------------------------------|-2----------------2-------------|
D|--------------------------------|--------------------------------|
A|--------------------------------|--------------------------------|
D|--------------------------------|--------------------------------|

Outro                                                            x12
G|--------------------------------|--------------------------------|
D|o-------------------------------|-------------------------------o|
A|o-------------------------------|-------------------------------o|
D|--------------------------------|--------------------------------|


-----------------------------------------------------------------------------------------



Track 4: Buried Alive - 6BassRocker66


Drop D Tuning. Enjoy.

Intro, Comes in with guitar
G|-------9~---7~~--------|
D|-7~~-10---------10-9-7-|
A|-----------------------|
D|-----------------------|

G|-------9~---7~~-9-10-9~|
D|-7~~-10----------------|
A|-----------------------|
D|-----------------------|

G|-----------7~-------7~---|
D|-7~-9~-10~----7~-9~---10~|  Play this part twice.
A|-------------------------|  <-----
D|-------------------------|

G|-------------------------|
D|-7~~-5~~-3~~-7~~-5~~-3~~-|
A|-------------------------|
D|-------------------------|

Verse x8

G|-------------------------------------------|
D|-------------------------------------------|
A|0-00-2-3~-3-5-7~--8~-8-8-10-8--7-7-7-5-3-2-|
D|-------------------------------------------|

Pre-Chorus x2

G|-----------------------------------|
D|-3-3-3-5-3-2--2-2-2-3-2----4-3-2-0-|
A|------------------------3~---------|
D|-----------------------------------|

Chorus x2

G|-------------------------------------------------------|
D|-------------------------------------------------------|
A|-----------------------------------------------7-5-8-7-|
D|7~77-2-3~-333-666-7-99--7~77-2-3~-333-666-7-99---------|

Chorus Ending

G|---------------|
D|---------------|
A|-7~-7~-7-5-8-7-|
D|---------------|

Verse x6
Pre-Chorus x2
Chorus x2
Chorus Ending x2

1st Solo

G|---------------------------------|
D|---------------------------------| Play this part 4 times
A|000000223333333888888888-7-5-8-7-| <-----
D|---------------------------------|

G|---------------------------------|
D|---------------------------------| This Part is played twice.
A|---------------------------------| <-----
D|-7-7-7-2-3-3-3-2-7-7-7-2-3-3-3-2-|

G|------------------------------------|
D|------------------------7-5-8-7-----|
A|--------------------------------0~~-|
D|-6666-5555-4444-3333-0~-------------|

Verse 3 (You will get the Ryhtym by ear) 

G|--------------------------------|
D|--------------------------------| Play this part four times
A|--------------------------------| <-----
D|2222222222222222222-555-444-333-|

G|-----------------------------------------|
D|-----------------------------------------|
A|00-22-33--222-33-55--00-22-33--222-33-55-|
D|-----------------------------------------|

G|--------------------------------|
D|--------------------------------| Play this part twice
A|--------------------------------| <-----
D|2222222222222222222-555-444-333-|

G|-----------------------------------------|
D|-----------------------------------------|
A|00-22-33--222-33-55--00-22-33--222-33-55-|
D|-----------------------------------------|

During 2nd Solo

G|--------------------|
D|--------------------| 
A|--------------------|
D|2222222222222222222-|

Outro

G|------------------------------------------|
D|------------------------------------------| Play this Part 4 times
A|------------------------------------------| <-----
D|-2--5-4--3-2-222-222--2--5-4--3-2-222-222-|

G|---------------------------------|
D|---------------------------------|
A|---------------------------------|
D|-2--5-4--3-2-222-222-2--5-4--3-2-|

Thats it!

-----------------------------------------------------------------------------------------


Track 5: Natural Born Killer - spencer9449


(0:00)           (0:02)
G---------------|--------------------------------------------------------------|
D---------------|--------------------------------------------------------------|
A---------------|-1-3----1-3----1-3----1-3---1-3----1-3----1-3----1-3----------|
D---~----~------|--------------------------------------------------------------|

(0:21)
G------------------------------------------------------------------------------|
D------------------------------------------------------------------------------|
A------------------------------------------------------------------------------|
D-1111111111111111-------------------------------------------------------------|
(0:26)
G------------------------------------------------------------------------------|
D------------------------------------------------------------------------------|
A------------------------------------------------------------------------------|
D-0--0-0-0-0-3-0-5-0-7-0-6-0-4-0-3-0-0-0-0-0-0-0-0000000000000000--------------|(2x)
(0:36)
G--------------------------------|---------------------------------------------|
D--------------------------------|---------------------------------------------|
A--------------------------------|---------------------------------------------|
D-0--0-0-0-0-0-0-0-0-0-0-1-3-----|-----0--0-0-0-0-0-0-0-0-0-0-1-3--------------|
(0:41)
G------------------------------------------------------------------------------|
D------------------------------------------------------------------------------|
A------------------------------------------------------------------------------|
D-0--0-0-0-0-0-0-0-0-0-0-0-0-0-0-3-0-5-0-7-0-5-0-3-0-5-0-3-0-7-0---------------|
(0:47)
G------------------------------------------------------------------------------|
D------------------------------1-3---------------------------------------------|
A------------------------------------------------------------------------------|
D-1111111111111111111111111111-------------------------------------------------|
(0:52)
G------------------------------------------------------------------------------|
D------------------------------------------------------------------------------|
A------------------------------------------------------------------------------|
D-0--0-0-0-0-3-0-5-0-7-0-6-0-4-0-3-0-0-0-0-0-0-0-0000000000000000--------------|
(0:57)
G------------------------------------------------------------------------------|
D------------------------------1-3---------------------------------------------|
A------------------------------------------------------------------------------|
D-1111111111111111111111111111-------------------------------------------------|
(1:02)
G------------------------------------------------------------------------------|
D------------------------------------------------------------------------------|
A------------------------------------------------------------------------------|
D-0--0-0-0-0-3-0-5-0-7-0-6-0-4-0-3-0-0-0-0-0-0-0-0000000000000000--------------|
(1:07)
G-----------------------------------------7----------5-7-9---------------------|
D----7-10-7-6----4-7-7-4-430----7-10-77-10-70----575---------------------------|
A------------------------------------------------------------------------------|
D-8~----------5~-------------8~---------------5~-------------------------------|
(1:18)
G------------------------------------------------------------------------------|
D------------------------------------------------------------------------------|
A--------------------------(66-66-66-66-6-6)-----------------------------------|
D-0-0-0-7-7-7-8-8-8-5-5-5------------------------------------------------------|(4x)
(1:41)
G------------------------------------------------------------------------------|
D------------------------------------------------------------------------------|
A------------------------------------------------------------------------------|
D-0--0-0-0-0-3-0-5-0-7-0-6-0-4-0-3-0-0-0-0-0-0-0-0000000000000000--------------|(2X)
(1:51)
G--------------------------------|---------------------------------------------|
D--------------------------------|---------------------------------------------|
A--------------------------------|---------------------------------------------|
D-0--0-0-0-0-0-0-0-0-0-0-1-3-----|-----0--0-0-0-0-0-0-0-0-0-0-1-3--------------|
(1:57)
G------------------------------------------------------------------------------|
D------------------------------------------------------------------------------|
A------------------------------------------------------------------------------|
D-0--0-0-0-0-0-0-0-0-0-0-0-0-0-0-3-0-5-0-7-0-5-0-3-0-5-0-3-0-7-0---------------|
(2:02)
G------------------------------------------------------------------------------|
D------------------------------1-3---------------------------------------------|
A------------------------------------------------------------------------------|
D-1111111111111111111111111111-------------------------------------------------|
(2:07)
G------------------------------------------------------------------------------|
D------------------------------------------------------------------------------|
A------------------------------------------------------------------------------|
D-0--0-0-0-0-3-0-5-0-7-0-6-0-4-0-3-0-0-0-0-0-0-0-0000000000000000--------------|
(2:12)
G------------------------------------------------------------------------------|
D------------------------------1-3---------------------------------------------|
A------------------------------------------------------------------------------|
D-1111111111111111111111111111-------------------------------------------------|
(2:17)
G------------------------------------------------------------------------------|
D------------------------------------------------------------------------------|
A------------------------------------------------------------------------------|
D-0--0-0-0-0-3-0-5-0-7-0-6-0-4-0-3-0-0-0-0-0-0-0-0000000000000000--------------|
(2:23)
G-----------------------------------------7----------5-7-9---------------------|
D----7-10-7-6----4-7-7-4-430----7-10-77-10-70----575---------------------------|
A------------------------------------------------------------------------------|
D-8~----------5~-------------8~---------------5~-------------------------------|
(2:33)
G------------------------------------------------------------------------------|
D------------------------------------------------------------------------------|
A--------------------------(66-66-66-66-6-6)-----------------------------------|
D-0-0-0-7-7-7-8-8-8-5-5-5------------------------------------------------------|(4x)
(2:56)
G------------------------------------------------------------------------------|
D------------------------------------------------------------------------------|
A-----------6-66666-4-2-222-1-0--(66-66-66-66-6--1-1-1-1-1)--------------------|
D-5~-0-1~-0--------------------------------------------------------------------|(8x)
(3:43)
G------------------------------------------------------------------------------|
D------------------------------------------------------------------------------|
A------------------------------------------------------------------------------|
D-0--0-0-0-0-3-0-5-0-7-0-6-0-4-0-3-0-0-0-0-0-0-0-0000000000000000--------------|(2x)
(3:53)
G------------------------------------------------------------------------------|
D------------------------------------------------------------------------------|
A-66666666666666666666666666666666666666-8-------------------------------------|
D------------------------------------------------------------------------------|
(3:58)
G------------------------------------------------------------------------------|
D------------------------------------------------------------------------------|
A------------------------------------------------------------------------------|
D-0--0-0-0-0-3-0-5-0-7-0-6-0-4-0-3-0-0-0-0-0-0-0-0000000000000000--------------|
(4:04)
G------------------------------------------------------------------------------|
D------------------------------------------------------------------------------|
A------------------------------------------------------------------------------|
D-8~------5~------8~------5~------8~------5~------8~------10~------11~---------|(2x)
(4:25)
G------------------------------------------------------------------------------|
D------------------------------------------------------------------------------|
A--------------------------(66-66-66-66-6-6)-----------------------------------|
D-0-0-0-7-7-7-8-8-8-5-5-5--------------------(1-1-1-1-1)-----------------------|(8x)


------------------------------------------------------------------------------------------------

Track 6: So Far Away - fender4string


Verse
G|------------------------------------------------------4--------------------|
D|----------------------------------------------------4----------------------|
A|------------------------------------5-5--5h7p5----2-----3---3-3-333--------|
D|-2------2-2----2-2-----/5--5---5h7-----------------------------------------|

G|----------------------------------7----------------------------------------|
D|----------------------------5--7----7--4-----------------------------------|
A|-------------------------5---------------5----2---2---3--33--3333----------|
D|-2------2-2----2-2---/5----------------------------------------------------|


Pre-Chorus
G|-------------------------------------------|
D|-------------------------------------------|
A|-3---3--33--3-3-3-3/5--5--55-5--5h7p5------|
D|-------------------------------------------|


Chorus
G|---------------------------------------------------------------------------|
D|---------------------------------------------------------------------------|
A|-----------------------------------------------------------55--5h7p5-------|
D|-2----22-2--2-4-5---55-5--7-5-4-5--7----77-7--7h9p7--5---5-----------------|

G|---------------------------------------------------------------------------|
D|---------------------------------------------------------------------------|
A|---------------------------------------------------------------------------|
D|-2----22-2---4-5---55-5--7-5-4-5--7---77-7--7-9--10-10-10-10-12-12-12-12---|


Verse
G|------------------------------------------------------4--------------------|
D|----------------------------------------------------4----------------------|
A|------------------------------------5-5--5h7p5----2-----3---3-3-333--------|
D|-2------2-2----2-2-----/5--5---5h7-----------------------------------------|

G|----------------------------------7----------------------------------------|
D|----------------------------5--7----7--4-----------------------------------|
A|-------------------------5---------------5----2---2---3--33--3333----------|
D|-2--------2----------/5----------------------------------------------------|


Pre-Chorus
G|-------------------------------------------|
D|-------------------------------------------|
A|-3---3--33--3-3-3-3/5--5--55-5--5h7p5------|
D|-------------------------------------------|


Chorus (no variations)


Bridge
G|---------------------------------------------------------------------------|
D|------9--------------5-----------------------------------------------------|
A|----7-----7\----3--3-----3-----------7-------------------------------------|
D|-2------------------------------7--7-----7hp9h7---5---5---5----5\4---------|

G|---------------------------------------------------------------------------|
D|------9--------------5-----------7---7------5-----5------------------------|
A|----7-----7\----3--3-----3---5-5--------3-3-----3--3-0-3--5--5--5--5--5----|
D|-2-------------------------------------------------------------------------|


Solo
G|---------------------------------------------------------------------------|
D|----2----------------------------------------------------------------------|
A|---------------3--3--33-3--3-----------------------------------------------|
D|-2----22-2--2-----------------7--7--77-7--7---5-5-55555p4------------------|

G|---------------------------------------------------------------------------|
D|----2----------------------------------------------------------------------|
A|---------------3--3--33-3--3--5--5--55-5-5--3--3--33-3-3-3-5-5-5-555555h7--|
D|-2----22-2--2--------------------------------------------------------------|


Chorus 

G|---------------------------------------------------------------7---7h9p7---|
D|-------------------------------------------------------------7---7---------|
A|-----------------------------------------------------------5---------------|
D|-2---2--22-2---4-5--55-5--7-5-4-5--7--7--77-7--7h9p7--5-5-5----------------|

G|---------------------------------------------------------------------------|
D|---------------------------------------------------------------------------|
A|---------------------------------------------------------------------------|
D|-2----22-2---4-5---55-5--7-5-4-5--7---77-7--7-9--10-10-10-10-12-12-12-12---|

G|-----------------------------------------|
D|-----------------------------------------|
A|-----------------------------------------|
D|-77-7--7-9--10-10-10-10-12-12-12-12---2--|


Guitar Break


Solo 2/Chorus 2
G|---------------------------------------------------------------------------|
D|---------------------------------------------------------------------------|
A|-7-777-77-5-555-55-----------------------------5-555-55-3-33-33-33-33-3----|
D|-------------------7-777-77-5-55-4-44-2-222-22-----------------------------|

G|---------------------------------------------------------------------------|
D|---------------------------------------------------------------------------|
A|-7-777-77-5-555-55-----------------------------5-555-55-3-33-33-33-33-3----|
D|-------------------7-777-77-5-55-4-44-2-222-22-----------------------------|

G|--------------------------------------|
D|--------------------------------------|
A|-7-777-77-5-555-55-3-33-33-33-33-3----|  
D|--------------------------------------|

G|---------------------------------------------------------------------------|
D|---------------------------------------------------------------------------|
A|-7-777-77-5-555-55-----------------------------5-555-55-3-33-33-33-33-3----|
D|-------------------7-777-77-5-55-4-44-2-222-22-----------------------------|

G|---------------------------------------------------------------------------|
D|---------------------------------------------------------------------------|
A|-7-777-77-5-555-55-----------------------------5-555-55-3-33-33-33-33-3----|
D|-------------------7-777-77-5-55-4-44-2-222-22-----------------------------|

G|--------------------------------------------------------------------------------|
D|--------------------------------------------------------------10----10----------|
A|-7-777-77-5-555-55-3-33-33-33-33-3-7-777-77-5-555-55-3--/10-------10------------|  
D|------------------------------------------------------------------------5-4-5-7-|

G|----------------------------------------------------------|
D|----------------------------------------------------------|
A|-7-777-77-5-555-55-3-33-33-33-33-3-7-777-77-5-555-55-3----|  
D|----------------------------------------------------------|



------------------------------------------------------------------------------------------------



Track 7: God Hates Us - VintageBassline


NB - (n) notes inside parentheses are optional 
   - where two 'o' are used, repeat between

Intro
G|--------------------------------|--------------------------------|
D|o-------------------------------|-------------------------------o|
A|o-------------------------------|-------------------------------o|
D|--------------------------------|--------------------------------| x8

G|--------------------------------|--------------------------------|
D|o-------------------------------|-------------------------------o|
A|o5------------------------------|-------------------------------o|
D|--------------------------------|--------------------------------|

G|--------------------------------|--------------------------------|
D|o-------------------------------|-------------------------------o|
A|o-------------------------------|-------------------------------o|
D|--------------------------------|--------------------------------|

G|--------------------------------|
D|----------------1----1----1-----|
A|--------------------------------|
D|-1----1----1--------------------| 

G|--------------------------------|
D|o------------------------------o|
A|o-----5------------5---3---6---o|
D|-------0-0-0-0-0-0--(0)-(0)-(0)-| x3

G|--------------------------------|
D|----------------1----1----1-----|
A|--------------------------------|
D|-1----1----1--------------------|

G|--------------------------------|
D|o------------------------------o|
A|o-----5------------5---3---6---o|
D|-------0-0-0-0-0-0--(0)-(0)-(0)-| x3

G|--------------------------------|
D|----------------1----1----1-----|
A|--------------------------------|
D|-1----1----1--------------------|

Pre Verse
G|--------------------------------|--------------------------------|
D|o-----------------------1-------|--------3---3---3---1---0-------|
A|o-------5---5---5---3-----------|--------------------------------|
D|-0------------------------------|-0--------------------------1---|

G|--------------------------------|--------------------------------|
D|------------------------1-------|-------------------------------o|
A|--------5---5---5---3-----------|-------------------------------o|
D|-0------------------------------|-1-------1-------1-------1------| 

Verse 1
G|--------------------------------|--------------------------------|
D|--------------------------------|--------------------------------|
A|--------------------------------|--------------------------------|
D|-0------------------------------|--------------------------------|

G|--------------------------------|--------------------------------|
D|--------------------------------|--------------------------------|
A|--------------------------------|----------------------------2---|
D|--------------------------------|--------------------3---6-------|

G|--------------------------------|--------------------------------|
D|--------------------------------|--------------------------------|
A|--------------------------------|--------------------------------|
D|-0-0-0-0---0-0-0-0---0-0-0---00-|-0000---0-0-0-0-00----0-0-0-0---|

G|--------------------------------|--------------------------------|
D|--------------------------------|--------------------------------|
A|--------------------------------|----------------------------2---|
D|-0-0-0-0---0-0-0-0---0-0-0---00-|-0000---0-0-0-0-00--3---6-------| 

Chorus
G|--------------------------------|--------------------------------|
D|o-------------------------------|-------------------------------o|
A|o------------------2------------|-------------2-----------------o|
D|-3-----6-----3----------6-------|-3---6---3-----------6----------| x4

Pre Verse
G|--------------------------------|--------------------------------|
D|o-----------------------1-------|--------3---3---3---1---0-------|
A|o-------5---5---5---3-----------|--------------------------------|
D|-0------------------------------|-0--------------------------1---|

G|--------------------------------|--------------------------------|
D|------------------------1-------|-------------------------------o|
A|--------5---5---5---3-----------|-------------------------------o|
D|-0------------------------------|-1-------1-------1-------1------|

Verse 2
G|--------------------------------|--------------------------------|
D|--------------------------------|--------------------------------|
A|-5------------------------------|--------------------------------|
D|--------------------------------|--------------------------------|

G|--------------------------------|--------------------------------|
D|--------------------------------|--------------------------------|
A|--------------------------------|--------------------------------|
D|--------------------------------|--------------------------------|

G|--------------------------------|
D|----------------1----1----1-----|
A|--------------------------------|
D|-1----1----1--------------------|

G|--------------------------------|
D|o------------------------------o|
A|o-----5------------5---3---6---o|
D|-------0-0-0-0-0-0--(0)-(0)-(0)-| x8

G|--------------------------------|--------------------------------|
D|--------------------------------|--------------------------------|
A|--------------------------------|--------------------------------|
D|-0------------------------------|--------------------------------|

G|--------------------------------|--------------------------------|
D|--------------------------------|--------------------------------|
A|--------------------------------|----------------------------2---|
D|--------------------------------|--------------------3---6-------|

G|--------------------------------|--------------------------------|
D|--------------------------------|--------------------------------|
A|--------------------------------|--------------------------------|
D|-0-0-0-0---0-0-0-0---0-0-0---00-|-0000---0-0-0-0-00----0-0-0-0---|

G|--------------------------------|--------------------------------|
D|--------------------------------|--------------------------------|
A|--------------------------------|----------------------------2---|
D|-0-0-0-0---0-0-0-0---0-0-0---00-|-0000---0-0-0-0-00--3---6-------|

Chorus
G|--------------------------------|--------------------------------|
D|o-------------------------------|-------------------------------o|
A|o------------------2------------|-------------2-----------------o|
D|-3-----6-----3----------6-------|-3---6---3-----------6----------| x4

Pre Verse
G|--------------------------------|--------------------------------|
D|o-----------------------1-------|--------3---3---3---1---0-------|
A|o-------5---5---5---3-----------|--------------------------------|
D|-0------------------------------|-0--------------------------1---|

G|--------------------------------|--------------------------------|
D|------------------------1-------|-------------------------------o|
A|--------5---5---5---3-----------|-------------------------------o|
D|-0------------------------------|-1-------1-------1-------1------|

Breakdown
G|--------------------------------|--------------------------------|
D|o-------------------------------|--------------------------------|
A|o-------------------------------|--------------------------------|
D|-0-0-0-0-0-------0-0-0-0--------|-0-0-0-0-0-------0-0-0-0--------|

G|--------------------------------|--------------------------------|
D|--------------------------------|-------------------------------o|
A|--------------------------------|-------------------------------o|
D|-0---0---0-------0-0-0-0--------|-0-0-0-0-0-------0-0-0-0--------|

G|--------------------------------|
D|--------------------------------|
A|--------------------------------|
D|--------------------------------|

Solo
G|--------------------------------|--------------------------------|
D|o-------------------------------|-------------------------------o|
A|o------------------2------------|-------------2-----------------o|
D|-3-----6-----3----------6-------|-3---6---3-----------6----------| x8

Post Solo/Bass Outro
G|--------------------------------|--------------------------------|
D|o-----------------------1-------|--------3---3---3---1---0-------|
A|o-------5---5---5---3-----------|--------------------------------|
D|-0------------------------------|-0--------------------------1---|

G|--------------------------------|--------------------------------|
D|------------------------1-------|-------------------------------o|
A|--------5---5---5---3-----------|-------------------------------o|
D|-0------------------------------|-1-------1-------1-------1------| x4

G|--------------------------------|
D|--------------------------------|
A|--------------------------------|
D|-0------------------------------| 



------------------------------------------------------------------------------------------------


Track 8: Victim - Thommoboy (Currently Tabbing)

------------------------------------------------------------------------------------------------

Track 9: Tonight the World Dies - Thommoboy (Currently Tabbing)

------------------------------------------------------------------------------------------------

Track 10: Fiction - Thommoboy (Currently Tabbing)

------------------------------------------------------------------------------------------------

Track 11: 

Avenged Sevenfold - Save Me 
Bassist: Johnny Christ
Tabbed By: Josh

Im pretty sure this is the only bass tab of this song, Enjoy.


Bass intro (0:00-0:15)
G|------------------------------------|
D|------------------------------------|
A|------------------------------------|
D|-----0--00000--00000--0000000000000-|

 (0:16-0:44) 
G|----------------------------------------------------------------|
D|----------------------------------------------------------------|
A|----------------------------------------------------------------|
D|---0-------------7-----------2-------------9--------------------|

G|----------------------------------------------------------------|
D|----------------------------------------------------------------|
A|----5------------5---------------0-----------0------------------|
D|----------------------------------------------------------------|

"Skull"
(0:45-1:08)
G|-------------------------------------------------------------------------|
D|-------------------------------------------------------------------------|
A|-------------------------------------------------------------------------|
D|-----0--00000--00000--0000000000000--00000--00000--0000000000000---------|

(1:09-1:22)
G|------------------------------------------------------------------|
D|------------------------------------------------------------------|
A|------------------------------------------------------------------| X4
D|---0---0-0-0-0----0---0-0-0-0----6---6-6-6-6----11---11-11-11-11--|


(1:23-1:38)
G|-----------------------------------------------------------|
D|-----------------------------------------------------------|
A|-----------------------------------------------------------|
D|-0---0-0-0-0----3---3-3-3-3-----5---5-5-5-5----2---2-2-2-2-|

G|-----------------------------------------------------|
D|-----------------------------------------------------|
A|-----------------------------------------------------|  X2
D|12---12-12-12-12----8-8-7----5---5-5-5-5----6-6-7-7--|


(1:39-1:53)
G|---------------------------|
D|---------------------------|
A|---------------------------|  X4
D|0~0000-2~2222-3~3333-5~5555|

"They all know."
(1:54-2:01)
G|------------------------------------|
D|------------------------------------|
A|------------------------------------| 
D|-----0--00000--00000--0000000000000-|

G|------------------------|
D|------------------------|
A|------------------------| 
D|-----0--00000--00000--0-|

"Sorry did..."
(2:02-2:31)
G|----------------------------------------------------------------------------------|
D|----------------------------------------------------------------------------------|
A|-5--5-5-5--5--5-5-5--5--5-5-5--5--5-5-5-------------------------------------------|
D|------------------------------------------7--7-7-7--7--7-7-7--7--7-7-7--7--7-7-7--|

G|---------------------------------------------------------------------------------|
D|---------------------------------------------------------------------------------|
A|-----------------------------------------2--2-2-2--2--2-2-2--2--2-2-2--2--2-2-2--|
D|-2--2-2-2--2--2-2-2--2--2-2-2--2--2-2-2------------------------------------------|

G|---------------------------------------------------------------------------------|
D|---------------------------------------------------------------------------------|
A|-5--5-5-5--5--5-5-5--5--5-5-5--5--5-5-5--5--5-5-5--5--5-5-5--5--5-5-5--5--5-5-5--|
D|---------------------------------------------------------------------------------|

G|---------------------------------------------------------------------------------|
D|---------------------------------------------------------------------------------|
A|-0--0-0-0--0--0-0-0--0--0-0-0--0--0-0-0--0--0-0-0--0--0-0-0--0--0-0-0--0--0-0-0--|
D|---------------------------------------------------------------------------------|

"Is it something..."
(2:32-2:46)

G|-------------------------------------------------------------|
D|-------------------------------------------------------------|
A|-------------------------------------------------------------| X2
D|---0--0-0-0-0---0--0-0-0-0----6--6-6-6-6----11--11-11-11-11--| 


G|------------------------------------------------------|
D|------------------------------------------------------|
A|------------------------------------------------------|
D|--0-0-12-0-11-0-8-0-11-0-8~----0-0-8-0-7-0-6-0-7-0-7--|


G|----------------------------------------------|
D|----------------------------------------------|
A|----------------------------------------------|
D|--0-0-12-0-11-0-8-0-11-0-8~----8-8-8---7-7-7--|

"Save me..."
(2:47-3:17)

G|-----------------------------------------------|
D|-----------------------------------------------|
A|-----------------------------------------------|
D|3-3-3-3-3-3-3-3-3-3-3-3-7-7-7-7-7-7-7-7-7-7-7-7|

G|-----------------------------------------------|
D|-----------------------------------------------|
A|5-5-5-5-5-5-5-5-5-5-5-5-3-3-3-3-3-3-3-3-3-3-3-3|  X2
D|-----------------------------------------------|

(3:18-3:24)
G|------------------------------------|
D|------------------------------------|
A|------------------------------------| X2
D|-----0--00000--00000--0000000000000-|

"Ever sinse..."
(3:25-3:54)
G|----------------------------------------------------------------------------------|
D|----------------------------------------------------------------------------------|
A|-5--5-5-5--5--5-5-5--5--5-5-5--5--5-5-5-------------------------------------------|
D|------------------------------------------7--7-7-7--7--7-7-7--7--7-7-7--7--7-7-7--|

G|---------------------------------------------------------------------------------|
D|---------------------------------------------------------------------------------|
A|-----------------------------------------2--2-2-2--2--2-2-2--2--2-2-2--2--2-2-2--|
D|-2--2-2-2--2--2-2-2--2--2-2-2--2--2-2-2------------------------------------------|

G|---------------------------------------------------------------------------------|
D|---------------------------------------------------------------------------------|
A|-5--5-5-5--5--5-5-5--5--5-5-5--5--5-5-5--5--5-5-5--5--5-5-5--5--5-5-5--5--5-5-5--|
D|---------------------------------------------------------------------------------|

G|---------------------------------------------------------------------------------|
D|---------------------------------------------------------------------------------|
A|-0--0-0-0--0--0-0-0--0--0-0-0--0--0-0-0--0--0-0-0--0--0-0-0--0--0-0-0--0--0-0-0--|
D|---------------------------------------------------------------------------------|

"Is it something we did..."
(3:55-4:10)
G|-------------------------------------------------------------|
D|-------------------------------------------------------------|
A|-------------------------------------------------------------| X2
D|---0--0-0-0-0---0--0-0-0-0----6--6-6-6-6----11--11-11-11-11--| 


G|------------------------------------------------------|
D|------------------------------------------------------|
A|------------------------------------------------------|
D|--0-0-12-0-11-0-8-0-11-0-8~----0-0-8-0-7-0-6-0-7-0-7--|


G|----------------------------------------------|
D|----------------------------------------------|
A|----------------------------------------------|
D|--0-0-12-0-11-0-8-0-11-0-8~----8-8-8---7-7-7--|

"Save me..."
(4:11-4:40)

G|-----------------------------------------------|
D|-----------------------------------------------|
A|-----------------------------------------------|
D|3-3-3-3-3-3-3-3-3-3-3-3-7-7-7-7-7-7-7-7-7-7-7-7|

G|-----------------------------------------------|
D|-----------------------------------------------|
A|5-5-5-5-5-5-5-5-5-5-5-5-3-3-3-3-3-3-3-3-3-3-3-3|  X2
D|-----------------------------------------------|

"If you hear me..."
(4:41-4:49)
G|------------------------------------------------------|
D|------------------------------------------------------|
A|1-1-1-1-1-1-1-1-1-1-1-1-1-1-1-1-1-1-1-1-1-1-1-1-1-----|  
D|--------------------------------------------------0~~~|

(4:50-5:19)
G|----------------------------------------------------|
D|----------------------------------------------------|
A|----------------------------------------------------|
D|0---0-0-0-0--0---0-0-0-0--0---0-0-0-0--0---0-0-0-0--|

G|----------------------------------------------------|
D|----------------------------------------------------|
A|----------------------------------------------------|
D|8--8-8-8-8---8---8-8-8-8--8---8-8-8-8--8---8-8-8-8--|

G|----------------------------------------------------|
D|----------------------------------------------------|
A|----------------------------------------------------|
D|0~~~~~~~~~~~~~~~~~~~~~~~~~~~~-8~~~~~~~~~~~~~~~~~~~~~|

G|----------------------------------------------------|
D|----------------------------------------------------|
A|----------------------------------------------------|
D|0000000000000000000000000000000000000000000000000000|

G|----------------------------------------------------|
D|----------------------------------------------------|
A|----------------------------------------------------|
D|8888888888888888888888888888888888888888888888888888

*SOLO*
(5:20-5:47)
G|--------------------------------------------------------------------|
D|--------------------------------------------------------------------|
A|--------------------------------------------------------------------|
D|0-0-0-0-2-2-3-3-5-5-5-5-3-3-2-2-12-12-12-12-8-8-7-7-5-5-5-5-3-3-2-2-|

G|--------------------------------------------------------------------|
D|--------------------------------------------------------------------|
A|-5-5-5-5-5-5-5-5-5-5-5-5-5-5-5-5--4-4-4-4-4-4-4-4-4-4-4-4-4-4-4-4---|
D|--------------------------------------------------------------------|

"Aaaaaa..."
G|----------------------------------------------------------------------|
D|----------------------------------------------------------------------|
A|-3-3-3-3-3-3-3-3-3-3-3-3-3-3-3-3----2-2-2-2-2-2-2-2-2-2-2-2-2-2-2-2---|
D|----------------------------------------------------------------------|

G|-------------------------------------------------|
D|-------------------------------------------------|
A|-1-1-1-1-1-1-1-1-1-1-1-1-1-1-1-1-----------------|
D|---------------------------------0-0-0-0-3-3-2-2-|

G|---------------|
D|---------------|
A|---------------| X4
D|-0-0--0-0--0-0-|

(5:48-6:07)
G|--------------------------------------------------|
D|--------------------------------------------------|
A|--------------------------------------------------|
D|-0-0--0-0--0-0--0-0--0-0--5-5--5-5--5-5--5-5--5-5-|

G|-------------------------------------------------------|
D|-------------------------------------------------------|
A|-------------------------------------------------------|
D|-3-3--3-3--3-7--7-7--7-7--0-0--0-0--0-0-5h6p5-0-6-7-0-3|

G|--------------------------------------------------|
D|--------------------------------------------------|
A|--------------------------------------------------|
D|-0-0--0-0--0-0--0-0--0-0--5-5--5-5--5-5--5-5--5-5-|


G|--------------------------------------------------|
D|--------------------------------------------------|
A|--------------------------------------------------|
D|-3-3--3-3--3-7--7-7--7-7-0---7---8---5---7-5-3---0|

(6:08-6:37) *soflty*
G|--------------------------|
D|-0------2-----3-----5-----|
A|--------------------------| X8
D|--------------------------|

"No pulse inside of me...:
(6:38-6:56)
G|-----------------------|
D|-----9-7-------10-12-10|
A|-7-7-----7-8-8---------| X3
D|-----------------------|


G|-------------------------------|
D|-------12-------------14-------|
A|-10-10----10-10-12-12----12-12-|
D|-------------------------------|

G|-----------------------|
D|-----------------------|
A|5-5-5-5-5-5-4-4-4-4-4-4|
D|-----------------------|

"He may be out of his mind"
(6:57-7:27)
G|------------------------|
D|------------------------|
A|5-----1-----------3--4--| X4
D|------------5-----------|

(7:28-7:34)
G|------------------------------------|
D|------------------------------------|
A|------------------------------------|
D|-----0--00000--00000--0000000000000-|

G|------------------------------------|
D|------------------------------------|
A|------------------------------------|
D|-----0--00000--0000-----------------|

"If you'd only open your mind..."
(7:35-8:05)
G|----------------------------------------------------|
D|----------------------------------------------------|
A|----------------------------------------------------| X2
D|-0-0-0-0-0-0-8-8-8-8-8-8-5-5-5-5-5-5-10-10-10-7-7-7-|


G|-------------------------------------------------|
D|-------------------------------------------------|
A|-------------1-1-1-1-1-1-2-2-2-2-2-2-3-3-3-4-4-4-|
D|-0-0-0-0-0-0-------------------------------------|

"Save me.."
(8:06-8:35)
G|-----------------------------------------------|
D|-----------------------------------------------|
A|-----------------------------------------------|
D|3-3-3-3-3-3-3-3-3-3-3-3-7-7-7-7-7-7-7-7-7-7-7-7|

G|-----------------------------------------------|
D|-----------------------------------------------|
A|5-5-5-5-5-5-5-5-5-5-5-5-3-3-3-3-3-3-3-3-3-3-3-3|  X2
D|-----------------------------------------------|

"If you hear me..."
(8:36-8:39)
G|------------------------------------------------------|
D|------------------------------------------------------|
A|1-1-1-1-1-1-1-1-1-1-1-1-1-1-1-1-1-1-1-1-1-1-1-1-1-----|  
D|--------------------------------------------------0~~~|

(8:40-9:09)
Same rhythm as intro but with these notes:
G|----------------------------------------------------------------|
D|----------------------------------------------------------------|
A|----------------------------------------------------------------|
D|---0-------------7-----------2-------------9--------------------|

G|----------------------------------------------------------------|
D|----------------------------------------------------------------|
A|----5------------5---------------0-----------0------------------|
D|----------------------------------------------------------------|

(9:10-9:43)
G|-------------------------------------------|
D|-------------------------------------------|
A|-------------------------------------------|
D|-3-3-3-3--3-3-3-3--0-0-0-0--0-0-0-0--7-----|

"Tonight we all die young..."
(9:44-10:44)
G|-------------------------------|
D|-------------------------------| 
A|-1-1-1---3-3-3---5-5-5---5-5-5-| X3
D|-------------------------------|

G|------------------------567777-567777-|
D|--------------------------------------| 
A|-1-1-1---3-3-3---5-5-5----------------|
D|--------------------------------------|

G|-------------------------------|
D|-------------------------------| 
A|-1-1-1---3-3-3---5-5-5---5-5-5-| 
D|-------------------------------|

G|-------------------------------|
D|-------------------------------| 
A|-1-1-1---3-3-3---5-------------| 
D|-------------------------------|

(10-:45-10:56)
G|------------------------------------|
D|------------------------------------|
A|------------------------------------|
D|-----0--00000--00000--0000000000000-|

There you go :) Enjoy an amazing song!
------------------------------------------------------------------------------------------------


comments
print report bad tab
3 comments total.
0 reply
JoshTriviumBass wrote on February 9 2011, 04:14 pm

I have a save me tab dude, look it up

0 reply
thommoboy wrote on February 9 2011, 07:34 pm

okay cool!

0 reply
thommoboy wrote on February 20 2011, 08:35 pm

done!!!!!!!!!

I want to post or [tab]
guest
You may want to rate the tab now too:
select rating
Please do not post tabs as comments. Select "correction" instead!