Oops, an error
Loading. Please wait.

Nightmare Tab

102,545 views 110 this week
no commentswrite comment
1 2 3 4 5
accurate
x 13
Autoscroll
+/-
esc
set tempo
stop
Contributor
Hey! There's an official Ultimate Guitar app which is ideal
for learning songs when you're away from computer. Get the app
WARNING: You are trying to view
                                    content from Ultimate-Guitar.com
                                    in an unauthorized application,
                                    which is prohibited.

                                    Please use an official Ultimate
                                    Guitar Tabs application for iPhone,
                                    iPad or Android to access legitimate
                                    chords, guitar, bass, and drum tabs
                                    from Ultimate-Guitar.com database.

                                    Type "ultimate guitar tabs" in Apple
                                    App Store's or Android Market's
                                    search to find the application.
Hey Guys!
I've compiled the best rated songs from the new album 'Nightmare'.
The follwoing are the best rated ones by you, not me.
Please Rate!

Enjoy!

====================================================================
Song List:
1. Nightmare
2. Welcome to the Family
3. Danger Line
4. Buried Alive
5. Natural Born Killer
6. So Far Away
7. God Hates Us
8. Victim
9. Tonight The World Dies
10. Fiction
11. Save Me
12. Lost It All (Bonus Track)

====================================================================
Nightmare
Tabbed By: Jon_09

Here is the complete tab of Nightmare by Avenged Sevenfold. Did it mostly by ear.
The two solos are done by ear and I am 99% sure that they are completely accurate.
I spent hours making sure it was right so here you go and please rate it.


Update #1 - 7/25: I rearranged the solo a bit so it would a little more
sense and so its more organized. Gonna figure out the divebombs. I should
have them soon.


This song is played in Drop D for every guitar.

Legend:  /    = slide from lower frets
         \    = slide from higher frets
         ~    = virbato
         .    = palm mute
         b    = bend string
         r    = release bend
        ===   = tremelo pick
      |--3--| = all notes with this symbol are triplets
        X2    = play multiple times




INTRO (0:33 - 1:02)

Guitar 1 (0:33)
E|-------------------------------------------------------|
B|--------/10~-10-9~-9-8~-8-6----------------8-10-11-----|
G|--/7~-7---------------------7---7------6-9-------------|
D|------------------------------7-----/7-----------------|
A|-------------------------------------------------------|
D|-------------------------------------------------------|
                           X3


Guitar 2 (0:33)
E|----------------------------------------------------|
B|----------------------------------------------------|
G|----------------------------------------------------|
D|--------/7~-7-6~-6-5~-5-------------------5-7-8-----|
A|--/5~-5-----------------8-5---/5------4-7-----------|
D|----------------------------7------/7---------------|
                        X3


Guitar 3 (0:33)
E|------------------------------------------------------------------------|
B|------------------------------------------------------------------------|
G|------------------------------------------------------------------------|
D|------------------------------------------------------------------------|
A|-|----3----|---------------|----3----|----------------------------------|
D|--0000000000----------------0000000000----------------------------------|
    ..........                ..........

         (0:39)
E|-------------------------------------------------------------|
B|-------------------------------------------------------------|
G|-------------------------------------------------------------|
D|-------------------------------------------------------------|
A|-|----3----|--|-3-|--|-3-|--|-3-|--|-3-|--|-3-|--|-3-|--|-3-||
D|--0000000000---0000---0000---0000---0000---0000---0000---000-|
    ..........   ....   ....   ....   ....   ....   ....   ...

         (0:44)
E|-------------------------------------------------------------------|
B|-------------------------------------------------------------------|
G|-------------------------------------------------------------------|
D|--0----------------------------------------------------------------|
A|--0--------------------------------------------|--------3---------||
D|--0---------------------------------------------000000000000000000-|
                                                  ..................

         (0:50)
E|-------------------------------------------------------------------|
B|-------------------------------------------------------------------|
G|-------------------------------------------------------------------|
D|--0----------------------------------------------------------------|
A|--0--------------------------------------------|--------3---------||
D|--0---------------------------------------------000000000000000000-|
                                                  ..................

         (0:55)
E|-------------------------------------------------------------------|
B|-------------------------------------------------------------------|
G|-------------------------------------------------------------------|
D|--3------------5------------5------------7-------------------------|
A|--1------------2------------3------------4-------------------------|
D|-------------------------------------------------------------------|



Guitar 1 (0:50)
E|--------------------------------------------------|
B|--------/10~-10-9~-9-8~-8-6----------------8-9-10-|
G|--/7~-7---------------------7---7------6-9--------|
D|------------------------------7-----/7------------|
A|--------------------------------------------------|
D|--------------------------------------------------|


         (0:55)
E|--------------------------------------------------------------|
B|--11~-11-10-9-8~--/15--13~-------/17~-------------------------|
G|--------------------------------------------------------------|
D|--------------------------------------------------------------|
A|--------------------------------------------------------------|
D|--------------------------------------------------------------|



Guitar 2 (0:50)
E|------------------------------------------------|
B|------------------------------------------------|
G|------------------------------------------------|
D|--------/7~-7-6~-6-5~-5-------------------5-6-7-|
A|--/5~-5-----------------8-5---/5------4-7-------|
D|----------------------------7------/7-----------|


         (0:55)
E|--------------------------------------------------------------|
B|--------------------------------------------------------------|
G|--------------------------------------------------------------|
D|--8~-8-7-6-5~--/12--10~-------/14~----------------------------|
A|--------------------------------------------------------------|
D|--------------------------------------------------------------|



PRE-VERSE (1:02 - 1:10)
 
Guitar 3 (1:02)
E|-------------------------------------------------------------|
B|-------------------------------------------------------------|
G|-------------------------------------------------------------|
D|-------------------------------------------------------------|
A|-------------------------------------------------------------|
D|--0000000000000000000000000000000000000000000000000000000000-|
    ..........................................................


Guitar 1 (1:02)
E|--------------------------------------------------------------|
B|--------Sorry I dont have this figured out, but these---------|
G|-------------are a few natural harmonics that i---------------|
D|---because i dont have a floyd rose on my guitar to perform---|
A|------------------------the divebombs.------------------------|
D|--------------------------------------------------------------|



Guitar 2 (1:02)
E|-------------------------------------------------------------|
B|-------------------------------------------------------------|
G|-------------------------------------------------------------|
D|-------------------------------------------------------------|
A|-------------------------------------------------------------|
D|-----------------------------------------------------3-/12b~-|



VERSE I (1:10 - 1:41)

Guitars 1 & 2 (1:10)
E|-------------------------|       E|----------------------------------|
B|-------------------------|       B|----------------------------------|
G|-------------------------|       G|----------------------------------|
D|--------0----------------| X3    D|----------------------------------|
A|--3b----0----------------|       A|----------------------------------|
D|--3b----0----0-0-0-0-0-0-|       D|--6-3-5-3-5-3-0-3-6-3-5-3-5-3-0-3-|
               . . . . . .             . . . . . . . . . . . . . . . .
|--------------------------------X2------------------------------------|


Guitar 1 (1:24)
E|--------------------------------------------------------------|
B|--------------------------------------------------------------|
G|--------------------------------------------------------------|
D|---/7--6--5----------------------/7--6--5---------------------|
A|-------------8-5---------------------------8------------------|
D|--------------------------------------------------------------|
                              X2


Guitar 2 (1:24)
E|---------------------------------------------------------------------------------|
B|---------------------------------------------------------------------------------|
G|---------------------------------------------------------------------------------|
D|-3---------3-----3-----3-----3---3-----3-----3-----------------------------------|
A|-3---------3-----3-----3-----3---3-----3-----3-----------------------------------|
D|-3---0-0-0-3-0-0-3-0-0-3-0-0-3-0-3-0-0-3-0-0-3-0-6-3-5-3-5-3-0-3-6-3-5-3-5-3-0-3-|
       . . .   . .   . .   . .   .   . .   . .   . . . . . . . . . . . . . . . . .
                                         X2


Guitars 1 & 2 (1:39)
E|-------------------------------------|
B|-------------------------------------|
G|-------------------------------------|
D|-------------------------------------|
A|-------------------------------------|
D|-6-3-5-3-5-3-0-3-6-3-5-3-5-3-0-3-----|



CHORUS (1:41 - 2:00)

Guitars 1 & 2 (1:41)
E|---------------------------------------------|
B|---------------------------------------------|
G|------------5---------------------3----------|
D|-0----------5----------3----------3----------|
A|-0----------3----------3----------1----------|
D|-0---------------------3---------------------|
                      X2

              (1:56)
E|-----------------------|
B|-----------------------|
G|-2-2-2-2-2-2-2-2-2-----|
D|-2-2-2-2-2-2-2-2-2-----|
A|-0-0-0-0-0-0-0-0-0-----|
D|-----------------------|



PRE-VERSE (2:00 - 2:07)

Guitar 3 (2:00)
E|-------------------------------------------------------------|
B|-------------------------------------------------------------|
G|-------------------------------------------------------------|
D|-------------------------------------------------------------|
A|-------------------------------------------------------------|
D|--0000000000000000000000000000000000000000000000000000000000-|
    ..........................................................


Guitar 1 (2:00)
E|--------------------------------------------------------------|
B|-------Here are some more natural harmonics and I will--------|
G|--------be getting a new guitar in a few weeks so then--------|
D|---I will figure out the divebombs and put them on the tab.---|
A|--------------------------------------------------------------|
D|--------------------------------------------------------------|



Guitar 2 (2:00)
E|-------------------------------------------------------------|
B|-------------------------------------------------------------|
G|-------------------------------------------------------------|
D|-------------------------------------------------------------|
A|-------------------------------------------------------------|
D|-----------------------------------------------------3-/12b~-|



VERSE I (2:07 - 2:38)

Guitars 1 & 2 (2:07)
E|-------------------------|       E|----------------------------------|
B|-------------------------|       B|----------------------------------|
G|-------------------------|       G|----------------------------------|
D|--------0----------------| X3    D|----------------------------------|
A|--3b----0----------------|       A|----------------------------------|
D|--3b----0----0-0-0-0-0-0-|       D|--6-3-5-3-5-3-0-3-6-3-5-3-5-3-0-3-|
               . . . . . .             . . . . . . . . . . . . . . . .
|--------------------------------X2------------------------------------|


Guitar 1 (2:22)
E|--------------------------------------------------------------|
B|--------------------------------------------------------------|
G|--------------------------------------------------------------|
D|---/7--6--5----------------------/7--6--5---------------------|
A|-------------8-5---------------------------8------------------|
D|--------------------------------------------------------------|
                              X2


Guitar 2 (2:22)
E|---------------------------------------------------------------------------------|
B|---------------------------------------------------------------------------------|
G|---------------------------------------------------------------------------------|
D|-3---------3-----3-----3-----3---3-----3-----3-----------------------------------|
A|-3---------3-----3-----3-----3---3-----3-----3-----------------------------------|
D|-3---0-0-0-3-0-0-3-0-0-3-0-0-3-0-3-0-0-3-0-0-3-0-6-3-5-3-5-3-0-3-6-3-5-3-5-3-0-3-|
       . . .   . .   . .   . .   .   . .   . .   . . . . . . . . . . . . . . . . .
                                         X2


Guitars 1 & 2 (2:36)
E|-------------------------------------|
B|-------------------------------------|
G|-------------------------------------|
D|-------------------------------------|
A|-------------------------------------|
D|-6-3-5-3-5-3-0-3-6-3-5-3-5-3-0-3-----|



CHORUS (2:38 - 3:10)

Guitars 1 & 2 (2:38)
E|---------------------------------------------|
B|---------------------------------------------|
G|------------5---------------------3----------|
D|-0----------5----------3----------3----------|
A|-0----------3----------3----------1----------|
D|-0---------------------3---------------------|
                      X4

              (3:08)
E|-----------------------|
B|-----------------------|
G|-2-2-2-2-2-2-2-2-2-----|
D|-2-2-2-2-2-2-2-2-2-----|
A|-0-0-0-0-0-0-0-0-0-----|
D|-----------------------|



PRE-SOLO (3:15 - 3:32)

Guitar 3 (3:15)
E|--------------------------------------------------------|
B|--------------------------------------------------------|
G|--------------------------------------------------------|
D|-0------------------------------------------------------|
A|-0------------------------------------------------------|
D|-0------------------------------------------------------|



Guitar 1 (3:15)
E|-------/17~-17-16~-16-15~-15-13---------------------------|
B|--------------------------------15~--------------12-13-14-|
G|--------------------------------------------9-12----------|
D|----------------------------------------/11---------------|
A|----------------------------------------------------------|
D|----------------------------------------------------------|



Guitar 2 (3:15)
E|-------/13~-13-12~-12-11~-11-10-----------------10-11-12-|
B|--------------------------------10~----------------------|
G|-------------------------------------------7-10----------|
D|----------------------------------------/9---------------|
A|---------------------------------------------------------|
D|---------------------------------------------------------|



Guitar 3 (3:21)
E|--------------------------------------------------------------|
B|--------------------------------------------------------------|
G|--------------------------------------------------------------|
D|-0------------------------------------------------------------|
A|-0------------------------------------------------------------|
D|-0------------------------------------------------------------|



Guitar 1 (3:21)
E|--------/17~-17-16~-16-15~-15-13---------------------------|
B|-15-----------------------------15----15~-----------8-9-10-|
G|-----------------------------------14----------7-10--------|
D|--------------------------------------------/9-------------|
A|-----------------------------------------------------------|
D|-----------------------------------------------------------|



Guitar 2 (3:21)
E|-13-----/13~-13-12~-12-11~-11-10------------------------------|
B|---------------------------------10----10~-----------11-12-13-|
G|------------------------------------10----------9-12----------|
D|--------------------------------------------/11---------------|
A|--------------------------------------------------------------|
D|--------------------------------------------------------------|



Guitar 3 (3:26)
E|-------------------------------------------------------------------|
B|-------------------------------------------------------------------|
G|-------------------------------------------------------------------|
D|--3------------5------------5------------7-------------------------|
A|--1------------2------------3------------4-------------------------|
D|-------------------------------------------------------------------|



Guitar 1 (3:26)
E|--------------------------------------------------------------|
B|-11~-11-10-9-8~--/15--13~----12-13-/17~-----------------------|
G|--------------------------------------------------------------|
D|--------------------------------------------------------------|
A|--------------------------------------------------------------|
D|--------------------------------------------------------------|



Guitar 2 (3:26)
E|--------------------------------------------------------------|
B|-14~-14-13-12-11~--/18--17~----16-17-/20~---------------------|
G|--------------------------------------------------------------|
D|--------------------------------------------------------------|
A|--------------------------------------------------------------|
D|--------------------------------------------------------------|



SOLO
(Guitar 1 takes the parts of the lead and all left ear parts of the harmonies)
(Guitar 2 takes all the right ear parts of the harmonies)
(Guitar 3 is the rythym and is at the bottom of the solo)

Guitar 1 (3:32)               |---3----|                          |---3----|
E|-/17~--------------|---3----|---14-15-16~--------------|---3----|---13-14-15~----|
B|----------|---3----|14-15-16-17---------------|---3----|13-14-15-16--------------|
G|-----------14-15-16----------------------------13-14-15--------------------------|
D|---------------------------------------------------------------------------------|
A|---------------------------------------------------------------------------------|
D|---------------------------------------------------------------------------------|

         (3:37)                     |--------3--------|
E|-15b17r15--13~---17-13-------------17-13-------------|
B|-----------------------15-14-------------15----------|
G|-----------------------------15-14----------14-------|
D|-----------------------------------------------15----|
A|--------------------------------------------------17-|
D|-----------------------------------------------------|


         (3:39)
E|-------------------------------------15b17r15----------------------------|
B|----------------------------------------------15--18--17--18-/20-20b22---|
G|--------2-3--2-----------14-15--14---------------------------------------|
D|-----3---------------15--------------------------------------------------|
A|-/5-------------/17------------------------------------------------------|
D|-------------------------------------------------------------------------|


Guitar 2 (3:39) (Short little harmony, then Guitar 1 finishes above)
E|------------------------------17-18--17----------------------------------|
B|---------------------/15--18---------------------------------------------|
G|----------14-15--14------------------------------------------------------|
D|------15-----------------------------------------------------------------|
A|-/17---------------------------------------------------------------------|
D|-------------------------------------------------------------------------|



Guitar 1 (3:47)
E|-----------------------------------------------------------|
B|-----------------------------------------------------------|
G|-9=======/13\8=======/15\7=======/13\6===8===6==5===2\-----|
D|-----------------------------------------------------------|
A|-----------------------------------------------------------|
D|-----------------------------------------------------------|


Guitar 2 (3:47)
E|-12=======/16\11=======/18\10=======/16\9===11===9==8===5\-----|
B|---------------------------------------------------------------|
G|---------------------------------------------------------------|
D|---------------------------------------------------------------|
A|---------------------------------------------------------------|
D|---------------------------------------------------------------|


Guitar 1 (3:54)
E|----------------------------------10/17-13-----------------------------|
B|-------------------------------11----------15-14-------------15--14----|
G|----------------------------10-------------------15-14-----------------|
D|-----------------6-7-6-7-12----------------------------15--------------|
A|-3-4-3-4-7-8-7-8------------------------------------------17-----------|
D|-----------------------------------------------------------------------|
   . . . . . . . .


Guitar 2 (3:54)
E|--------------------------------------13/20-17-----------------------------|
B|-----------------------------------15----------18-17-------------18--17----|
G|--------------------------------14-------------------19-18-----------------|
D|---------6-7-6-7-11-12-11-12-15----------------------------19--------------|
A|-6-7-6-7------------------------------------------------------20-----------|
D|---------------------------------------------------------------------------|
   . . . . . . . .
(Slightly palm muted)


Guitar 1 (3:57) |---3----|    |---3----|                      |---3----|
E|------|--3----|13-14-15-15---15-14-13|---3----|----|---3----|15-16-17-18---17---|
B|-15---15-16-17------------------------17-16-15-13---15-16-18--------------------|
G|--------------------------------------------------------------------------------|
D|--------------------------------------------------------------------------------|
A|--------------------------------------------------------------------------------|
D|--------------------------------------------------------------------------------|


Guitar 2 (3:57) |---3----|    |---3----|                      |---3----|
E|------|--3----|16-17-18-18---18-17-16|---3----|----|---3----|12-13-14-15---14---|
B|-18---18-19-20------------------------20-19-18-17---12-13-15--------------------|
G|--------------------------------------------------------------------------------|
D|--------------------------------------------------------------------------------|
A|--------------------------------------------------------------------------------|
D|--------------------------------------------------------------------------------|


Guitar 1 (4:01)
E|---------------------------------|
B|---------------------------------|
G|---------------------------------|
D|-/7~---7--6~---5~----------------|
A|--------------------8-5---/5~----|
D|------------------------7--------|


Guitar 2 (4:01)
E|-----------------------------------|
B|-----------------------------------|
G|-----------------------------------|
D|-/10~---10--9~---8~---7------------|
A|------------------------8---/8~----|
D|--------------------------10-------|




Guitar 3 (3:32)
E|--------------------------------------|       E|--------------------------------|
B|--------------------------------------|       B|--------------------------------|
G|--------------------------------------|       G|-3---3---4---4---5---5---6------|
D|-0-------3--0---0------3--0-------3---| X3    D|-3---3---5---5---5---5---7------|
A|-0-------3--0---0------3--0-------3b--|       A|-1---1/2-2---2/3-3---3/4-4------|
D|-0---0-0-3--0---0--0-0-3--0---0-0-3b--|       D|--------------------------------|
       . .           . .        . .
|-------------------------------------X2------------------------------------------|



VERSE II + SOLO LICK (4:01 - 4:27)
         (4:01)  (Guitars 1 & 2 can join in after they play they parts if desired)
E|-----------------------------------------------------------------|
B|-----------------------------------------------------------------|
G|-----------------------------------------------------------------|
D|-0---------0-----0-----0-----0---0-----0-----0---0-----0-----0---|
A|-0---------0-----0-----0-----0---0-----0-----0---0-----0-----0---|
D|-0---0-0-0-0-0-0-0-0-0-0-0-0-0-0-0-0-0-0-0-0-0-0-0-0-0-0-0-0-0-0-|
       . . . . . . . . . . . . . . . . . . . . . . . . . . . . . . 
                                X3
         (4:23)
E|--------------------------------|
B|--------------------------------|
G|-3---3---3---3---3---3---3------|
D|-3---3---3---3---3---3---3------|
A|-1---1---1---1---1---1---1------|
D|---------------------------3~---|




Guitar 1 (4:23)
E|-------------------------------------------------------------13-15-16-17-18-18--18-|
B|-------------------------------------14-15-14----------14-15-----------------------|
G|-------------14-15-14----------14-15----------15-14-15-----------------------------|
D|-------14-15----------15-14-15-----------------------------------------------------|
A|-13-15-----------------------------------------------------------------------------|
D|-----------------------------------------------------------------------------------|


Guitar 2 (4:24)
E|-----------------------------------------------------------------------------------|
B|-----------------------------------------------------------------------------------|
G|-------------------------14-15-14----------14-15-----------------------------------|
D|-------------------14-15----------15-14-15-----------------------------------------|
A|-------------13-15-----------------------------------------------------------------|
D|-----------------------------------------------------------------------------------|
 (Comes in a little after Guitar 1 starts and finishes as Guitar 1 hits 15
  on the G String for the 3rd string so they both meet on the same note.)


Guitar 1 (4:27)
E|---------------------------------|
B|---------------------------------|
G|---------------------------------|
D|-/7~---7--6~---5~----------------|
A|--------------------8-5---/5~----|
D|------------------------7--------|



Guitar 2 (4:27)
E|-----------------------------------|
B|-----------------------------------|
G|-----------------------------------|
D|-/10~---10--9~---8~---7------------|
A|------------------------8---/8~----|
D|--------------------------10-------|

        
                      

VERSE II (4:27 - 4:49)

Guitar 3 (4:27) (Guitars 1 & 2 can join in after they play they parts if desired)
E|-----------------------------------------------------------------|
B|-----------------------------------------------------------------|
G|-----------------------------------------------------------------|
D|-0---------0-----0-----0-----0---0-----0-----0---0-----0-----0---|
A|-0---------0-----0-----0-----0---0-----0-----0---0-----0-----0---|
D|-0---0-0-0-0-0-0-0-0-0-0-0-0-0-0-0-0-0-0-0-0-0-0-0-0-0-0-0-0-0-0-|
       . . . . . . . . . . . . . . . . . . . . . . . . . . . . . . 
                                X3


BRIDGE (4:49 - 5:19)

Guitars 1 & 2 (4:49)
E|---------------------------------------------------------------------|
B|---------------------------------------------------------------------|
G|-3---3-3-3---3-3-3---3---3---3-3-5---5---5-5-5---5-5-5---5---5---5-5-|
D|-3---3-3-3---3-3-3---3---3---3-3-5---5---5-5-5---5-5-5---5---5---5-5-|
A|-1---1-1-1---1-1-1---1---1---1-1-3---3---3-3-3---3-3-3---3---3---3-3-|
D|---------------------------------------------------------------------|
                                 X3

         (5:11)
E|---------------------------------------------------------|
B|---------------------------------------------------------|
G|-3-----3---3-4-----4---4-5-----5---5-6-------------------|
D|-3-----3---3-5-----5---5-5-----5---5-7-------------------|
A|-1-----1---1-2-----2---2-3-----3---3-4-------------------|
D|---------------------------------------------------------|




PRE-CHORUS (5:19 - 5:26)

Guitar 3 (5:19)
E|-------------------------------------------------------------|
B|-------------------------------------------------------------|
G|-------------------------------------------------------------|
D|-------------------------------------------------------------|
A|-------------------------------------------------------------|
D|--0000000000000000000000000000000000000000000000000000000000-|
    ..........................................................


Guitar 1 (5:19)
E|--------------------------------------------------------------|
B|--------------------------------------------------------------|
G|-----------------Here are some more divebombs.----------------|
D|--------------------------------------------------------------|
A|--------------------------------------------------------------|
D|--------------------------------------------------------------|



Guitar 2 (5:19)
E|-------------------------------------------------------------|
B|-------------------------------------------------------------|
G|-------------------------------------------------------------|
D|-------------------------------------------------------------|
A|-------------------------------------------------------------|
D|-----------------------------------------------------3-/12b~-|




CHORUS (5:26 - 5:58)

Guitars 1 & 2 (5:26)
E|---------------------------------------------|
B|---------------------------------------------|
G|------------5---------------------3----------|
D|-0----------5----------3----------3----------|
A|-0----------3----------3----------1----------|
D|-0---------------------3---------------------|
                      X4

              (5:56)
E|-----------------------|
B|-----------------------|
G|-2-2-2-2-2-2-2-2-2-----|
D|-2-2-2-2-2-2-2-2-2-----|
A|-0-0-0-0-0-0-0-0-0-----|
D|-----------------------|

====================================================================
Welcome to The Family
Avenged Sevenfold
Nightmare

Transcribed by Seth Sanders {livetolieanotherday@hotmail.com}
	


D5
0 0 0 x x x	
Bb5
8 8 8 x x x	
A5
7 7 7 x x x	
G5
5 5 5 x x x
F5
3 3 3 x x x	
C/E
2 3 2 x x x

Gtr I (D A D G B E) - 'Rhythm Guitar I'
Gtr II (D A D G B E) - 'Rhythm Guitar II'
Gtr III (D A D G B E) - 'Lead Guitar I'
Gtr IV (D A D G B E) - 'Lead Guitar II'
Gtr V (D A D G B E) - 'Lead Guitar III'
Gtr VI (D A D G B E) - 'Bridge Guitar'

 Intro
  Q=200
  D5
 4/4
  Gtr I
     PM--|     ~~~~~~~~ PM--|     ~~~
  Q  E E E  Q  E   +Q   E E E  Q  E
|----------------|------------------|
|----------------|------------------|
|----------------|------------------|
|----------------|------------------|
|-0--------------|------------------|
|-0--0-0-0-/8S=7-|-(7)--0-0-0-/5S=8-|


 ~~~~~ PM--------------|               ~~~~~
                         |-3-| |-3-|
  +Q   Q  Q  E E   +E  E E E E E E E S S S S
|----------------|----------------------------||
|----------------|----------------------------||
|----------------|----------------------------||
|----------------|----------------------------||
|------0--0--0-0-|-(0)-0----------------------||
|-(8)--0--0--0-0-|-(0)-0-3h5p3-2h3p2-0h2p1p0--||


   Verse
    Gtr I
       PM--|     ~~~~~~~~ PM--|     ~~~
    Q  E E E  Q  E   +Q   E E E  Q  E
||-----------------|------------------|
||o----------------|------------------|
||-----------------|------------------|
||-----------------|------------------|
||o-0--------------|------------------|
||--0--0-0-0-/8S=7-|-(7)--0-0-0-/5S=8-|
|
|   Gtr II
|      PM--|     ~~~~~~~~ PM--|     ~~~
|   Q  E E E  Q  E   +Q   E E E  Q  E
||-----------------|------------------|
||o----------------|------------------|
||-----------------|------------------|
||-----------------|------------------|
||o-0--------------|------------------|
||--0--0-0-0-/8S=7-|-(7)--0-0-0-/5S=8-|


 ~~~~~ PM--------------|                ~~~~~
                         |-3-| |-3-|
  +Q   Q  Q  E E   +E  E E E E E E E S  S S S
|----------------|-----------------------------|
|----------------|-----------------------------|
|----------------|-----------------------------|
|----------------|-----------------------------|
|------0--0--0-0-|-(0)-0-----------------------|
|-(8)--0--0--0-0-|-(0)-0-3h5p3-2h3p2-0h=2p1p0--|
|
|~~~~~ PM--------------|
|                        |-3-| |-3-|
| +Q   Q  Q  E E   +E  E E E E E E E Q
|----------------|-----------------------------|
|----------------|-----------------------------|
|----------------|-----------------------------|
|----------------|-----------------------------|
|------0--0--0-0-|-(0)-0-----------------------|
|-(8)--0--0--0-0-|-(0)-0-3h5p3-2h3p2s7\--------|


  Gtrs I, II
     PM--|     ~~~~~~~~ PM--|     ~~~~~~~~ PM------|
  Q  E E E  Q  E   +Q   E E E  Q  E   +Q   Q  Q  E E   Q.   Q.    Q
|----------------|------------------|----------------|----------------||
|----------------|------------------|----------------|---------------o||
|----------------|------------------|----------------|----------------||
|----------------|------------------|----------------|-3----2----/7---||
|-0--------------|------------------|------0--0------|-3----3----/7--o||
|-0--0-0-0-/8S=7-|-(7)--0-0-0-/5S=8-|-(8)--0--0--0-0-|-3----2----/7---||


 Pre-Chorus
  Gtr V
  Q  Q   E E Q     Q  E E +E  E +Q
|----------------|---------------------|
|-6--6---6-6-6---|-5--5-6-(6)-8-(8)\---|
|-7--7---7-7-7---|-6--6-7-(7)-9-(9)\---|
|-x--x---x-x-x---|-x--x-x-----x--------|
|-5--5---5-5-5---|-4--4-5-(5)-7-(7)\---|
|----------------|---------------------|
|
| Gtrs I, II
| Q  Q.    E E E   Q  E Q     E  E   E
|----------------|---------------------|
|----------------|---------------------|
|----------------|---------------------|
|-8--8-----8-8-8-|-7--7-7-----7--7---7-|
|-8--8-----8-8-8-|-7--7-7-----7--7---7-|
|-8--8-----8-8-8-|-7--7-7-----7--7---7-|


  Gtr I
  PM--------------------------|               ~~~~~
                                |-3-| |-3-|
  E S S E S S E S S E S S   E E E E E E E E S S S S
|-------------------------|--------------------------|
|-------------------------|--------------------------|
|-------------------------|--------------------------|
|-------------------------|--------------------------|
|-------------------------|--------------------------|
|-8-8-8-7-7-7-8-8-8-7-7-7-|-8-8-3h5p3-2h3p2-0h2p1p0--|
|
| Gtr II
| PM--------------------------|               ~~~~~
|                               |-3-| |-3-|
| E S S E S S E S S E S S   E E E E E E E E S S S S
|-------------------------|--------------------------|
|-------------------------|--------------------------|
|-------------------------|--------------------------|
|-------------------------|--------------------------|
|-------4-4-4-5-5-5-------|--------------------------|
|-5-5-5-------------3-3-3-|-5-5-3h5p3-2h3p2-0h2p1p0--|


  Gtr III
  Q  Q   E E Q     Q  E  E  +E   E  +Q
|----------------|-------------------------|
|-6--6---6-6-6---|-5--5--6--(6)--8--(8)\---|
|-7--7---7-7-7---|-6--6--7--(7)--9--(9)\---|
|-x--x---x-x-x---|-x--x--x-------x---------|
|-5--5---5-5-5---|-4--4--5--(5)--7--(7)\---|
|----------------|-------------------------|
|
| Gtrs I, II
| Q  Q.    E E E   Q  E  Q       E   E   E
|----------------|-------------------------|
|----------------|-------------------------|
|----------------|-------------------------|
|-8--8-----8-8-8-|-7--7--7-------7---7---7-|
|-8--8-----8-8-8-|-7--7--7-------7---7---7-|
|-8--8-----8-8-8-|-7--7--7-------7---7---7-|
|
| Gtr IV
| Q  Q   E E Q     Q  E  E  +E   E  +Q
|----------------|-------------------------|
|-6--6---6-6-6---|-8--8-10-(10)-11-(11)\---|
|-7--7---7-7-7---|-9--9-10-(10)-12-(12)\---|
|-x--x---x-x-x---|-x--x--x-------x---------|
|-5--5---5-5-5---|-7--7--8--(8)-10-(10)\---|
|----------------|-------------------------|


  Gtr II
  PM--------------------------|               ~~~~~
                                |-3-| |-3-|
  E S S E S S E S S E S S   E E E E E E E E S S S S
|-------------------------|--------------------------|
|-------------------------|--------------------------|
|-------------------------|--------------------------|
|-------------------------|--------------------------|
|-------------------------|--------------------------|
|-8-8-8-7-7-7-8-8-8-7-7-7-|-8-8-3h5p3-2h3p2-0h2p1p0--|
|
| Gtr I
| PM--------------------------|               ~~~~~
|                               |-3-| |-3-|
| E S S E S S E S S E S S   E E E E E E E E S S S S
|-------------------------|--------------------------|
|-------------------------|--------------------------|
|-------------------------|--------------------------|
|-------------------------|--------------------------|
|-------------------------|--------------------------|
|-5-5-5-3-3-3-5-5-5-3-3-3-|-5-5-3h5p3-2h3p2-0h2p1p0--|
|
| W                         W
|-------------------------|--------------------------|
|-------------------------|--------------------------|
|-------------------------|--------------------------|
|-------------------------|--------------------------|
|-------------------------|--------------------------|
|-------------------------|--------------------------|


  Gtr III
  Q  Q   E E Q     Q.     Q.      Q
|----------------|---------------------|
|----------------|---------------------|
|-7--7---7-7-7---|-7------9------10\---|
|-x--x---x-x-x---|-x------x-------x----|
|-5--5---5-5-5---|-5------7-------8\---|
|----------------|---------------------|
|
| Gtr IV
| Q  Q   E E Q     Q.     Q.      Q
|----------------|---------------------|
|----------------|---------------------|
|-7--7---7-7-7---|-3------5-------7\---|
|-x--x---x-x-x---|-x------x-------x----|
|-5--5---5-5-5---|-1------3-------5\---|
|----------------|---------------------|
|
| Gtrs I, II
| Q  Q.    E E E   E  E E E  E E  E  E
|----------------|---------------------|
|----------------|---------------------|
|----------------|---------------------|
|-8--8-----8-8-8-|-8--8-8-8--8-8--8--8-|
|-8--8-----8-8-8-|-8--8-8-8--8-8--8--8-|
|-8--8-----8-8-8-|-8--8-8-8--8-8--8--8-|


  Q  Q   Q   Q     E  E E E +E   E  E  E
|----------------|-----------------------|
|----------------|-----------------------|
|-6--6---6---6---|-6--6-6-6-(6)--6--6--6-|
|-x--x---x---x---|-x--x-x-x------x--x--x-|
|-4--4---4---4---|-4--4-4-4-(4)--4--4--4-|
|----------------|-----------------------|
|
| Q  Q   Q   Q     E  E E E  E   E  E  E
|----------------|-9------9h10---9--9--9-|
|----------------|---10---------10-10-10-|
|-9--9---9---9---|------9--------9--9--9-|
|-x--x---x---x---|-----------------------|
|-7--7---7---7---|-----------------------|
|----------------|-----------------------|
|
| Q  Q.    E E E   E  E E E  E   E  E  E
|----------------|-----------------------|
|----------------|-----------------------|
|----------------|-----------------------|
|-7--7-----7-7-7-|-7--7-7-7--7---7--7--7-|
|-7--7-----7-7-7-|-7--7-7-7--7---7--7--7-|
|-7--7-----7-7-7-|-7--7-7-7--7---7--7--7-|


  Gtrs I, II
     PM----|    PM----|
  Q  S S S S Q  S S S S   Q  Q  E E Q
|-----------------------|--------------||
|-----------------------|--------------||
|-----------------------|--------------||
|-7----------5----------|-3---------8\-||
|-7----------5----------|-3-------x-8\-||
|-7--7-7-7-7-5--5-5-5-5-|-3-------x-8\-||


   Chorus
                          PM                       PM
      Q   Q.       E  E   E     Q   Q.       E  E  E
||--------------------------|------------------------|
||o-------------------------|------------------------|
||--------------------------|------------------------|
||----0---0--------0--0-----|---8---8--------8--8----|
||o---0---0--------0--0-----|---8---8--------8--8----|
||----0---0--------0--0---0-|---8---8--------8--8--8-|
|
|   Gtr III
|     ~~~~~~~             ~~~~~~~~~
|     Q   Q     E  E  E   E    +Q.      Q    E  E  E
||--------------------------|------------------------|
||o---------------------/11-|-(11)-----11--/10p=8----|
||---/7---7----/7h=9h10-----|---------------------10-|
||--------------------------|------------------------|
||o-------------------------|------------------------|
||--------------------------|------------------------|
|
|   Gtr IV
|     ~~~~~~~             ~~~~~~~~~
|     Q   Q     E  E  E   E    +Q.      Q    E  E  E
||--------------------------|------------------------|
||o---------------------/15-|-(15)-----15--/13p11----|
||--/10--10---/10h12h14-----|---------------------14-|
||--------------------------|------------------------|
||o-------------------------|------------------------|
||--------------------------|------------------------|


                        PM
    Q    Q.       E  E  E    Q     E  Q     E  Q
|-------------------------|--------------------------|
|-------------------------|--------------------------|
|-------------------------|--------------------------|
|---3----3--------3--3----|--2-----2--2-----2--2-----|
|---3----3--------3--3----|--3-----3--3-----3--3-----|
|---3----3--------3--3--3-|--2-----2--2-----2--2-----|
|
|   ~~~~        ~~
|  +Q    E   E  Q    E  E    E  E  E  E  E  E  E  E
|-------------------------|--------------------------|
|--------8----------------|-13----------13----13-----|
|-(10)------10p=9---10h12-|----12p10h12----12----12--|
|-------------------------|--------------------------|
|-------------------------|--------------------------|
|-------------------------|--------------------------|
|
|   ~~~~        ~~
|  +Q    E   E  Q    E  E    E  E  E  E  E  E  E  E
|-------------------------|--------------------------|
|-------11----------------|-17----------17----17-----|
|-(14)------14p12---14h15-|----15p14h15----15----15--|
|-------------------------|--------------------------|
|-------------------------|--------------------------|
|-------------------------|--------------------------|


                        PM                       PM
    Q   Q.       E  E   E     Q   Q.       E  E  E
|-------------------------|------------------------|
|-------------------------|------------------------|
|-------------------------|------------------------|
|---0---0--------0--0-----|---8---8--------8--8----|
|---0---0--------0--0-----|---8---8--------8--8----|
|---0---0--------0--0---0-|---8---8--------8--8--8-|
|
|   ~~~~~~~             ~~~~~~~~~
|   Q   Q     E  E  E   E    +Q.      Q    E  E  E
|-------------------------|------------------------|
|---------------------/11-|-(11)-----11--/10p=8----|
|--/7---7----/7h=9h10-----|---------------------10-|
|-------------------------|------------------------|
|-------------------------|------------------------|
|-------------------------|------------------------|
|
|   ~~~~~~~             ~~~~~~~~~
|   Q   Q     E  E  E   E    +Q.      Q    E  E  E
|-------------------------|------------------------|
|---------------------/15-|-(15)-----15--/13p11----|
|-/10--10---/10h12h14-----|---------------------14-|
|-------------------------|------------------------|
|-------------------------|------------------------|
|-------------------------|------------------------|


  1.
                        PM
    Q    Q.       E  E  E    E  E  E  E  E  E  E  E
|-------------------------|--------------------------||
|-------------------------|-------------------------o||
|-----------------5--5----|--6--6--6--6--6--6--6--6--||
|---3----3--------3--3----|--7--7--7--7--7--7--7--7--||
|---3----3--------3--3----|--4--4--4--4--4--4--4--4-o||
|---3----3--------3--3--3-|--------------------------||
|
|   ~~~~        ~~
|  +Q    E   E  Q    E  E    E  E  E  E  E  E  E  E
|-------------------------|-----9h10p=9h12p=9--------||
|--------8----------------|-10----------------10----o||
|-(10)------10p=9---10h12-|-----------------------9--||
|-------------------------|--------------------------||
|-------------------------|-------------------------o||
|-------------------------|--------------------------||
|
|   ~~~~        ~~
|  +Q    E   E  Q    E  E    E  E  E  E  E  E  E  E
|-------------------------|----12h13p12h15p12--------||
|-------11----------------|-13----------------13----o||
|-(14)------14p12---14h15-|----------------------12--||
|-------------------------|--------------------------||
|-------------------------|-------------------------o||
|-------------------------|--------------------------||


  2.
             PM----------|           PM------|
    Q        S S    S    S  Q        S  S  S  S    Q   Q  H
|-----------------------------------------------|---------------||
|-----------------------------------------------|---------------||
|-----------------------------------------------|---------------||
|---7-----------------------5-------------------|--3------------||
|---7-----------------------5-------------------|--3------------||
|---7--------7-7----7----7--5--------5--5--5--5-|--3------------||
|
|                                                  ~~~
|   |--3--|  |----3----|    |--3--|
|   E  E  E  E    E    E    E  E  E  S  S  S  S    H.        Q
|-/13p10----------------------------------10h15-|-13------------||
|--------10----------------------------10-------|---------------||
|-----------10----------------------10----------|---------------||
|----------------12--------------12-------------|---------------||
|---------------------13p==10h13----------------|---------------||
|-----------------------------------------------|---------------||
|
|                                                  ~~~
|   |--3--|  |----3----|    |--3--|
|   E  E  E  E    E    E    E  E  E  S  S  S  S    H.        Q
|-/17p13----------------------------------13h18-|-17------------||
|--------15----------------------------15-------|---------------||
|-----------14----------------------14----------|---------------||
|----------------15--------------15-------------|---------------||
|---------------------17p==13h17----------------|---------------||
|-----------------------------------------------|---------------||


   Verse
    Gtr I
       PM--|     ~~~~~~~~ PM--|     ~~~
    Q  E E E  Q  E   +Q   E E E  Q  E
||-----------------|------------------|
||o----------------|------------------|
||-----------------|------------------|
||-----------------|------------------|
||o-0--------------|------------------|
||--0--0-0-0-/8S=7-|-(7)--0-0-0-/5S=8-|
|
|   Gtr II
|      PM--|     ~~~~~~~~ PM--|     ~~~
|   Q  E E E  Q  E   +Q   E E E  Q  E
||-----------------|------------------|
||o----------------|------------------|
||-----------------|------------------|
||-----------------|------------------|
||o-0--------------|------------------|
||--0--0-0-0-/8S=7-|-(7)--0-0-0-/5S=8-|


 ~~~~~ PM--------------|               ~~~~~
                         |-3-| |-3-|
  +Q   Q  Q  E E   +E  E E E E E E E S S S S
|----------------|----------------------------|
|----------------|----------------------------|
|----------------|----------------------------|
|----------------|----------------------------|
|------0--0--0-0-|-(0)-0----------------------|
|-(8)--0--0--0-0-|-(0)-0-3h5p3-2h3p2-0h2p1p0--|
|
|~~~~~ PM--------------|               ~~~~~
|                        |-3-| |-3-|
| +Q   Q  Q  E E   +E  E E E E E E E S S S S
|----------------|----------------------------|
|----------------|----------------------------|
|----------------|----------------------------|
|----------------|----------------------------|
|------0--0--0-0-|-(0)-0----------------------|
|-(8)--0--0--0-0-|-(0)-0-3h5p3-2h3p2-0h6p5p0--|


  Gtrs I, II
     PM--|     ~~~~~~~~ PM--|     ~~~~~~~~ PM------|
  Q  E E E  Q  E   +Q   E E E  Q  E   +Q   Q  Q  E E   Q.   Q.    Q   4x
|----------------|------------------|----------------|----------------||
|----------------|------------------|----------------|---------------o||
|----------------|------------------|----------------|----------------||
|----------------|------------------|----------------|-3----2----/7---||
|-0--------------|------------------|------0--0------|-3----3----/7--o||
|-0--0-0-0-/8S=7-|-(7)--0-0-0-/5S=8-|-(8)--0--0--0-0-|-3----2----/7---||


 Pre-Chorus
  Gtr V
  Q  Q   E E Q     Q  E E +E  E +Q
|----------------|---------------------|
|-6--6---6-6-6---|-5--5-6-(6)-8-(8)\---|
|-7--7---7-7-7---|-6--6-7-(7)-9-(9)\---|
|-x--x---x-x-x---|-x--x-x-----x--------|
|-5--5---5-5-5---|-4--4-5-(5)-7-(7)\---|
|----------------|---------------------|
|
| Gtrs I, II
| Q  Q.    E E E   Q  E Q     E  E   E
|----------------|---------------------|
|----------------|---------------------|
|----------------|---------------------|
|-8--8-----8-8-8-|-7--7-7-----7--7---7-|
|-8--8-----8-8-8-|-7--7-7-----7--7---7-|
|-8--8-----8-8-8-|-7--7-7-----7--7---7-|


  Gtr I
  PM--------------------------|               ~~~~~
                                |-3-| |-3-|
  E S S E S S E S S E S S   E E E E E E E E S S S S
|-------------------------|--------------------------|
|-------------------------|--------------------------|
|-------------------------|--------------------------|
|-------------------------|--------------------------|
|-------------------------|--------------------------|
|-8-8-8-7-7-7-8-8-8-7-7-7-|-8-8-3h5p3-2h3p2-0h2p1p0--|
|
| Gtr II
| PM--------------------------|               ~~~~~
|                               |-3-| |-3-|
| E S S E S S E S S E S S   E E E E E E E E S S S S
|-------------------------|--------------------------|
|-------------------------|--------------------------|
|-------------------------|--------------------------|
|-------------------------|--------------------------|
|-------4-4-4-5-5-5-------|--------------------------|
|-5-5-5-------------3-3-3-|-5-5-3h5p3-2h3p2-0h2p1p0--|


  Gtr III
  Q  Q   E E Q     Q  E  E  +E   E  +Q
|----------------|-------------------------|
|-6--6---6-6-6---|-5--5--6--(6)--8--(8)\---|
|-7--7---7-7-7---|-6--6--7--(7)--9--(9)\---|
|-x--x---x-x-x---|-x--x--x-------x---------|
|-5--5---5-5-5---|-4--4--5--(5)--7--(7)\---|
|----------------|-------------------------|
|
| Gtrs I, II
| Q  Q.    E E E   Q  E  Q       E   E   E
|----------------|-------------------------|
|----------------|-------------------------|
|----------------|-------------------------|
|-8--8-----8-8-8-|-7--7--7-------7---7---7-|
|-8--8-----8-8-8-|-7--7--7-------7---7---7-|
|-8--8-----8-8-8-|-7--7--7-------7---7---7-|
|
| Gtr IV
| Q  Q   E E Q     Q  E  E  +E   E  +Q
|----------------|-------------------------|
|----------------|-8--8-10-(10)-11-(11)\---|
|-7--7---7-7-7---|-9--9-10-(10)-12-(12)\---|
|-x--x---x-x-x---|-x--x--x-------x---------|
|-5--5---5-5-5---|-7--7--8--(8)-10-(10)\---|
|----------------|-------------------------|


  Gtr II
  PM--------------------------|               ~~~~~
                                |-3-| |-3-|
  E S S E S S E S S E S S   E E E E E E E E S S S S
|-------------------------|--------------------------|
|-------------------------|--------------------------|
|-------------------------|--------------------------|
|-------------------------|--------------------------|
|-------------------------|--------------------------|
|-8-8-8-7-7-7-8-8-8-7-7-7-|-8-8-3h5p3-2h3p2-0h2p1p0--|
|
| Gtr I
| PM--------------------------|               ~~~~~
|                               |-3-| |-3-|
| E S S E S S E S S E S S   E E E E E E E E S S S S
|-------------------------|--------------------------|
|-------------------------|--------------------------|
|-------------------------|--------------------------|
|-------------------------|--------------------------|
|-------------------------|--------------------------|
|-5-5-5-3-3-3-5-5-5-3-3-3-|-5-5-3h5p3-2h3p2-0h2p1p0--|
|
| W                         W
|-------------------------|--------------------------|
|-------------------------|--------------------------|
|-------------------------|--------------------------|
|-------------------------|--------------------------|
|-------------------------|--------------------------|
|-------------------------|--------------------------|


  Gtr III
  Q  Q   E E Q     Q.     Q.      Q
|----------------|---------------------|
|----------------|---------------------|
|-7--7---7-7-7---|-7------9------10\---|
|-x--x---x-x-x---|-x------x-------x----|
|-5--5---5-5-5---|-5------7-------8\---|
|----------------|---------------------|
|
| Gtr IV
| Q  Q   E E Q     Q.     Q.      Q
|----------------|---------------------|
|----------------|---------------------|
|-7--7---7-7-7---|-3------5-------7\---|
|-x--x---x-x-x---|-x------x-------x----|
|-5--5---5-5-5---|-1------3-------5\---|
|----------------|---------------------|
|
| Gtrs I, II
| Q  Q.    E E E   E  E E E  E E  E  E
|----------------|---------------------|
|----------------|---------------------|
|----------------|---------------------|
|-8--8-----8-8-8-|-8--8-8-8--8-8--8--8-|
|-8--8-----8-8-8-|-8--8-8-8--8-8--8--8-|
|-8--8-----8-8-8-|-8--8-8-8--8-8--8--8-|


  Q  Q   Q   Q     E  E E E +E   E  E  E
|----------------|-----------------------|
|----------------|-----------------------|
|-6--6---6---6---|-6--6-6-6-(6)--6--6--6-|
|-x--x---x---x---|-x--x-x-x------x--x--x-|
|-4--4---4---4---|-4--4-4-4-(4)--4--4--4-|
|----------------|-----------------------|
|
| Q  Q   Q   Q     E  E E E  E   E  E  E
|----------------|-9------9h10---9--9--9-|
|----------------|---10---------10-10-10-|
|-9--9---9---9---|------9--------9--9--9-|
|-x--x---x---x---|-----------------------|
|-7--7---7---7---|-----------------------|
|----------------|-----------------------|
|
| Q  Q.    E E E   E  E E E  E   E  E  E
|----------------|-----------------------|
|----------------|-----------------------|
|----------------|-----------------------|
|-7--7-----7-7-7-|-7--7-7-7--7---7--7--7-|
|-7--7-----7-7-7-|-7--7-7-7--7---7--7--7-|
|-7--7-----7-7-7-|-7--7-7-7--7---7--7--7-|


  Gtrs I, II
     PM----|    PM----|
  Q  S S S S Q  S S S S   Q  Q  E E Q
|-----------------------|--------------||
|-----------------------|--------------||
|-----------------------|--------------||
|-7----------5----------|-3---------8\-||
|-7----------5----------|-3-------x-8\-||
|-7--7-7-7-7-5--5-5-5-5-|-3-------x-8\-||


   Chorus
                          PM                       PM
      Q   Q.       E  E   E     Q   Q.       E  E  E
||--------------------------|------------------------|
||o-------------------------|------------------------|
||--------------------------|------------------------|
||----0---0--------0--0-----|---8---8--------8--8----|
||o---0---0--------0--0-----|---8---8--------8--8----|
||----0---0--------0--0---0-|---8---8--------8--8--8-|
|
|   Gtr III
|     ~~~~~~~             ~~~~~~~~~
|     Q   Q     E  E  E   E    +Q.      Q    E  E  E
||--------------------------|------------------------|
||o---------------------/11-|-(11)-----11--/10p=8----|
||---/7---7----/7h=9h10-----|---------------------10-|
||--------------------------|------------------------|
||o-------------------------|------------------------|
||--------------------------|------------------------|
|
|   Gtr IV
|     ~~~~~~~             ~~~~~~~~~
|     Q   Q     E  E  E   E    +Q.      Q    E  E  E
||--------------------------|------------------------|
||o---------------------/15-|-(15)-----15--/13p11----|
||--/10--10---/10h12h14-----|---------------------14-|
||--------------------------|------------------------|
||o-------------------------|------------------------|
||--------------------------|------------------------|


                        PM
    Q    Q.       E  E  E    Q     E  Q     E  Q
|-------------------------|--------------------------|
|-------------------------|--------------------------|
|-------------------------|--------------------------|
|---3----3--------3--3----|--2-----2--2-----2--2-----|
|---3----3--------3--3----|--3-----3--3-----3--3-----|
|---3----3--------3--3--3-|--2-----2--2-----2--2-----|
|
|   ~~~~        ~~
|  +Q    E   E  Q    E  E    E  E  E  E  E  E  E  E
|-------------------------|--------------------------|
|--------8----------------|-13----------13----13-----|
|-(10)------10p=9---10h12-|----12p10h12----12----12--|
|-------------------------|--------------------------|
|-------------------------|--------------------------|
|-------------------------|--------------------------|
|
|   ~~~~        ~~
|  +Q    E   E  Q    E  E    E  E  E  E  E  E  E  E
|-------------------------|--------------------------|
|-------11----------------|-17----------17----17-----|
|-(14)------14p12---14h15-|----15p14h15----15----15--|
|-------------------------|--------------------------|
|-------------------------|--------------------------|
|-------------------------|--------------------------|


                        PM                       PM
    Q   Q.       E  E   E     Q   Q.       E  E  E
|-------------------------|------------------------|
|-------------------------|------------------------|
|-------------------------|------------------------|
|---0---0--------0--0-----|---8---8--------8--8----|
|---0---0--------0--0-----|---8---8--------8--8----|
|---0---0--------0--0---0-|---8---8--------8--8--8-|
|
|   ~~~~~~~             ~~~~~~~~~
|   Q   Q     E  E  E   E    +Q.      Q    E  E  E
|-------------------------|------------------------|
|---------------------/11-|-(11)-----11--/10p=8----|
|--/7---7----/7h=9h10-----|---------------------10-|
|-------------------------|------------------------|
|-------------------------|------------------------|
|-------------------------|------------------------|
|
|   ~~~~~~~             ~~~~~~~~~
|   Q   Q     E  E  E   E    +Q.      Q    E  E  E
|-------------------------|------------------------|
|---------------------/15-|-(15)-----15--/13p11----|
|-/10--10---/10h12h14-----|---------------------14-|
|-------------------------|------------------------|
|-------------------------|------------------------|
|-------------------------|------------------------|


  1.
                        PM
    Q    Q.       E  E  E    E  E  E  E  E  E  E  E
|-------------------------|--------------------------||
|-------------------------|-------------------------o||
|-----------------5--5----|--6--6--6--6--6--6--6--6--||
|---3----3--------3--3----|--7--7--7--7--7--7--7--7--||
|---3----3--------3--3----|--4--4--4--4--4--4--4--4-o||
|---3----3--------3--3--3-|--------------------------||
|
|   ~~~~        ~~
|  +Q    E   E  Q    E  E    E  E  E  E  E  E  E  E
|-------------------------|-----9h10p=9h12p=9--------||
|--------8----------------|-10----------------10----o||
|-(10)------10p=9---10h12-|-----------------------9--||
|-------------------------|--------------------------||
|-------------------------|-------------------------o||
|-------------------------|--------------------------||
|
|   ~~~~        ~~
|  +Q    E   E  Q    E  E    E  E  E  E  E  E  E  E
|-------------------------|----12h13p12h15p12--------||
|-------11----------------|-13----------------13----o||
|-(14)------14p12---14h15-|----------------------12--||
|-------------------------|--------------------------||
|-------------------------|-------------------------o||
|-------------------------|--------------------------||


  2.
             PM----------|           PM------|
    Q        S S    S    S  Q        S  S  S  S    Q   Q  H
|-----------------------------------------------|---------------||
|-----------------------------------------------|---------------||
|-----------------------------------------------|---------------||
|---7-----------------------5-------------------|--3------------||
|---7-----------------------5-------------------|--3------------||
|---7--------7-7----7----7--5--------5--5--5--5-|--3------------||
|
|                                                  ~~~
|   |--3--|  |----3----|    |--3--|
|   E  E  E  E    E    E    E  E  E  S  S  S  S    H.        Q
|-/13p10----------------------------------10h15-|-13------------||
|--------10----------------------------10-------|---------------||
|-----------10----------------------10----------|---------------||
|----------------12--------------12-------------|---------------||
|---------------------13p==10h13----------------|---------------||
|-----------------------------------------------|---------------||
|
|                                                  ~~~
|   |--3--|  |----3----|    |--3--|
|   E  E  E  E    E    E    E  E  E  S  S  S  S    H.        Q
|-/17p13----------------------------------13h18-|-17------------||
|--------15----------------------------15-------|---------------||
|-----------14----------------------14----------|---------------||
|----------------15--------------15-------------|---------------||
|---------------------17p==13h17----------------|---------------||
|-----------------------------------------------|---------------||


 Pre-Solo
   PM-------|     PM-------|            PM----|        PM----|
   S    S S S q   S    S S S Q     +q   S S S S  q     S S S S
|-------------------------------|------------------------------|
|-------------------------------|------------------------------|
|-------------------------------|------------------------------|
|-------------------------------|------------------------------|
|-------------------------------|------------------------------|
|--0----0-0-0-0---0----0-0-0-0--|--(0)--0-0-0-0--0-----0-0-0-0-|
|
| Gtr III
|                                   ~~~~
|  H              H                +H            H
|-10-------------10-------------|-(10)----------10-------------|
|-13b15----------13b15----------|-(13)----------13b15----------|
|-------------------------------|------------------------------|
|-------------------------------|------------------------------|
|-------------------------------|------------------------------|
|-------------------------------|------------------------------|
|
| Gtr IV
|                                   ~~~~
|  H              H                +H            H
|-13-------------13-------------|-(13)----------13-------------|
|-16b18----------16b18----------|-(16)----------16b18----------|
|-------------------------------|------------------------------|
|-------------------------------|------------------------------|
|-------------------------------|------------------------------|
|-------------------------------|------------------------------|


            PM-------|            PM----|
   h        S    S S S q      Q   S S S S  q     Q
|-------------------------|-------------------------|
|-------------------------|-------------------------|
|-------------------------|-------------------------|
|-------------------------|-------------------------|
|-------------------------|-------------------------|
|--0--------0----0-0-0-0--|-------0-0-0-0--0--------|
|
|                             ~~~~
|  H        H                +H            h
|-13-------13-------------|-(13)----------13--------|
|-16b18----16b18----------|-(16)----------16b18-----|
|-------------------------|-------------------------|
|-------------------------|-------------------------|
|-------------------------|-------------------------|
|-------------------------|-------------------------|
|
|                             ~~~~
|  H        H                +H            h
|-10-------10-------------|-(10)----------10--------|
|-13b15----13b15----------|-(13)----------13b15-----|
|-------------------------|-------------------------|
|-------------------------|-------------------------|
|-------------------------|-------------------------|
|-------------------------|-------------------------|


   PM-------|     PM-------|            PM----|        PM----|
   S    S S S q   S    S S S Q     +q   S S S S  q     S S S S
|-------------------------------|------------------------------|
|-------------------------------|------------------------------|
|-------------------------------|------------------------------|
|-------------------------------|------------------------------|
|-------------------------------|------------------------------|
|--0----0-0-0-0---0----0-0-0-0--|--(0)--0-0-0-0--0-----0-0-0-0-|
|
|                                   ~~~~
|  H              H                +H            H
|-10-------------10-------------|-(10)----------10-------------|
|-13b15----------13b15----------|-(13)----------13b15----------|
|-------------------------------|------------------------------|
|-------------------------------|------------------------------|
|-------------------------------|------------------------------|
|-------------------------------|------------------------------|
|
|                                   ~~~~
|  H              H                +H            H
|-13-------------13-------------|-(13)----------13-------------|
|-16b18----------16b18----------|-(16)----------16b18----------|
|-------------------------------|------------------------------|
|-------------------------------|------------------------------|
|-------------------------------|------------------------------|
|-------------------------------|------------------------------|


         PM------------|
   q     E E  E    E E E     E    E E E H
|------------------------|-------------------||
|------------------------|-------------------||
|------------------------|-------------------||
|------------------------|-------------------||
|------------------------|-------------------||
|--0-----0-0--3----0-0-0-|---3p===0h3p0------||
|
|  H          H             +w
|-10---------10----------|-(10)--------------||
|-13b15------13b15-------|-(13)--------------||
|------------------------|-------------------||
|------------------------|-------------------||
|------------------------|-------------------||
|------------------------|-------------------||
|
|  W                         w
|-13---------------------|--13---------------||
|-16b18------------------|--16b18------------||
|------------------------|-------------------||
|------------------------|-------------------||
|------------------------|-------------------||
|------------------------|-------------------||


 Guitar Solo - take it away, Mr. Gates.
  Bb5                 A5
  Gtrs I, II
    Q   Q.   E  E E   Q   E  Q   E  E E
    |   |    |  | |   |   |  |   |  | |
    /   /    /  / /   /   /  /   /  / /

  Gtr III
    ~~~~~~~~~~~~~~~~~~~~~~~~~~~~~~~~~~
    H.          Q     Q.     Q.     Q
|-------------------|-------------------|
|-------------------|-------------------|
|--/7-----------7---|-6------7------9---|
|-------------------|-------------------|
|-------------------|-------------------|
|-------------------|-------------------|
|
| Gtr IV
|   ~~~~~~~~~~~~~~~~~~~~~~~~~~~~~~~~~~
|   H.          Q     Q.     Q.     Q
|-------------------|-------------------|
|-------------------|-------------------|
|-/10----------10---|-9-----10-----12---|
|-------------------|-------------------|
|-------------------|-------------------|
|-------------------|-------------------|
|
| Gtr V
|   W                 W
|-------------------|-------------------|
|-------------------|-------------------|
|-------------------|-------------------|
|-------------------|-------------------|
|-------------------|-------------------|
|-------------------|-------------------|


  D5                 D
    Q                 E     E     E           E     E     E
    |                 |     |     |           |     |     |
    /                 o     /     /           /     /     /

    ~~~~
    W
|--------------------------------------------------------------|
|--------------------------------------------------------------|
|--10----------------------------------------------------------|
|--------------------------------------------------------------|
|--------------------------------------------------------------|
|--------------------------------------------------------------|
|
|   ~~~~
|   W
|--------------------------------------------------------------|
|--------------------------------------------------------------|
|--14----------------------------------------------------------|
|--------------------------------------------------------------|
|--------------------------------------------------------------|
|--------------------------------------------------------------|
| Relentless, don't stop.
|   S  S  T  T  T  T  S  S  S  S  T  T  T  T  S  S  S  S  S  S
|-/15p13----------12h13h15-16p15p13----------------15p13-------|
|--------15p13h15-------------------15p13h15-------------15p13-|
|--------------------------------------------14----------------|
|-----------------------------------------------15-------------|
|--------------------------------------------------------------|
|--------------------------------------------------------------|


                 F           E           Eb
   S  S  E        S  S  S  S  S  S  S  S  S  S  S  S
   |  |  |        |  |  |  |  |  |  |  |  |  |  |  |
   /  /  /        o  /  /  /  o  /  /  /  o  /  /  /

   W
|-----------------------------------------------------|
|-----------------------------------------------------|
|-----------------------------------------------------|
|-----------------------------------------------------|
|-----------------------------------------------------|
|-----------------------------------------------------|
|
|  W
|-----------------------------------------------------|
|-----------------------------------------------------|
|-----------------------------------------------------|
|-----------------------------------------------------|
|-----------------------------------------------------|
|-----------------------------------------------------|
|
|  S  S  T  T  S  S  S  S  S  S  S  S  S  S  S  S  S
|-------12h13p12--------------------------------------|
|----15----------15-----------------------------------|
|-14----------------14p12h14--------------------------|
|----------------------------15p14p12-14p12p10h12-----|
|-------------------------------------------------12--|
|-----------------------------------------------------|


  Bb5                    A5
    Q   Q.   E   E   E   Q   E  Q   E  E E
    |   |    |   |   |   |   |  |   |  | |
    /   /    /   /   /   /   /  /   /  / /

    ~~~~~~~~~~~~~~~~~~~~~~~~~~~~~~~~~~~~~
    H.           Q       Q.     Q.     Q
|----------------------|-------------------|
|----------------------|-------------------|
|--/7------------7-----|-6------7------9---|
|----------------------|-------------------|
|----------------------|-------------------|
|----------------------|-------------------|
|
|   ~~~~~~~~~~~~~~~~~~~~~~~~~~~~~~~~~~~~~
|   H.           Q       Q.     Q.     Q
|----------------------|-------------------|
|----------------------|-------------------|
|-/10-----------10-----|-9-----10-----12---|
|----------------------|-------------------|
|----------------------|-------------------|
|----------------------|-------------------|
|
|   ~~~~
|   H.          +Q       W
|----------------------|-------------------|
|----------------------|-------------------|
|----------------------|-------------------|
|--12----------(12)\---|-------------------|
|----------------------|-------------------|
|----------------------|-------------------|


  D5          D
   Q           E     E     E     E     E     E
   |           |     |     |     |     |     |
   /           o     /     /     /     /     /

   ~~
   W
|-------------------------------------------------|
|-------------------------------------------------|
|-10----------------------------------------------|
|-------------------------------------------------|
|-------------------------------------------------|
|-------------------------------------------------|
|
|  ~~
|  W
|-------------------------------------------------|
|-------------------------------------------------|
|-------------------------------------------------|
|-12----------------------------------------------|
|-------------------------------------------------|
|-------------------------------------------------|
|Alternate Picked
|  S  S  S  S  S  S  S  S  S  S  S  S  S  S  S  S
|-------------------------------------------------|
|-------------------------------------------------|
|-14-12-10----------14-12-10----------14-12-10----|
|----------12-10-12----------12-10-12----------12-|
|-------------------------------------------------|
|-------------------------------------------------|


              F           E           Eb
   S  S  E     S  S  S  S  S  S  S  S  S  S  S  S
   |  |  |     |  |  |  |  |  |  |  |  |  |  |  |
   /  /  /     o  /  /  /  o  /  /  /  o  /  /  /

   W
|-------------------------------------------------|
|-------------------------------------------------|
|-------------------------------------------------|
|-------------------------------------------------|
|-------------------------------------------------|
|-------------------------------------------------|
|
|  W
|-------------------------------------------------|
|-------------------------------------------------|
|-------------------------------------------------|
|-------------------------------------------------|
|-------------------------------------------------|
|-------------------------------------------------|
|
|  S  S  S  S  S  S  S  S  S  S  S  S  S  S  S  S
|-------------------------------------------------|
|----------------------------------------11h13p11-|
|-------14-12-10----------14-12-10-12-14----------|
|-10-12----------14-12-10-------------------------|
|-------------------------------------------------|
|-------------------------------------------------|


  Bb5                          A5
    Q     Q.       E   E   E   Q   E  Q    E  E E
    |     |        |   |   |   |   |  |    |  | |
    /     /        /   /   /   /   /  /    /  / /

    ~~~~~~~~~~~~~~~~~~~~~~~~~~~~~~~~~~~~~~~~~~~~
    H.                 Q       Q.     E  Q    Q
|----------------------------|--------------------|
|----------------------------|--------------------|
|--/7------------------7-----|-6-----10s14---12---|
|----------------------------|--------------------|
|----------------------------|--------------------|
|----------------------------|--------------------|
|
|   ~~~~~~~~~~~~~~~~~~~~~~~~~~~~~~~~~~~~~~~~~~~~
|   H.                 Q       Q.     E  Q    Q
|----------------------------|--------------------|
|----------------------------|--------------------|
|-/10-----------------10-----|-9-----14s17---15---|
|----------------------------|--------------------|
|----------------------------|--------------------|
|----------------------------|--------------------|
|
|               ~~~~
|   H          +Q     +Q       W
|----------------------------|--------------------|
|--13b15------(13)---(13)\---|--------------------|
|----------------------------|--------------------|
|----------------------------|--------------------|
|----------------------------|--------------------|
|----------------------------|--------------------|


  D5                      D
   Q                       E        E     E     E        E      E
   |                       |        |     |     |        |      |
   /                       o        /     /     /        /      /

   ~~~
   W
|--------------------------------------------------------------------|
|--------------------------------------------------------------------|
|-10-----------------------------------------------------------------|
|--------------------------------------------------------------------|
|--------------------------------------------------------------------|
|--------------------------------------------------------------------|
|
|  ~~~
|  W
|--------------------------------------------------------------------|
|--------------------------------------------------------------------|
|-14-----------------------------------------------------------------|
|--------------------------------------------------------------------|
|--------------------------------------------------------------------|
|--------------------------------------------------------------------|
|Do it fast. Don't stop.
|  T  T  S  S  S  a  a  a  T  T  S  S  S  S  S  S  T  T  S   S  S  S
|-13h17p13-------------13h15h17p13-------------15h18p17p15-/20S15----|
|----------17-13----15-------------17-13--------------------------17S|
|----------------14----------------------14s17-----------------------|
|--------------------------------------------------------------------|
|--------------------------------------------------------------------|
|--------------------------------------------------------------------|


                      F                     E             Eb
   S    S     E        S    S     S    S     S   S   S  S  S  S  S  S
   |    |     |        |    |     |    |     |   |   |  |  |  |  |  |
   /    /     /        o    /     /    /     o   /   /  /  o  /  /  /

   W
|----------------------------------------------------------------------|
|----------------------------------------------------------------------|
|----------------------------------------------------------------------|
|----------------------------------------------------------------------|
|----------------------------------------------------------------------|
|----------------------------------------------------------------------|
|
|  W
|----------------------------------------------------------------------|
|----------------------------------------------------------------------|
|----------------------------------------------------------------------|
|----------------------------------------------------------------------|
|----------------------------------------------------------------------|
|----------------------------------------------------------------------|
| All Four fingers now.
|  |---3---|  |--3--|  |---3---|  |---3---|
|  S  S    S  S  S  S  S  S    S  S  S    S  S  +S   S  S  S  S  S  S
|----18h==22p18----18h22p18------18h22p==18s15-(15)s18s15--------------|
|-20------------20------------20--------------------------18p15--------|
|---------------------------------------------------------------17s14--|
|----------------------------------------------------------------------|
|----------------------------------------------------------------------|
|----------------------------------------------------------------------|


  Bb5                 A5
    Q   Q.   E  E E   Q   E  Q   E  E E
    |   |    |  | |   |   |  |   |  | |
    /   /    /  / /   /   /  /   /  / /

    ~~~~~~~~~~~~~~~~~~~~~~~~~~~~~~~~~~
    H.          Q     Q.     Q.     Q
|-------------------|-------------------|
|-------------------|-------------------|
|--/7-----------7---|-6------7------9---|
|-------------------|-------------------|
|-------------------|-------------------|
|-------------------|-------------------|
|
|   ~~~~~~~~~~~~~~~~~~~~~~~~~~~~~~~~~~
|   H.          Q     Q.     Q.     Q
|-------------------|-------------------|
|-------------------|-------------------|
|-/10----------10---|-9-----10-----12---|
|-------------------|-------------------|
|-------------------|-------------------|
|-------------------|-------------------|
|
|   ~~~~
|   W                 W
|-------------------|-------------------|
|-------------------|-------------------|
|--14---------------|-------------------|
|-------------------|-------------------|
|-------------------|-------------------|
|-------------------|-------------------|


  D5          D
   Q           E    E   E     E      E     E
   |           |    |   |     |      |     |
   /           o    /   /     /      /     /

   ~~~              ~~~
   E    +E     E    Q        +E      E     E
|-----------------------------------------------|
|-----------------------------------------------|
|--7----(7)S==10---10-------(10)S===14----14----|
|-----------------------------------------------|
|-----------------------------------------------|
|-----------------------------------------------|
|
|  ~~~              ~~~
|  E    +E     E    Q        +E      E     E
|-----------------------------------------------|
|-----------------------------------------------|
|-10---(10)S==14---14-------(14)S===17----17----|
|-----------------------------------------------|
|-----------------------------------------------|
|-----------------------------------------------|
| toooo easy.
|  S S   S  S  S S  S S S S   S   S  S  S  S  S
|-----------------------------------------------|
|--8p5-------------10p8p6-----------11p10p=8----|
|--------7p=5-------------9p==7--------------10p|
|--------------8p5---------------10-------------|
|-----------------------------------------------|
|-----------------------------------------------|


               F          E            Eb
    S   S  E    S S   S S  S  S   S  S   S   S  S  S
    |   |  |    | |   | |  |  |   |  |   |   |  |  |
    /   /  /    o /   / /  o  /   /  /   o   /  /  /

           ~~~~~~~~~~~~~~~~~~~~~~~~~~
   +E      Q          Q           E     +E      E
|--------------------12----------13----(13)S===10----|
|---------15-----------------------------------------|
|-(14)-----------------------------------------------|
|----------------------------------------------------|
|----------------------------------------------------|
|----------------------------------------------------|
|
|          ~~~~~~~~~~~~~~~~~~~~~~~~~~
|  +E      Q          Q           E     +E      E
|--------------------15----------17----(17)S===13----|
|---------18-----------------------------------------|
|-(17)-----------------------------------------------|
|----------------------------------------------------|
|----------------------------------------------------|
|----------------------------------------------------|
|
|   S   S  S S  S S   S S  S  S   S  S   S   S  S  S
|----------8p6------/10p8-------/12p10---------------|
|--------------10p8-------11p10---------10-----10h11-|
|---9---------------------------------------10-------|
|------12--------------------------------------------|
|----------------------------------------------------|
|----------------------------------------------------|


  Bb5
  Gtrs I, II
    Q     Q.        E  E  E     E  +E   E   E +E  E E +E
    |     |         |  |  |     |   |   |   |  |  | |  |
    /     /         /  /  /     /   /   /   /  /  / /  /

  Gtr III
    ~~~~~~                ~~~~~~~~~~~~~~~~~~~~~~~~~~
   +H          +E   E  E  E    +Q      +E   Q     Q    E
|-(10)--------(10)h12h13p12-|-(12)----(12)-13----12------|
|---------------------------|-------------------------15S|
|---------------------------|----------------------------|
|---------------------------|----------------------------|
|---------------------------|----------------------------|
|---------------------------|----------------------------|
|
| Gtr IV
|   ~~~~~~                ~~~~~~~~~~~~~~~~~~~~~~~~~~
|  +H          +E   E  E  E    +Q      +E   Q     Q    E
|-(13)--------(13)h15h17p15-|-(15)----(15)-17----15------|
|---------------------------|-------------------------18S|
|---------------------------|----------------------------|
|---------------------------|----------------------------|
|---------------------------|----------------------------|
|---------------------------|----------------------------|
|
|               ~~~~~
|   H          +H               W
|---------------------------|----------------------------|
|--13b15------(13)----------|----------------------------|
|---------------------------|----------------------------|
|---------------------------|----------------------------|
|---------------------------|----------------------------|
|---------------------------|----------------------------|


  A5
   Q   Q.      E  E E     E  +E  E     E  +E  E E  +E
   |   |       |  | |     |   |  |     |   |  | |   |
   /   /       /  / /     /   /  /     /   /  / /   /

   ~~~~~~~~~~     ~~~~~~~~~~~              ~~~~~~~~~~~~
   Q.      Q   E  Q      +Q      Q        +Q.      +E
|---------------------|--------------------------------|
|-14------15--17S14---|-(14)----14b15====(14)-----(14)-|
|---------------------|--------------------------------|
|---------------------|--------------------------------|
|---------------------|--------------------------------|
|---------------------|--------------------------------|
|
|  ~~~~~~~~~~     ~~~~~~~~~~~              ~~~~~~~~~~~~
|  Q.      Q   E  Q      +Q      Q        +Q.      +E
|---------------------|--------------------------------|
|-17------18--20S17---|-(17)----17b18====(17)-----(17)-|
|---------------------|--------------------------------|
|---------------------|--------------------------------|
|---------------------|--------------------------------|
|---------------------|--------------------------------|
|
|  W                      H.               q
|---------------------|------------------/17-----------|
|---------------------|--------------------------------|
|---------------------|--------------------------------|
|---------------------|--------------------------------|
|---------------------|--------------------------------|
|---------------------|--------------------------------|


  Bb5
  Gtrs I, II
    Q     Q.              E  E  E     E  +E  E  E  +E   E   E   +E
    |     |               |  |  |     |   |  |  |   |   |   |    |
    /     /               /  /  /     /   /  /  /   /   /   /    /

  Gtr III
   +H            +H                  +H            +Q      +Q
|---------------------------------|--------------------------------|
|-(14)----------(14)b17===========|=(14)----------(14)r===(14)\----|
|---------------------------------|--------------------------------|
|---------------------------------|--------------------------------|
|---------------------------------|--------------------------------|
|---------------------------------|--------------------------------|
|
| Gtr IV
|  +H            +H                  +H            +Q      +Q
|---------------------------------|--------------------------------|
|-(17)----------(17)b20===========|=(17)----------(17)r===(17)\----|
|---------------------------------|--------------------------------|
|---------------------------------|--------------------------------|
|---------------------------------|--------------------------------|
|---------------------------------|--------------------------------|
|
|   E  E  E   E   E       E  E  E     E   E  E  E   E   E   E    E
|-/18p17p15-----------------------|--------------------------------|
|------------15-------------------|--------------------------------|
|----------------15p=====14-------|--------------------------------|
|---------------------------17----|--------------------14h=15h==17-|
|------------------------------17-|--13------------15--------------|
|---------------------------------|------17p14h17------------------|


  A5                                                 A5          G5          F5          C/E
   Q           Q.                 E     E     E       Q           Q           Q           Q
   |           |                  |     |     |       |           |           |           |
   /           /                  /     /     /       /           /           /           /

   W                                                  W
|--------------------------------------------------|--------------------------------------------||
|--------------------------------------------------|--------------------------------------------||
|--------------------------------------------------|--------------------------------------------||
|--------------------------------------------------|--------------------------------------------||
|--------------------------------------------------|--------------------------------------------||
|--------------------------------------------------|--------------------------------------------||
|
|  W                                                  W
|--------------------------------------------------|--------------------------------------------||
|--------------------------------------------------|--------------------------------------------||
|--------------------------------------------------|--------------------------------------------||
|--------------------------------------------------|--------------------------------------------||
|--------------------------------------------------|--------------------------------------------||
|--------------------------------------------------|--------------------------------------------||
|
|  S  S  S  S  S   S  S  S  S  S  S  S  S  S  S  S    
|--------------------------------------------------|
|--------------------------------------------15h17p|
|-14h15h17-15-14-----------------------14h17-------|
|-----------------17p15p14----14h15h17-------------|
|--------------------------17----------------------|
|--------------------------------------------------|

  S  S  S  S  S  S  S  S  S  S  S  S  S  S  S  S
----------------------------------15----15h17h18----||
=15----------------------15h17h18----18-------------||
----14----------------14----------------------------||
-------15p14----14h15-------------------------------||
-------------17-------------------------------------||
----------------------------------------------------||

 Bridge
 3/4
  Gtrs I, II
   Q.          Q       E   H.             Q.       Q    E   H.
|------------------------|--------------|-----------------|-----------------|
|------------------------|--------------|-----------------|-----------------|
|------------------------|--------------|-----------------|-----------------|
|--0-----------0-------0-|-0------------|-2--------2----2-|-2---------------|
|--0-----------0-------0-|-0------------|-3--------3----3-|-3---------------|
|--0-----------0-------0-|-0------------|-2--------2----2-|-2---------------|
|
| Gtr V
|           ~~~~
|  Q       +Q     +Q       W              W                 W
|-20b22---(20)---(20)\---|--------------|-----------------|-----------------|
|------------------------|--------------|-----------------|-----------------|
|------------------------|--------------|-----------------|-----------------|
|------------------------|--------------|-----------------|-----------------|
|------------------------|--------------|-----------------|-----------------|
|------------------------|--------------|-----------------|-----------------|
|
| Gtr VI
|  E    E   E  E   E   E   E  E E E E E   E   E E  E E  E   E   E E  E E  E
|------------------------|--------------|-----------------|-----------------|
|------------------------|--------------|-----------------|-----------------|
|-----------7------------|-7--------7---|-------9---------|-9----------9----|
|-------7------7-------7-|----7---7---7-|----10---10---10-|----10---10---10-|
|--5---------------5-----|------5-------|-7----------7----|-------7---------|
|------------------------|--------------|-----------------|-----------------|


  Q.        Q     E    H.                  Q.     Q   E     H.
|-------------------|--------------------|--------------|------------------:
|-------------------|--------------------|-3------3---3-|---3--------------:
|-------------------|--------------------|-3------3---3-|---3--------------:
|-3---------3-----3-|--3-----------------|-0------0---0-|---0--------------:
|-3---------3-----3-|--3-----------------|-1------1---1-|---1--------------:
|-3---------3-----3-|--3-----------------|--------------|------------------:
|
| W                    W                   W                Q     Q    Q
|-------------------|--------------------|--------------|-/18----17--------:
|-------------------|--------------------|--------------|------------------:
|-------------------|--------------------|--------------|-------------17---:
|-------------------|--------------------|--------------|------------------:
|-------------------|--------------------|--------------|------------------:
|-------------------|--------------------|--------------|------------------:
|
| Gtr VI
| E   E  E  E  E  E    E   E  E  E  E  E   E  E E E E E     E  E  E E  E E
|-------------------|--------------------|--------------|------------------:
|-------10----10----|--------10----10----|------3---3---|---------3--------:
|----------10----10-|-----10----10----10-|--------3---3-|------3----3------:
|----10-------------|-10-----------------|----3---------|---3----------3---:
|-8-----------------|--------------------|-1------------|----------------1-:
|-------------------|--------------------|--------------|------------------:


     Q.          Q       E   H.             Q.     Q   E   H.
||-------------------------|--------------|--------------|---------------|
||o------------------------|--------------|--------------|---------------|
||---3-----------3-------3-|-3------------|-5------5---5-|-5-------------|
||---3-----------3-------3-|-3------------|-5------5---5-|-5-------------|
||o--1-----------1-------1-|-1------------|-3------3---3-|-3-------------|
||-------------------------|--------------|--------------|---------------|
|
|             ~~~~
|    Q       +Q     +Q       W              W              W
||-------------------------|--------------|--------------|---------------|
||o------------------------|--------------|--------------|---------------|
||--17b19---(17)---(17)\---|--------------|--------------|---------------|
||-------------------------|--------------|--------------|---------------|
||o------------------------|--------------|--------------|---------------|
||-------------------------|--------------|--------------|---------------|
|
|    E    E   E  E   E   E   E  E E E E E   E  E E E E E   E  E E E E E
||-------------------------|--------------|--------------|---------------|
||o------------------------|--------------|--------------|---------------|
||------------3------------|-3--------3---|------5-------|-5----5---5----|
||--------3------3-------3-|----3---3---3-|----5---5---5-|----5---5---5--|
||o--1---------------1-----|------1-------|-3--------3---|---------------|
||-------------------------|--------------|--------------|---------------|


  1.,2.
  Q.        Q     E    H.                  Q.     Q   E     H.              3x
|-------------------|--------------------|--------------|-------------------||
|-------------------|--------------------|-3------3---3-|---3--------------o||
|-------------------|--------------------|-3------3---3-|---3---------------||
|-3---------3-----3-|--3-----------------|-0------0---0-|---0---------------||
|-3---------3-----3-|--3-----------------|-1------1---1-|---1--------------o||
|-3---------3-----3-|--3-----------------|--------------|-------------------||
|
| W                    W                   W                Q     Q    Q    3x
|-------------------|--------------------|--------------|-/18----17---------||
|-------------------|--------------------|--------------|------------------o||
|-------------------|--------------------|--------------|-------------17----||
|-------------------|--------------------|--------------|-------------------||
|-------------------|--------------------|--------------|------------------o||
|-------------------|--------------------|--------------|-------------------||
|
| E   E  E  E  E  E    E   E  E  E  E  E   E  E E E E E     E  E  E E  E E  3x
|-------------------|--------------------|--------------|-------------------||
|-------10----10----|--------10----10----|------3---3---|---------3--------o||
|----------10----10-|-----10----10----10-|--------3---3-|------3----3-------||
|----10-------------|-10-----------------|----3---------|---3----------3----||
|-8-----------------|--------------------|-1------------|----------------1-o||
|-------------------|--------------------|--------------|-------------------||


  2.
  Q.        Q     E   Q.       Q     E
|-------------------|------------------|
|-------------------|------------------|
|-------------------|------------------|
|-3---------3-----3-|-2--------2-----2-|
|-3---------3-----3-|-3--------3-----3-|
|-3---------3-----3-|-2--------2-----2-|
|
| Gtr VI
| E   E  E  E  E  E   E   E  E E  E  E
|-------------------|------------------|
|----------10-13-10-|------------------|
|-------10----------|-9----------------|
|----10-------------|----10---------10-|
|-8-----------------|-------10-7-10----|
|-------------------|------------------|


   Q.        Q     E    Q.       Q     E
|--------------------|-------------------||
|--------------------|--5--------5-----5-||
|--------------------|--5--------5-----5-||
|--0---------0-----0-|--5--------5-----5-||
|--0---------0-----0-|--3--------3-----3-||
|--0---------0-----0-|-------------------||
|
|  E   E  E  E  E  E    E  E  E  E  E  E
|-----------------10h|=13p12p10----------||
|--------------11----|----------13-11-10-||
|-----------10-------|-------------------||
|-12-----12----------|-------------------||
|-----12-------------|-------------------||
|--------------------|-------------------||


 Pre-Chorus
 4/4
  PM|    PM|      PM|    PM|      PM----------------------|
  E E Q  E E Q    E E Q  E E Q    E E E E E E E E   E E E E Q  Q
|---------------|---------------|-----------------|---------------||
|---------------|---------------|-----------------|---------------||
|-----3------3--|-----3------3--|-----------------|---------2-----||
|-----3------3--|-----3------3--|-----------------|-2-2-2-2-2-----||
|-1-1-1--1-1-1--|-1-1-1--1-1-1--|-0-0-0-0-0-0-0-0-|-0-0-0-0-0-----||
|---------------|---------------|-----------------|---------------||


   Chorus
                          PM                       PM
      Q   Q.       E  E   E     Q   Q.       E  E  E
||--------------------------|------------------------|
||o-------------------------|------------------------|
||--------------------------|------------------------|
||----0---0--------0--0-----|---8---8--------8--8----|
||o---0---0--------0--0-----|---8---8--------8--8----|
||----0---0--------0--0---0-|---8---8--------8--8--8-|
|
|   Gtr III
|     ~~~~~~~             ~~~~~~~~~
|     Q   Q     E  E  E   E    +Q.      Q    E  E  E
||--------------------------|------------------------|
||o---------------------/11-|-(11)-----11--/10p=8----|
||---/7---7----/7h=9h10-----|---------------------10-|
||--------------------------|------------------------|
||o-------------------------|------------------------|
||--------------------------|------------------------|
|
|   Gtr IV
|     ~~~~~~~             ~~~~~~~~~
|     Q   Q     E  E  E   E    +Q.      Q    E  E  E
||--------------------------|------------------------|
||o---------------------/15-|-(15)-----15--/13p11----|
||--/10--10---/10h12h14-----|---------------------14-|
||--------------------------|------------------------|
||o-------------------------|------------------------|
||--------------------------|------------------------|


                        PM
    Q    Q.       E  E  E    Q     E  Q     E  Q
|-------------------------|--------------------------|
|-------------------------|--------------------------|
|-------------------------|--------------------------|
|---3----3--------3--3----|--2-----2--2-----2--2-----|
|---3----3--------3--3----|--3-----3--3-----3--3-----|
|---3----3--------3--3--3-|--2-----2--2-----2--2-----|
|
|   ~~~~        ~~
|  +Q    E   E  Q    E  E    E  E  E  E  E  E  E  E
|-------------------------|--------------------------|
|--------8----------------|-13----------13----13-----|
|-(10)------10p=9---10h12-|----12p10h12----12----12--|
|-------------------------|--------------------------|
|-------------------------|--------------------------|
|-------------------------|--------------------------|
|
|   ~~~~        ~~
|  +Q    E   E  Q    E  E    E  E  E  E  E  E  E  E
|-------------------------|--------------------------|
|-------11----------------|-17----------17----17-----|
|-(14)------14p12---14h15-|----15p14h15----15----15--|
|-------------------------|--------------------------|
|-------------------------|--------------------------|
|-------------------------|--------------------------|


                        PM                       PM
    Q   Q.       E  E   E     Q   Q.       E  E  E
|-------------------------|------------------------|
|-------------------------|------------------------|
|-------------------------|------------------------|
|---0---0--------0--0-----|---8---8--------8--8----|
|---0---0--------0--0-----|---8---8--------8--8----|
|---0---0--------0--0---0-|---8---8--------8--8--8-|
|
|   ~~~~~~~             ~~~~~~~~~
|   Q   Q     E  E  E   E    +Q.      Q    E  E  E
|-------------------------|------------------------|
|---------------------/11-|-(11)-----11--/10p=8----|
|--/7---7----/7h=9h10-----|---------------------10-|
|-------------------------|------------------------|
|-------------------------|------------------------|
|-------------------------|------------------------|
|
|   ~~~~~~~             ~~~~~~~~~
|   Q   Q     E  E  E   E    +Q.      Q    E  E  E
|-------------------------|------------------------|
|---------------------/15-|-(15)-----15--/13p11----|
|-/10--10---/10h12h14-----|---------------------14-|
|-------------------------|------------------------|
|-------------------------|------------------------|
|-------------------------|------------------------|


  1.
                        PM
    Q    Q.       E  E  E    E  E  E  E  E  E  E  E
|-------------------------|--------------------------||
|-------------------------|-------------------------o||
|-----------------5--5----|--6--6--6--6--6--6--6--6--||
|---3----3--------3--3----|--7--7--7--7--7--7--7--7--||
|---3----3--------3--3----|--4--4--4--4--4--4--4--4-o||
|---3----3--------3--3--3-|--------------------------||
|
|   ~~~~        ~~
|  +Q    E   E  Q    E  E    E  E  E  E  E  E  E  E
|-------------------------|-----9h10p=9h12p=9--------||
|--------8----------------|-10----------------10----o||
|-(10)------10p=9---10h12-|-----------------------9--||
|-------------------------|--------------------------||
|-------------------------|-------------------------o||
|-------------------------|--------------------------||
|
|   ~~~~        ~~
|  +Q    E   E  Q    E  E    E  E  E  E  E  E  E  E
|-------------------------|----12h13p12h15p12--------||
|-------11----------------|-13----------------13----o||
|-(14)------14p12---14h15-|----------------------12--||
|-------------------------|--------------------------||
|-------------------------|-------------------------o||
|-------------------------|--------------------------||


  2.
 6/4
   Q     Q     Q     Q     Q     Q       Q     Q     Q     Q     Q     Q
|-------------------------------------|-------------------------------------||
|-------------------------------------|-------------------------------------||
|-------------------------------------|-------------------------------------||
|--7-----7-----7-----5-----5-----5----|--3-----3-----3-----2-----2-----2----||
|--7-----7-----7-----5-----5-----5----|--3-----3-----3-----3-----3-----3----||
|--7-----7-----7-----5-----5-----5----|--3-----3-----3-----2-----2-----2----||
|
|  E  E  E  E  E  E  E  E  E  E  E  E    E  E  E  E  E  E  E  E  E  E  E  E
|-17p13-------------18p15-------------|-17p13----------13h15p12----------12-||
|-------15----------------15----------|-------15----15----------13----13----||
|----------14----------------15-------|----------14----------------12-------||
|-------------15----------------17----|-------------------------------------||
|----------------17----------------17-|-------------------------------------||
|-------------------------------------|-------------------------------------||
|
|  E  E  E  E  E  E  E  E  E  E  E  E    E  E  E  E  E  E  E  E  E  E  E  E
|-13p10-------------15p12-------------|-13p10----------10h12p=8-----------8-||
|-------11----------------13----------|-------11----11----------10----10----||
|----------10----------------12-------|----------10-----------------9-------||
|-------------12----------------14-15-|-------------------------------------||
|----------------13-------------------|-------------------------------------||
|-------------------------------------|-------------------------------------||


   Outro
   4/4
     PM-------|     PM-------|            PM----|
     S    S S S q   S    S S S Q     +q   S S S S  q     E E
||--------------------------------|--------------------------|
||o-------------------------------|--------------------------|
||--------------------------------|--------------------------|
||--------------------------------|----------------------3-6-|
||o-------------------------------|----------------------3-6-|
||---0----0-0-0-0---0----0-0-0-0--|--(0)--0-0-0-0--0-----3-6-|
|
|   Gtr III
|                                     ~~~~
|    H              H                +H            H
||--10-------------10-------------|-(10)----------10---------|
||o-13b15----------13b15----------|-(13)----------13b15------|
||--------------------------------|--------------------------|
||--------------------------------|--------------------------|
||o-------------------------------|--------------------------|
||--------------------------------|--------------------------|
|
|   Gtr IV
|                                     ~~~~
|    H              H                +H            H
||--13-------------13-------------|-(13)----------13---------|
||o-16b18----------16b18----------|-(16)----------16b18------|
||--------------------------------|--------------------------|
||--------------------------------|--------------------------|
||o-------------------------------|--------------------------|
||--------------------------------|--------------------------|


   PM-------|     PM-------|            PM----|
   S    S S S q   S    S S S Q     +q   S S S S  q     E E
|-------------------------------|----------------------------||
|-------------------------------|---------------------------o||
|-------------------------------|----------------------------||
|-------------------------------|----------------------3-6---||
|-------------------------------|----------------------3-6--o||
|--0----0-0-0-0---0----0-0-0-0--|--(0)--0-0-0-0--0-----3-6---||
|
|                                   ~~~~
|  H              H                +H            h
|-13-------------13-------------|-(13)----------13-----------||
|-16b18----------16b18----------|-(16)----------16b18-------o||
|-------------------------------|----------------------------||
|-------------------------------|----------------------------||
|-------------------------------|---------------------------o||
|-------------------------------|----------------------------||
|
|                                   ~~~~
|  H              H                +H            h
|-10-------------10-------------|-(10)----------10-----------||
|-13b15----------13b15----------|-(13)----------13b15-------o||
|-------------------------------|----------------------------||
|-------------------------------|----------------------------||
|-------------------------------|---------------------------o||
|-------------------------------|----------------------------||



Duration Legend
---------------
W - whole; H - half; Q - quarter; E - 8th; S - 16th; T - 32nd; X - 64th; a - acciaccatura
+ - note tied to previous; . - note dotted; .. - note double dotted
Uncapitalized letters represent notes that are staccato (1/2 duration)
Irregular groupings are notated above the duration line
Duration letters will always appear directly above the note/fret number it represents the
duration for.  Duration letters with no fret number below them represent rests.  Multi-
bar rests are notated in the form Wxn, where n is the number of bars to rest for.  Low
melody durations appear below the staff

Tablature Legend
----------------
 h   - hammer-on
 p   - pull-off
 b   - bend
 pb  - pre-bend
 r   - bend release (if no number after the r, then release immediately)
 /\  - slide into or out of (from/to "nowhere")
 s   - legato slide
 S   - shift slide
 - natural harmonic
[n]  - artificial harmonic
n(n) - tapped harmonic
 ~   - vibrato
 tr  - trill
 T   - tap
 TP  - trem. picking
 PM  - palm muting
\n/  - tremolo bar dip; n = amount to dip
 \n  - tremolo bar down
 n/  - tremolo bar up
/n\  - tremolo bar inverted dip
 =   - hold bend; also acts as connecting device for hammers/pulls
 <> - volume swell (louder/softer)
 x   - on rhythm slash represents muted slash
 o   - on rhythm slash represents single note slash

Misc Legend
-----------
 |  - bar
||  - double bar
||o - repeat start
o|| - repeat end
*|  - double bar (ending)
 :  - bar (freetime)
 $  - Segno
 &  - Coda
Tempo markers -  = BPM(8/16=s8/s16), where s8 = swing 8ths, s16 = swing 16ths

============================================================================
Danger Line
Tabbed By: Jon_09

I've completed my Danger Line tab. It was a lot harder than Nightmare, but it's done.
I tried to get every note down precisely and I am very satisfied with it.
I don't think it could be more  but thats for you to decide. Hope you all enjoy it.


Legend:  /    = slide from lower frets
         \    = slide from higher frets
         ~    = virbato
         .    = palm mute
         b    = bend string
         r    = release bend
        ===   = tremelo pick
      |--3--| = all notes within this symbol are triplets
                (I only noted the ones the would've been hard to understand with out it)
                (The ones with S3 = 16th note triplets)
                (The ones with T3 = 32th note triplets)
        X2    = play multiple times
______________________________________________________________

All guitars are tuned down to Drop D (D,A,D,G,B,E)

Guitar 1 (Lead Guitar/Left ear parts of harmonies)
Guitar 2 (Rythym Guitar/Right ear parts of harmonies)
Guitar 3 (Overdubbed Rythym)
Guitar 4 (Overdubbed left ear parts of harmonies)
Guitar 5 (Overdubbed right ear parts of harmonies)
_________________________________________________________

INTRO (PART I)

Guitar 3
E|-------------------------------------------------|
B|-------------------------------------------------|
G|-------------------------------------------------|
D|-------------------------------------------------|
A|-------------------------------------------------|
D|-0-----0-0-0-0-----0-0-0-0-----0-0-0-0-----0-----|
   .     . . . .     . . . .     . . . .     .


E|-----------------------------------------------|
B|-----------------------------------------------|
G|-----------------------------------------------|
D|-----------------------------------------------|
A|-----------------------------------------------|
D|-0-----0-0-0-0-----0-0-0-0-----0-----0-----0000|
   .     . . . .     . . . .     .     .     ....


E|-------------------------------------------------|
B|-------------------------------------------------|
G|-------------------------------------------------|
D|-------------------------------------------------|
A|-------------------------------------------------|
D|-0-----0-0-0-0-----0-0-0-0-----0-----0-----0-0-0-|
   .     . . . .     . . . .     .     .     . . .


E|-----------------------------------------------|
B|-----------------------------------------------|
G|-----------------------------------------------|
D|-----------------------------------------------|
A|-----------------------------------------------|
D|-0-----0-0-0-0-----0-0-0-0-----0-----0-----0000|
   .     . . . .     . . . .     .     .     ....


Guitar 1
E|--------13-13-13-13-----12-12-12-12-----10-----12-----13-----|
B|-------------------------------------------------------------|
G|-------------------------------------------------------------|
D|-------------------------------------------------------------|
A|-------------------------------------------------------------|
D|-------------------------------------------------------------|


Guitar 2
E|-------------------------------------------------------|
B|--------10-10-10-10-----8-8-8-8-----6-----8-----10-----|
G|-------------------------------------------------------|
D|-------------------------------------------------------|
A|-------------------------------------------------------|
D|-------------------------------------------------------|


Guitar 3
E|-------------------------------------------------|
B|-------------------------------------------------|
G|-------------------------------------------------|
D|-------------------------------------------------|
A|-------------------------------------------------|
D|-0-----0-0-0-0-----0-0-0-0-----0-----0-----0-----|
   .     . . . .     . . . .     .     .     .


Guitar 1
E|-13-----13-13-13-13-----12-12-12-12-----10-----12-----13-----|
B|-------------------------------------------------------------|
G|-------------------------------------------------------------|
D|-------------------------------------------------------------|
A|-------------------------------------------------------------|
D|-------------------------------------------------------------|


Guitar 2
E|-------------------------------------------------------|
B|-10-----10-10-10-10-----8-8-8-8-----6-----8-----10-----|
G|-------------------------------------------------------|
D|-------------------------------------------------------|
A|-------------------------------------------------------|
D|-------------------------------------------------------|


Guitar 3
E|-----------------------------------------------|
B|-----------------------------------------------|
G|-----------------------------------------------|
D|-----------------------------------------------|
A|-----------------------------------------------|
D|-0-----0-0-0-0-----0-0-0-0-----0-----0-----0000|
   .     . . . .     . . . .     .     .     ....


Guitar 1
E|-15-----18-18-18-18-----17-17-17-17-----15-----17-----18-----|
B|-------------------------------------------------------------|
G|-------------------------------------------------------------|
D|-------------------------------------------------------------|
A|-------------------------------------------------------------|
D|-------------------------------------------------------------|


Guitar 2
E|-6-----10-10-10-10-----8-8-8-8-----6-----8-----10-----|
B|------------------------------------------------------|
G|------------------------------------------------------|
D|------------------------------------------------------|
A|------------------------------------------------------|
D|------------------------------------------------------|


Guitar 3
E|-------------------------------------------------|
B|-------------------------------------------------|
G|-------------------------------------------------|
D|-------------------------------------------------|
A|-------------------------------------------------|
D|-0-----0-0-0-0-----0-0-0-0-----0-----0-----0-0-0-|
   .     . . . .     . . . .     .     .     . . .


Guitar 1
E|-18-----18-18-18-18-----15-----20-----18-----17-15-13----------|
B|------------------------------------------------------17-15-13-|
G|---------------------------------------------------------------|
D|---------------------------------------------------------------|
A|---------------------------------------------------------------|
D|---------------------------------------------------------------|


Guitar 2
E|-10-----10-10-10-10-----6-----17-----15-----13-12-10----------|
B|-----------------------------------------------------13-11-10-|
G|--------------------------------------------------------------|
D|--------------------------------------------------------------|
A|--------------------------------------------------------------|
D|--------------------------------------------------------------|


Guitar 3
E|-----------------------------------------------|
B|-----------------------------------------------|
G|-----------------------------------------------|
D|-----------------------------------------------|
A|-----------------------------------------------|
D|-0-----0-0-0-0-----0-0-0-0---------------------|
   .     . . . .     . . . .


INTRO (PART II)

Guitar 1
E|---------------------------------------------------------14--15~----|
B|-/15~-----10/18--17--15-------------------10/17------17-------------|
G|-------------------------14h15p14-13~------------14-----------------|
D|--------------------------------------------------------------------|
A|--------------------------------------------------------------------|
D|--------------------------------------------------------------------|


Guitar 2
E|-------------------------------------------------------------|
B|-------------------------------------------------------------|
G|-/10~--------------------------------------------------------|
D|-------------------------------------------------------------|
A|-------------------------------------------------------------|
D|-------------------------------------------------------------|


Guitar 3
E|-----------------------------------------------------------------|
B|-----------------------------------------------------------------|
G|-----------------------------------------------------------------|
D|-0---0---0---0---0---0---0---0---6---6---6---6---6---6---6---6---|
A|-0---0---0---0---0---0---0---0---7---7---7---7---7---7---7---7---|
D|-0---0---0---0---0---0---0---0---6---6---6---6---6---6---6---6---|



Guitar 1
E|---------------------------------------------------------|
B|-10/23--22--20--15--15b~-----------------16-18b20~-------|
G|--------------------------------14-15-17-----------------|
D|--------------------------15-16--------------------------|
A|---------------------------------------------------------|
D|---------------------------------------------------------|


Guitar 2
E|-------------------------------------------------------------|
B|-------------------------------------------------------------|
G|-------------------------------------------------------------|
D|-------------------------------------------------------------|
A|-------------------------------------------------------------|
D|-------------------------------------------------------------|


Guitar 3
E|-----------------------------------------------------------------|
B|-----------------------------------------------------------------|
G|-----------------------------------------------------------------|
D|-5---5---5---5---5---5---5---5---1---1---1---1---1---1---1---1---|
A|-5---5---5---5---5---5---5---5---1---1---1---1---1---1---1---1---|
D|-5---5---5---5---5---5---5---5---1---1---1---1---1---1---1---1---|



Guitar 1
E|-10-----13-13-13-13-----12-12-12-12-----10-----12-----13------|
B|--------------------------------------------------------------|
G|--------------------------------------------------------------|
D|--------------------------------------------------------------|
A|--------------------------------------------------------------|
D|--------------------------------------------------------------|


Guitar 2
E|-13-----17-17-17-17-----15-15-15-15-----13-----15-----17-----|
B|-------------------------------------------------------------|
G|-------------------------------------------------------------|
D|-------------------------------------------------------------|
A|-------------------------------------------------------------|
D|-------------------------------------------------------------|


Guitar 3
E|---------------------------------|
B|---------------------------------|
G|---------------------------------|
D|-0---0---0---0---0---0---0---0---|
A|-0---0---0---0---0---0---0---0---|
D|-0---0---0---0---0---0---0---0---|


Guitar 4
E|-13p10----13p10----13p10----13p10----17p13----17p13----17p13----17p13----|
B|-------10-------10-------10-------10-------15-------15-------15-------15-|
G|-------------------------------------------------------------------------|
D|-------------------------------------------------------------------------|
A|-------------------------------------------------------------------------|
D|-------------------------------------------------------------------------|


Guitar 5
E|-17p13----17p13----17p13----17p13----22p17----22p17----22p17----22p17----|
B|-------15-------15-------15-------15-------18-------18-------18-------18-|
G|-------------------------------------------------------------------------|
D|-------------------------------------------------------------------------|
A|-------------------------------------------------------------------------|
D|-------------------------------------------------------------------------|



Guitar 1
E|-12-----16-16-16-16-----12-12-12-12------------12-----16-----|
B|----------------------------------------12-------------------|
G|-------------------------------------------------------------|
D|-------------------------------------------------------------|
A|-------------------------------------------------------------|
D|-------------------------------------------------------------|


Guitar 2
E|-16-----19-19-19-19-----16-16-16-16------------16-----19-----|
B|----------------------------------------17-------------------|
G|-------------------------------------------------------------|
D|-------------------------------------------------------------|
A|-------------------------------------------------------------|
D|-------------------------------------------------------------|


Guitar 3
E|---------------------------------|
B|---------------------------------|
G|---------------------------------|
D|-6---6---6---6---6---6---6---6---|
A|-7---7---7---7---7---7---7---7---|
D|-6---6---6---6---6---6---6---6---|


Guitar 4
E|-16p12----16p12----16p12----16p12----19p16----19p16----19p16----19p16----|
B|-------12-------12-------12-------12-------17-------17-------17-------17-|
G|-------------------------------------------------------------------------|
D|-------------------------------------------------------------------------|
A|-------------------------------------------------------------------------|
D|-------------------------------------------------------------------------|


Guitar 5
E|-19p16----19p16----19p16----19p16----24p19----24p19----24p19----24p19----|
B|-------17-------17-------17-------17-------21-------21-------21-------21-|
G|-------------------------------------------------------------------------|
D|-------------------------------------------------------------------------|
A|-------------------------------------------------------------------------|
D|-------------------------------------------------------------------------|



Guitar 1
E|-15-----18-18-18-18-----17-17-17-17-----15-----17-----18-----|
B|-------------------------------------------------------------|
G|-------------------------------------------------------------|
D|-------------------------------------------------------------|
A|-------------------------------------------------------------|
D|-------------------------------------------------------------|


Guitar 2
E|-18-----22-22-22-22-----20-20-20-20-----18-----20-----22-----|
B|-------------------------------------------------------------|
G|-------------------------------------------------------------|
D|-------------------------------------------------------------|
A|-------------------------------------------------------------|
D|-------------------------------------------------------------|


Guitar 3
E|---------------------------------|
B|---------------------------------|
G|---------------------------------|
D|-5---5---5---5---5---5---5---5---|
A|-5---5---5---5---5---5---5---5---|
D|-5---5---5---5---5---5---5---5---|


Guitar 4
E|-18p15----18p15----18p15----18p15----22p18----22p18----22p18----22p18----|
B|-------15-------15-------15-------15-------20-------20-------20-------20-|
G|-------------------------------------------------------------------------|
D|-------------------------------------------------------------------------|
A|-------------------------------------------------------------------------|
D|-------------------------------------------------------------------------|


Guitar 5
E|-22p18----22p18----22p18----22p18----15p11----15p11----15p11----15p11----|
B|-------20-------20-------20-------20-------11-------11-------11-------11-|
G|-------------------------------------------------------------------------|
D|-------------------------------------------------------------------------|
A|-------------------------------------------------------------------------|
D|-------------------------------------------------------------------------|



Guitar 1
E|-15-----15-----17-----18-----12-----12-----13-----15-----|
B|---------------------------------------------------------|
G|---------------------------------------------------------|
D|---------------------------------------------------------|
A|---------------------------------------------------------|
D|---------------------------------------------------------|


Guitar 2
E|-18-----18-----20-----22-----15-----15-----17-----18-----|
B|---------------------------------------------------------|
G|---------------------------------------------------------|
D|---------------------------------------------------------|
A|---------------------------------------------------------|
D|---------------------------------------------------------|


Guitar 3
E|---------------------------------|
B|---------------------------------|
G|---------------------------------|
D|-1---1---1---1---1---1---1---1---|
A|-1---1---1---1---1---1---1---1---|
D|-1---1---1---1---1---1---1---1---|


Guitar 4
E|-15p11----15p11----15p11----15p11----18p15----18p15----18p15----18p15----|
B|-------11-------11-------11-------11-------16-------16-------16-------16-|
G|-------------------------------------------------------------------------|
D|-------------------------------------------------------------------------|
A|-------------------------------------------------------------------------|
D|-------------------------------------------------------------------------|


Guitar 5
E|-18p15----18p15----18p15----18p15----23p18----23p18----23p18----23p18----|
B|-------16-------16-------16-------16-------20-------20-------20-------20-|
G|-------------------------------------------------------------------------|
D|-------------------------------------------------------------------------|
A|-------------------------------------------------------------------------|
D|-------------------------------------------------------------------------|



VERSE I

Guitar 1
E|-------------------------------------|
B|-------------------------------------|
G|-------------------------------------|
D|-------------------------------------|
A|-/5---5-/3---3-----------------------|
D|---------------6---6-5---5-3---5-----|


Guitars 1 & 2
E|-----------------------------------------------------------------------------|
B|-----------------------------------------------------------------------------|
G|-----------------------------------------------------------------------------|
D|-----------------------------------------------------------------------------|
A|-----------------------------------------------------------------------------|
D|-0-----0----0-0-0---0-----0----0-0-0---0-----0----0-0-0---0-----0----0-0-0---|
   .     .    . . .   .     .    . . .   .     .    . . .   .     .    . . .


E|-----------------------------------------------------------------------------|
B|-----------------------------------------------------------------------------|
G|-----------------------------------------------------------------------------|
D|-----------------------------------------------------------------------------|
A|-----------------------------------------------------------------------------|
D|-5-----5----5-5-5---5-----5----5-5-5---5-----5----5-5-5---5-----5----5-5-5---|
   .     .    . . .   .     .    . . .   .     .    . . .   .     .    . . .


E|-------------------------------------------------------------|
B|-------------------------------------------------------------|
G|-------------------------------------------------------------|
D|-------------------------------------------------------------|
A|-------------------------------------------------------------|
D|-0---0---3---0-----0-0-0-0-0-0-0---0---3---0-----0-0-0-0-0-0-|
   .   .   .   .     . . . . . . .   .   .   .     . . . . . .


E|---------------------------------------------------------------|
B|---------------------------------------------------------------|
G|---------------------------------------------------------------|
D|---------------------------------------------------------------|
A|---------------------------------------------------------------|
D|-0---0---3---0-----0-0-0-0-0-0-0---0---3---0---0---0---3---0---|
   .   .   .   .     . . . . . . .   .   .   .   .   .   .   .


E|-------------------------------------------------------------|
B|-------------------------------------------------------------|
G|-------------------------------------------------------------|
D|-------------------------------------------------------------|
A|-------------------------------------------------------------|
D|-5---5---8---5-----5-5-5-5-5-5-5---5---8---5-----5-5-5-5-5-5-|
   .   .   .   .     . . . . . . .   .   .   .     . . . . . .


E|---------------------------------------------------------------|
B|---------------------------------------------------------------|
G|---------------------------------------------------------------|
D|---------------------------------------------------------------|
A|---------------------------------------------------------------|
D|-5---5---8---5-----5-5-5-5-5-5-5---5---8---5---5---5---8---5---|
   .   .   .   .     . . . . . . .   .   .   .   .   .   .   .


Guitar 1
E|-17-12----12\-0t5/9p5t9/12p9/18~--17~---|
B|-------14-------------------------------|
G|----------------------------------------|
D|----------------------------------------|
A|----------------------------------------|
D|----------------------------------------|


Guitar 2
E|-12-9----9\------------------------------|
B|------10----2t5/10p5t10/14p10/15~--14~---|
G|-----------------------------------------|
D|-----------------------------------------|
A|-----------------------------------------|
D|-----------------------------------------|



CHORUS

Guitar 1
E|---------------------------------15-/18--18--17--17--15--17--18--|
B|-15-/18--18--17--17--15--17--18----------------------------------|
G|-----------------------------------------------------------------|
D|-----------------------------------------------------------------|
A|-----------------------------------------------------------------|
D|-----------------------------------------------------------------|


Guitar 2
E|-----------------------------------------------------------------|
B|---------------------------------11-/15--15--13--13--11--13--15--|
G|-10-/14--14--12--12--10--12--14----------------------------------|
D|-----------------------------------------------------------------|
A|-----------------------------------------------------------------|
D|-----------------------------------------------------------------|


Guitar 3
E|-----------------------------------------------------------------|
B|-----------------------------------------------------------------|
G|-----------------------------------------------------------------|
D|-0---0-0-0---0-0-0---0-0-0---0-0-5---5-5-5---5-5-5---5-5-5---5-5-|
A|-0---0-0-0---0-0-0---0-0-0---0-0-5---5-5-5---5-5-5---5-5-5---5-5-|
D|-0---0-0-0---0-0-0---0-0-0---0-0-5---5-5-5---5-5-5---5-5-5---5-5-|



Guitar 1                          |-------------S3--------------|
E|-------------8--10--12-12----10--------------13-16-17-13-----------|
B|-8-8--10--11------------------------------15-------------15--------|
G|---------------------------------------14-------------------14\----|
D|------------------------------------15-----------------------------|
A|---------------------------------17--------------------------------|
D|-------------------------------------------------------------------|


Guitar 2                             |----------------S3-----------------|
E|---------------12--13--15-15----13--------------10-12-13-10---------------|
B|-11-11--13--15-------------------------------10-------------10------------|
G|------------------------------------------10-------------------10---------|
D|---------------------------------------12-------------------------12------|
A|------------------------------------12-------------------------------12---|
D|--------------------------------------------------------------------------|


Guitar 3
E|-----------------------------------------------------------------|
B|-----------------------------------------------------------------|
G|-----------------------------------------------------------------|
D|-5---5-5-5---5-5-5---5-5-5---5-5-0---0-0-0---0-0-0---0-0-0---0-0-|
A|-5---5-5-5---5-5-5---5-5-5---5-5-0---0-0-0---0-0-0---0-0-0---0-0-|
D|-5---5-5-5---5-5-5---5-5-5---5-5-0---0-0-0---0-0-0---0-0-0---0-0-|



Guitar 1
E|---------------------------------15-/18--18--17--17--15--17--18--|
B|-15-/18--18--17--17--15--17--18----------------------------------|
G|-----------------------------------------------------------------|
D|-----------------------------------------------------------------|
A|-----------------------------------------------------------------|
D|-----------------------------------------------------------------|


Guitar 2
E|-----------------------------------------------------------------|
B|---------------------------------11-/15--15--13--13--11--13--15--|
G|-10-/14--14--12--12--10--12--14----------------------------------|
D|-----------------------------------------------------------------|
A|-----------------------------------------------------------------|
D|-----------------------------------------------------------------|


Guitar 3
E|-----------------------------------------------------------------|
B|-----------------------------------------------------------------|
G|-----------------------------------------------------------------|
D|-0---0-0-0---0-0-0---0-0-0---0-0-5---5-5-5---5-5-5---5-5-5---5-5-|
A|-0---0-0-0---0-0-0---0-0-0---0-0-5---5-5-5---5-5-5---5-5-5---5-5-|
D|-0---0-0-0---0-0-0---0-0-0---0-0-5---5-5-5---5-5-5---5-5-5---5-5-|



Guitar 1                          |-------------S3--------------|
E|-------------8--10--12-12----10--------------13-16-17-13-----------|
B|-8-8--10--11------------------------------15-------------15--------|
G|---------------------------------------14-------------------14\----|
D|------------------------------------15-----------------------------|
A|---------------------------------17--------------------------------|
D|-------------------------------------------------------------------|


Guitar 2                             |----------------S3-----------------|
E|---------------12--13--15-15----13--------------10-12-13-10---------------|
B|-11-11--13--15-------------------------------10-------------10------------|
G|------------------------------------------10-------------------10---------|
D|---------------------------------------12-------------------------12------|
A|------------------------------------12-------------------------------12---|
D|--------------------------------------------------------------------------|


Guitar 3
E|-----------------------------------------------------------------|
B|-----------------------------------------------------------------|
G|-----------------------------------------------------------------|
D|-5---5-5-5---5-5-5---5-5-5---5-5-0---0-0-0---0-0-0---0-0-0---0-0-|
A|-5---5-5-5---5-5-5---5-5-5---5-5-0---0-0-0---0-0-0---0-0-0---0-0-|
D|-5---5-5-5---5-5-5---5-5-5---5-5-0---0-0-0---0-0-0---0-0-0---0-0-|



Guitar 1
E|-13p10----13p10----13p10----13p10----17p13----17p13----17p13----17p13----|
B|-------10-------10-------10-------10-------15-------15-------15-------15-|
G|-------------------------------------------------------------------------|
D|-------------------------------------------------------------------------|
A|-------------------------------------------------------------------------|
D|-------------------------------------------------------------------------|


Guitar 2
E|-17p13----17p13----17p13----17p13----22p17----22p17----22p17----22p17----|
B|-------15-------15-------15-------15-------18-------18-------18-------18-|
G|-------------------------------------------------------------------------|
D|-------------------------------------------------------------------------|
A|-------------------------------------------------------------------------|
D|-------------------------------------------------------------------------|


Guitar 3
E|---------------------------------|
B|---------------------------------|
G|---------------------------------|
D|-0---0---0---0---0---0---0---0---|
A|-0---0---0---0---0---0---0---0---|
D|-0---0---0---0---0---0---0---0---|



Guitar 1
E|-16p12----16p12----16p12----16p12----19p16----19p16----19p16----19p16----|
B|-------12-------12-------12-------12-------17-------17-------17-------17-|
G|-------------------------------------------------------------------------|
D|-------------------------------------------------------------------------|
A|-------------------------------------------------------------------------|
D|-------------------------------------------------------------------------|


Guitar 2
E|-19p16----19p16----19p16----19p16----24p19----24p19----24p19----24p19----|
B|-------17-------17-------17-------17-------21-------21-------21-------21-|
G|-------------------------------------------------------------------------|
D|-------------------------------------------------------------------------|
A|-------------------------------------------------------------------------|
D|-------------------------------------------------------------------------|


Guitar 3
E|---------------------------------|
B|---------------------------------|
G|---------------------------------|
D|-6---6---6---6---6---6---6---6---|
A|-7---7---7---7---7---7---7---7---|
D|-6---6---6---6---6---6---6---6---|



Guitar 1
E|-18p15----18p15----18p15----18p15----22p18----22p18----22p18----22p18----|
B|-------15-------15-------15-------15-------20-------20-------20-------20-|
G|-------------------------------------------------------------------------|
D|-------------------------------------------------------------------------|
A|-------------------------------------------------------------------------|
D|-------------------------------------------------------------------------|


Guitar 2
E|-22p18----22p18----22p18----22p18----15p11----15p11----15p11----15p11----|
B|-------20-------20-------20-------20-------11-------11-------11-------11-|
G|-------------------------------------------------------------------------|
D|-------------------------------------------------------------------------|
A|-------------------------------------------------------------------------|
D|-------------------------------------------------------------------------|


Guitar 3
E|---------------------------------|
B|---------------------------------|
G|---------------------------------|
D|-5---5---5---5---5---5---5---5---|
A|-5---5---5---5---5---5---5---5---|
D|-5---5---5---5---5---5---5---5---|



Guitar 1
E|-15p11----15p11----15p11----15p11----18p15----18p15----18p15----18p15----|
B|-------11-------11-------11-------11-------16-------16-------16-------16-|
G|-------------------------------------------------------------------------|
D|-------------------------------------------------------------------------|
A|-------------------------------------------------------------------------|
D|-------------------------------------------------------------------------|


Guitar 2
E|-18p15----18p15----18p15----18p15----23p18----23p18----23p18----23p18----|
B|-------16-------16-------16-------16-------20-------20-------20-------20-|
G|-------------------------------------------------------------------------|
D|-------------------------------------------------------------------------|
A|-------------------------------------------------------------------------|
D|-------------------------------------------------------------------------|


Guitar 3
E|---------------------------------|
B|---------------------------------|
G|---------------------------------|
D|-1---1---1---1---1---1---1---1---|
A|-1---1---1---1---1---1---1---1---|
D|-1---1---1---1---1---1---1---1---|



VERSE II

Guitar 1
E|-------------------------------------|
B|-------------------------------------|
G|-------------------------------------|
D|-------------------------------------|
A|-/5---5-/3---3-----------------------|
D|---------------6---6-5---5-3---5-----|


Guitars 1 & 2
E|-----------------------------------------------------------------------------|
B|-----------------------------------------------------------------------------|
G|-----------------------------------------------------------------------------|
D|-----------------------------------------------------------------------------|
A|-----------------------------------------------------------------------------|
D|-0-----0----0-0-0---0-----0----0-0-0---0-----0----0-0-0---0-----0----0-0-0---|
   .     .    . . .   .     .    . . .   .     .    . . .   .     .    . . .


E|-----------------------------------------------------------------------------|
B|-----------------------------------------------------------------------------|
G|-----------------------------------------------------------------------------|
D|-----------------------------------------------------------------------------|
A|-----------------------------------------------------------------------------|
D|-5-----5----5-5-5---5-----5----5-5-5---5-----5----5-5-5---5-----5----5-5-5---|
   .     .    . . .   .     .    . . .   .     .    . . .   .     .    . . .


E|-------------------------------------------------------------|
B|-------------------------------------------------------------|
G|-------------------------------------------------------------|
D|-------------------------------------------------------------|
A|-------------------------------------------------------------|
D|-0---0---3---0-----0-0-0-0-0-0-0---0---3---0-----0-0-0-0-0-0-|
   .   .   .   .     . . . . . . .   .   .   .     . . . . . .


E|---------------------------------------------------------------|
B|---------------------------------------------------------------|
G|---------------------------------------------------------------|
D|---------------------------------------------------------------|
A|---------------------------------------------------------------|
D|-0---0---3---0-----0-0-0-0-0-0-0---0---3---0---0---0---3---0---|
   .   .   .   .     . . . . . . .   .   .   .   .   .   .   .


E|-------------------------------------------------------------|
B|-------------------------------------------------------------|
G|-------------------------------------------------------------|
D|-------------------------------------------------------------|
A|-------------------------------------------------------------|
D|-5---5---8---5-----5-5-5-5-5-5-5---5---8---5-----5-5-5-5-5-5-|
   .   .   .   .     . . . . . . .   .   .   .     . . . . . .


E|---------------------------------------------------------------|
B|---------------------------------------------------------------|
G|---------------------------------------------------------------|
D|---------------------------------------------------------------|
A|---------------------------------------------------------------|
D|-5---5---8---5-----5-5-5-5-5-5-5---5---8---5---5---5---8---5---|
   .   .   .   .     . . . . . . .   .   .   .   .   .   .   .


Guitar 1                               |---T3---|
E|-------------------|---S3---|---T3---|---13-15/18~--17~-----|
B|----------|---S3---|18-17-18-15-14-15-17--------------------|
G|-|---S3---|15-14-15-----------------------------------------|
D|-/15-14-15--------------------------------------------------|
A|------------------------------------------------------------|
D|------------------------------------------------------------|


Guitar 2
E|----------------------------|---T3---|---T3---|-----------|
B|----------|---S3---|---S3---|15-14----------14-15~--14~---|
G|-|---S3---|12-11-12/15-14-15-------14-15-16---------------|
D|-/12-11-12------------------------------------------------|
A|----------------------------------------------------------|
D|----------------------------------------------------------|



CHORUS

Guitar 1
E|---------------------------------15-/18--18--17--17--15--17--18--|
B|-15-/18--18--17--17--15--17--18----------------------------------|
G|-----------------------------------------------------------------|
D|-----------------------------------------------------------------|
A|-----------------------------------------------------------------|
D|-----------------------------------------------------------------|


Guitar 2
E|-----------------------------------------------------------------|
B|---------------------------------11-/15--15--13--13--11--13--15--|
G|-10-/14--14--12--12--10--12--14----------------------------------|
D|-----------------------------------------------------------------|
A|-----------------------------------------------------------------|
D|-----------------------------------------------------------------|


Guitar 3
E|-----------------------------------------------------------------|
B|-----------------------------------------------------------------|
G|-----------------------------------------------------------------|
D|-0---0-0-0---0-0-0---0-0-0---0-0-5---5-5-5---5-5-5---5-5-5---5-5-|
A|-0---0-0-0---0-0-0---0-0-0---0-0-5---5-5-5---5-5-5---5-5-5---5-5-|
D|-0---0-0-0---0-0-0---0-0-0---0-0-5---5-5-5---5-5-5---5-5-5---5-5-|



Guitar 1                          |-------------S3--------------|
E|-------------8--10--12-12----10--------------13-16-17-13-----------|
B|-8-8--10--11------------------------------15-------------15--------|
G|---------------------------------------14-------------------14\----|
D|------------------------------------15-----------------------------|
A|---------------------------------17--------------------------------|
D|-------------------------------------------------------------------|


Guitar 2                             |----------------S3-----------------|
E|---------------12--13--15-15----13--------------10-12-13-10---------------|
B|-11-11--13--15-------------------------------10-------------10------------|
G|------------------------------------------10-------------------10---------|
D|---------------------------------------12-------------------------12------|
A|------------------------------------12-------------------------------12---|
D|--------------------------------------------------------------------------|


Guitar 3
E|-----------------------------------------------------------------|
B|-----------------------------------------------------------------|
G|-----------------------------------------------------------------|
D|-5---5-5-5---5-5-5---5-5-5---5-5-0---0-0-0---0-0-0---0-0-0---0-0-|
A|-5---5-5-5---5-5-5---5-5-5---5-5-0---0-0-0---0-0-0---0-0-0---0-0-|
D|-5---5-5-5---5-5-5---5-5-5---5-5-0---0-0-0---0-0-0---0-0-0---0-0-|



Guitar 1
E|---------------------------------15-/18--18--17--17--15--17--18--|
B|-15-/18--18--17--17--15--17--18----------------------------------|
G|-----------------------------------------------------------------|
D|-----------------------------------------------------------------|
A|-----------------------------------------------------------------|
D|-----------------------------------------------------------------|


Guitar 2
E|-----------------------------------------------------------------|
B|---------------------------------11-/15--15--13--13--11--13--15--|
G|-10-/14--14--12--12--10--12--14----------------------------------|
D|-----------------------------------------------------------------|
A|-----------------------------------------------------------------|
D|-----------------------------------------------------------------|


Guitar 3
E|-----------------------------------------------------------------|
B|-----------------------------------------------------------------|
G|-----------------------------------------------------------------|
D|-0---0-0-0---0-0-0---0-0-0---0-0-5---5-5-5---5-5-5---5-5-5---5-5-|
A|-0---0-0-0---0-0-0---0-0-0---0-0-5---5-5-5---5-5-5---5-5-5---5-5-|
D|-0---0-0-0---0-0-0---0-0-0---0-0-5---5-5-5---5-5-5---5-5-5---5-5-|



Guitar 1                          |-------------S3--------------|
E|-------------8--10--12-12----10--------------13-16-17-13-----------|
B|-8-8--10--11------------------------------15-------------15--------|
G|---------------------------------------14-------------------14\----|
D|------------------------------------15-----------------------------|
A|---------------------------------17--------------------------------|
D|-------------------------------------------------------------------|


Guitar 2                             |----------------S3-----------------|
E|---------------12--13--15-15----13--------------10-12-13-10---------------|
B|-11-11--13--15-------------------------------10-------------10------------|
G|------------------------------------------10-------------------10---------|
D|---------------------------------------12-------------------------12------|
A|------------------------------------12-------------------------------12---|
D|--------------------------------------------------------------------------|


Guitar 3
E|-----------------------------------------------------------------|
B|-----------------------------------------------------------------|
G|-----------------------------------------------------------------|
D|-5---5-5-5---5-5-5---5-5-5---5-5-0---0-0-0---0-0-0---0-0-0---0-0-|
A|-5---5-5-5---5-5-5---5-5-5---5-5-0---0-0-0---0-0-0---0-0-0---0-0-|
D|-5---5-5-5---5-5-5---5-5-5---5-5-0---0-0-0---0-0-0---0-0-0---0-0-|


INTERLUDE

Guitar 1               |----------------S3-----------------|
E|----------------------------------------------10-11-10----11~----------|
B|-------------------------------------11----11----------13--------------|
G|----------------------------12----12----12-----------------------------|
D|-12~--12-/15--13~--------12----12--------------------------------------|
A|----------------------13-----------------------------------------------|
D|-----------------------------------------------------------------------|


Guitar 2               |-----------S3------------|
E|---------------------------------------6-8-6----6~----------|
B|---------------------------------8---8-------10-------------|
G|-10~--10-/14--12~----------7---7---7------------------------|
D|-------------------------8---8------------------------------|
A|----------------------10------------------------------------|
D|------------------------------------------------------------|


Guitar 3
E|-----------------------------------------------------------------|
B|-----------------------------------------------------------------|
G|-3---3-3-3---3-3-3---3-3-3---3-3---------------------------------|
D|-3---3-3-3---3-3-3---3-3-3---3-3-1---1-1-1---1-1-1---1-1-1---1-1-|
A|-1---1-1-1---1-1-1---1-1-1---1-1-1---1-1-1---1-1-1---1-1-1---1-1-|
D|---------------------------------1---1-1-1---1-1-1---1-1-1---1-1-|


BRIDGE

Guitar 1
E|---------------------------------------------------------------------------------------------|
B|---------------------------------------------------------------------------------------------|
G|-15---15-15-15-15-15-15-15---15-15-15-15-15-15-10---10-10-10-10-10-10-10---10-10-10-10-10-10-|
D|---------------------------------------------------------------------------------------------|
A|-13---13-13-13-13-13-13-13---13-13-13-13-13-13--8----8--8--8--8--8--8--8----8--8--8--8--8--8-|
D|---------------------------------------------------------------------------------------------|


Guitar 2
E|-----------------------------------------------------------------|
B|-----------------------------------------------------------------|
G|-3---3-3-3-3-3-3-3---3-3-3-3-3-3---------------------------------|
D|-3---3-3-3-3-3-3-3---3-3-3-3-3-3-3---3-3-3-3-3-3-3---3-3-3-3-3-3-|
A|-1---1-1-1-1-1-1-1---1-1-1-1-1-1-3---3-3-3-3-3-3-3---3-3-3-3-3-3-|
D|---------------------------------3---3-3-3-3-3-3-3---3-3-3-3-3-3-|



Guitar 1
E|----------------------------------------------------------------------|
B|----------------------------------------------------------------------|
G|-9---9-9-9-9-9-9-9---9-9-9-9-9-9-7---7-7-9---9-9-10--10-10-14---14-14-|
D|----------------------------------------------------------------------|
A|-7---7-7-7-7-7-7-7---7-7-7-7-7-7-5---5-5-7---7-7-8----8--8-12---12-12-|
D|----------------------------------------------------------------------|


Guitar 2
E|-----------------------------------------------------------------|
B|-----------------------------------------------------------------|
G|-----------------------------------------------------------------|
D|-2---2-2-2-2-2-2-2---2-2-2-2-2-2-0---0-0-0-0-0-0-0---0-0-0-0-0-0-|
A|-3---3-3-3-3-3-3-3---3-3-3-3-3-3-0---0-0-0-0-0-0-0---0-0-0-0-0-0-|
D|-2---2-2-2-2-2-2-2---2-2-2-2-2-2-0---0-0-0-0-0-0-0---0-0-0-0-0-0-|



Guitar 1
E|-------------------------------------------------------------------------------------------|
B|-------------------------------------------------------------------------------------------|
G|-15---15-15-15-15-15-15-15---15-15-14---14-14-10---10-10-10-10-10-10-10---10-10-12---12-12-|
D|-------------------------------------------------------------------------------------------|
A|-13---13-13-13-13-13-13-13---13-13-12---12-12--8----8--8--8--8--8--8--8----8--8-10---10-10-|
D|-------------------------------------------------------------------------------------------|


Guitar 2
E|-----------------------------------------------------------------|
B|-----------------------------------------------------------------|
G|-3---3-3-3-3-3-3-3---3-3-3-3-3-3---------------------------------|
D|-3---3-3-3-3-3-3-3---3-3-3-3-3-3-3---3-3-3-3-3-3-3---3-3-3-3-3-3-|
A|-1---1-1-1-1-1-1-1---1-1-1-1-1-1-3---3-3-3-3-3-3-3---3-3-3-3-3-3-|
D|---------------------------------3---3-3-3-3-3-3-3---3-3-3-3-3-3-|



Guitar 1
E|-------------------------------------------------------------------------------|
B|-------------------------------------------------------------------------------|
G|-9---9-9-9-9-9-9-9---9-9-9-9-9-9-13---13-13-13-13-13-13-13---13-13-13-13-13-13-|
D|-------------------------------------------------------------------------------|
A|-7---7-7-7-7-7-7-7---7-7-7-7-7-7-11---11-11-11-11-11-11-11---11-11-11-11-11-11-|
D|-------------------------------------------------------------------------------|


Guitar 2
E|-----------------------------------------------------------------|
B|-----------------------------------------------------------------|
G|-2---2-2-2-2-2-2-2---2-2-2-2-2-2-2---2-2-2-2-2-2-2---2-2-2-2-2-2-|
D|-2---2-2-2-2-2-2-2---2-2-2-2-2-2-2---2-2-2-2-2-2-2---2-2-2-2-2-2-|
A|-0---0-0-0-0-0-0-0---0-0-0-0-0-0-4---4-4-4-4-4-4-4---4-4-4-4-4-4-|
D|-----------------------------------------------------------------|



Guitar 3
E|-----------------------------------------------------|
B|-----------------------------------------------------|
G|-----------------------------------------------------|
D|-3---------3---------3-----3---------3---------3-----|
A|-1-1-1-1-1-1-1-1-1-1-1-1-1-1-1-1-1-1-1-1-1-1-1-1-1-1-|
D|-----------------------------------------------------|



Guitar 1
E|---------------15-17-18-17-15--------------------------15-17-18-17-15-----------|
B|------------15----------------15--------------------15----------------15--------|
G|---------15----------------------15--------------15----------------------15-----|
D|------17----------------------------17\-------17----------------------------17\-|
A|-/17-------------------------------------/17------------------------------------|
D|--------------------------------------------------------------------------------|


Guitar 2
E|---------------18-20-22-20-18--------------------------18-21-22-21-18-----------|
B|------------20----------------20--------------------20----------------20--------|
G|---------19----------------------19--------------19----------------------19-----|
D|------20----------------------------20\-------20----------------------------20\-|
A|-/22-------------------------------------/22------------------------------------|
D|--------------------------------------------------------------------------------|


Guitar 3
E|-----------------------------------------------------|
B|-----------------------------------------------------|
G|-----------------------------------------------------|
D|-----------------------------------------------------|
A|-3---------3---------3-----3---------3---------3-----|
D|-3-3-3-3-3-3-3-3-3-3-3-3-3-3-3-3-3-3-3-3-3-3-3-3-3-3-|



Guitar 1
E|---------------------------------------------------|
B|---------------------------------------------------|
G|---------------------------------------------------|
D|-/10~----------------------------------------------|
A|---------------------------------------------------|
D|---------------------------------------------------|


Guitar 2
E|---------------------------------------------------|
B|---------------------------------------------------|
G|---------------------------------------------------|
D|-/14~----------------------------------------------|
A|---------------------------------------------------|
D|---------------------------------------------------|


Guitar 3
E|-----------------------------------------------------|
B|-----------------------------------------------------|
G|-----------------------------------------------------|
D|-----------------------------------------------------|
A|-3---------3---------3-----3---------3---------3-----|
D|-2-2-2-2-2-2-2-2-2-2-2-2-2-2-2-2-2-2-2-2-2-2-2-2-2-2-|



Guitar 1
E|------------10-12-13-12-10---------------------------10-12-13-12-10--------------|
B|---------10----------------10---------------------10----------------10-----------|
G|------10----------------------10---------------10----------------------10--------|
D|-/12-----------------------------12---------12----------------------------12-----|
A|------------------------------------12\8/12----------------------------------12\-|
D|---------------------------------------------------------------------------------|


Guitar 2
E|------------13-15-17-15-13--------------------------13-15-17-15-13-------------|
B|---------15----------------15--------------------15----------------15----------|
G|------14----------------------14--------------14----------------------14-------|
D|---------------------------------15----15---------------------------------17\--|
A|-/17--------------------------------17----17-----------------------------------|
D|-------------------------------------------------------------------------------|


Guitar 3
E|-----------------------------------------------------|
B|-----------------------------------------------------|
G|-----------------------------------------------------|
D|-----------------------------------------------------|
A|-0---------0---------0-----0---------0---------0-----|
D|-0-0-0-0-0-0-0-0-0-0-0-0-0-0-0-0-0-0-0-0-0-0-0-0-0-0-|



Guitar 1
E|---------------------------------------------------|
B|---------------------------------------------------|
G|---------------------------------------------------|
D|-/12~----------------------------------------------|
A|---------------------------------------------------|
D|---------------------------------------------------|


Guitar 2
E|---------------------------------------------------|
B|---------------------------------------------------|
G|-/15~----------------------------------------------|
D|---------------------------------------------------|
A|---------------------------------------------------|
D|---------------------------------------------------|


Guitar 3
E|-----------------------------------------------------|
B|-----------------------------------------------------|
G|-----------------------------------------------------|
D|-3---------3---------3-----3---------3---------3-----|
A|-1-1-1-1-1-1-1-1-1-1-1-1-1-1-1-1-1-1-1-1-1-1-1-1-1-1-|
D|-----------------------------------------------------|



Guitar 1
E|---------------15-17-18-17-15----------------------------15-17-18-17-15-----------|
B|------------15----------------15----------------------15----------------15--------|
G|---------15----------------------15----------------15----------------------15-----|
D|------17----------------------------17\---------17----------------------------17\-|
A|-/17---------------------------------------/17------------------------------------|
D|----------------------------------------------------------------------------------|


Guitar 2
E|---------------18-20-22-20-18--------------------------18-21-22-21-18-----------|
B|------------20----------------20--------------------20----------------20--------|
G|---------19----------------------19--------------19----------------------19-----|
D|------20----------------------------20\-------20----------------------------20\-|
A|-/22-------------------------------------/22------------------------------------|
D|--------------------------------------------------------------------------------|


Guitar 3
E|-----------------------------------------------------|
B|-----------------------------------------------------|
G|-----------------------------------------------------|
D|-----------------------------------------------------|
A|-3---------3---------3-----3---------3---------3-----|
D|-3-3-3-3-3-3-3-3-3-3-3-3-3-3-3-3-3-3-3-3-3-3-3-3-3-3-|



Guitar 1
E|---------------------------------------------------|
B|---------------------------------------------------|
G|---------------------------------------------------|
D|-/13~----------------------------------------------|
A|---------------------------------------------------|
D|---------------------------------------------------|


Guitar 2
E|---------------------------------------------------|
B|---------------------------------------------------|
G|-/14~----------------------------------------------|
D|---------------------------------------------------|
A|---------------------------------------------------|
D|---------------------------------------------------|


Guitar 3
E|-----------------------------------------------------|
B|-----------------------------------------------------|
G|-----------------------------------------------------|
D|-2---------2---------2-----2---------2---------2-----|
A|-0-0-0-0-0-0-0-0-0-0-0-0-0-0-0-0-0-0-0-0-0-0-0-0-0-0-|
D|-----------------------------------------------------|



Guitar 1
E|---------------------------------------------------|
B|---------------------------------------------------|
G|-/14~-------/18~-----------------------------------|
D|---------------------------------------------------|
A|---------------------------------------------------|
D|---------------------------------------------------|


Guitar 2
E|---------------------------------------------------|
B|---------------------------------------------------|
G|-/18~----------------------------------------------|
D|------------/19~-----------------------------------|
A|---------------------------------------------------|
D|---------------------------------------------------|


Guitar 3
E|-------------------------------------------------------|
B|-------------------------------------------------------|
G|-------------------------------------------------------|
D|-2---------2---------2-----2-2/6--6--6--6--6--6--6--6--|
A|-4-4-4-4-4-4-4-4-4-4-4-4-4-4-4/7--7--7--7--7--7--7--7--|
D|-------------------------------------------------------|


[BREAKDOWN]


SOLO


Guitar 1
E|-----------------------------------13--17-b18r17~--15~------|
B|-13b15-----15b17r15b18---15--13~----------------------------|
G|------------------------------------------------------------|
D|------------------------------------------------------------|
A|------------------------------------------------------------|
D|------------------------------------------------------------|


E|-15b17-----15p13----13h15--13h15--13~--------/17--18~------------|
B|-----------------15--------------------------------------15~-----|
G|-----------------------------------------------------------------|
D|-----------------------------------------------------------------|
A|-----------------------------------------------------------------|
D|-----------------------------------------------------------------|


E|-/18---17~-------------13--/17~-------17--h18p17p16-17~-----|
B|---------------13~------------------------------------------|
G|------------------------------------------------------------|
D|------------------------------------------------------------|
A|------------------------------------------------------------|
D|------------------------------------------------------------|


E|-12-13-15---13---12p13h12-----------------------------------|
B|--------------------------15~-----15b17r15b18---15--13~-----|
G|------------------------------------------------------------|
D|------------------------------------------------------------|
A|------------------------------------------------------------|
D|------------------------------------------------------------|


E|-13--17-b18r17---15-17-18--18-18b20---17b18r17~------|
B|-----------------------------------------------------|
G|-----------------------------------------------------|
D|-----------------------------------------------------|
A|-----------------------------------------------------|
D|-----------------------------------------------------|

(Harmony comes in)
E|------------------13-18---17---15\-13~--------13-17---15---13-/17~------|
B|-15b17r15~-----15--------------------------13---------------------------|
G|------------------------------------------------------------------------|
D|------------------------------------------------------------------------|
A|------------------------------------------------------------------------|
D|------------------------------------------------------------------------|


Guitar 2
E|------------------------------------------------------------------------|
B|------------------15-18---17---15-------------15-18---17---15--14~------|
G|------/15~-----15------------------14~-----15---------------------------|
D|------------------------------------------------------------------------|
A|------------------------------------------------------------------------|
D|------------------------------------------------------------------------|



Guitar 1
E|-17-18-20-20b22~-----------------17-18-20-21b23~----------------|
B|------------------------------18--------------------------------|
G|----------------------------------------------------------------|
D|----------------------------------------------------------------|
A|----------------------------------------------------------------|
D|----------------------------------------------------------------|


Guitar 2
E|----12-13/17~---------------------------------------------------|
B|-14------------------------------14-15-17-17b18~----------------|
G|------------------------------14--------------------------------|
D|----------------------------------------------------------------|
A|----------------------------------------------------------------|
D|----------------------------------------------------------------|


Thats it. Thanks for checking out my tab! :)

=======================================================================
Buried Alive

Tuning (this tab): Drop D Tab difficulty: intermediate

Avenged Sevenfold - Buried Alive
Tabbed by: awesti

I also posted an Mp3 of me playing the solo including harmonies on my profile.

INTRO
Guitar1 (clean)
e|-----8----10p8---8------8---5--3/5---------------------------------------|
B|-/10---10------10-----8---8----------5---6p5-5-------5-------------------|
G|-----------------------------------7---7----7------5---4-7\4-4h5p4-------|
D|-------------------------------------------------------------------5-----|
A|--0-------------------7------------5-----------3-2-0---------------------|
D|-------------------10----------------------------------------------------|

e|-----8----10p8---8------8---5--3/5---------------------------------------|
B|-/10---10------10-----8---8----------5---6p5-------8-10-9h10p9p7h9-10----|
G|-----------------------------------7---7-----7-9-10----------------------|
D|-------------------------------------------------------------------------|
A|--0-------------------7------------5---------5-7-8------7----------------|
D|-------------------10----------------------------------------------------|

e|----------------------------------------------------------------------5--|
B|-/10~-8-10--------------/10~-8-10----------/10~-8-10--------------7h8----|
G|-----------/7-5-7-5---------------/7-5h7-5-----------/7-5-7-5---------5--|
D|--------------------7-5---------------------------------------7-5--------|
A|-------------------------------------------------------------------------|
D|-------------------------------------------------------------------------|

e|-------------------------------------------------------------------------|
B|-5---5----/10~-8-10-------------/10~-8-10----------/10~-8-10-------------|
G|--5---5-------------7-5-7-5---------------/7-5h6-5-----------7-5-7-5-----|
D|---5---5--------------------7-5--------------------------------------7-5-|
A|-------------------------------------------------------------------------|
D|-------------------------------------------------------------------------|

e|-----5-----------------------5*-------------5*---------------------------|
B|-7h8----5---5----------5-5------------5-5--------------------------------|
G|-----5---5---5---5~-4~----------5~-4~------------------------------------|
D|----------5---5------------7--------------7----3*------------------------|
A|-------------------------------------------------------------------------|
D|-------------------------------------------------------------------------|


INTRO HARMONY 0:51
Guitar1
e|-------------------------------------------------------------------------|
B|-13-13-13/15-13\8-8-8/10~10-10--\9~--13-13-13/15-13\8-8/10-10-12-13-12-12|
G|-------------------------------9-----------------------------------------|
D|-------------------------------------------------------------------------|
A|-------------------------------------------------------------------------|
D|-------------------------------------------------------------------------|

e|---------------------------------------/17-15----------------------------|
B|-12-13-15--13-13-13-12-13----13-12-13---------18-17--/13-h14p13\9--------|
G|----------------------------12-------------------------------------------|
D|-------------------------------------------------------------------------|
A|-------------------------------------------------------------------------|
D|-------------------------------------------------------------------------|

e|-------------------------------------------------------------------------|
B|-/13-13-13-12-13----13-12-13/15-17-15-12b13r12~--12h13p12p10---------\13~|
G|-----------------12------------------------------------------13-12-10----|
D|-------------------------------------------------------------------------|
A|-------------------------------------------------------------------------|
D|-------------------------------------------------------------------------|

Guitar2
e|-------------------------------------------------------------------------|
B|-10~-10-10-12-8-------------------------10~-10-10-12-8---------------10-9|
G|----------------9-9-9-10~-10-10-----/9~----------------9-9/10-10-10-12---|
D|---------------------------------10--------------------------------------|
A|-------------------------------------------------------------------------|
D|-------------------------------------------------------------------------|

e|------------------12-10-12----12-10-12-12/13-12-10----12h13p12\7~--------|
B|-9-9-10-12--10-10----------13----------------------13--------------------|
G|-------------------------------------------------------------------------|
D|-------------------------------------------------------------------------|
A|-------------------------------------------------------------------------|
D|-------------------------------------------------------------------------|

e|-------12-10-12----12-10-12-/13-15\13------------------------------------|
B|-10-10----------13--------------------15b17r15~--15h16p15p13-------------|
G|-------------------------------------------------------------15-14-15/14~|
D|-------------------------------------------------------------------------|
A|-------------------------------------------------------------------------|
D|-------------------------------------------------------------------------|

VERSE 1:19

e|-------0----------------------------0---------------------0------| 
B|-----1---1------------3-----------1---1-----1-------1---1---1----|
G|---2-------2--------0---0-------2-------2---------0---0----------|
D|------------------2-------0-2-3-----------2-----2----------------|
A|-0-----------2--3-----------------------------3------------------| x4
D|-----------------------------------------------------------------|

VERSE HARMONY 1:46
Guitar1
e|-/13--12--10--------10-12-/13--12-/16~-17-17-----------------------------|
B|-------------/12-13------------------------------------------------------|
G|-------------------------------------------------------------------------|
D|-------------------------------------------------------------------------|
A|-------------------------------------------------------------------------|
D|-------------------------------------------------------------------------|

Guitar2
e|-------------------------------------------------------------------------|
B|-/15--13--12--/8-10-12-13-/15--13-/18~-20-20-----------------------------|
G|-------------------------------------------------------------------------|
D|-------------------------------------------------------------------------|
A|-------------------------------------------------------------------------|
D|-------------------------------------------------------------------------|
                              /\
PLAY VERSE CLEAN GUITAR UNDER || 


CHORUS 2:00

Guitar1
e|-------------------------------------------------------------------------|
B|-------------------------------------------------------------------------|
G|-------------------------------------------------------------------------|
D|-----------5--5-5-5---------------------5--5-5-5------------9xx7xx10xx9--|
A|-7--7-7--2-3--3-3-3-----------7--7-7--2-3--3-3-3------------7xx5xx-8xx7--|
D|-7--7-7--2-3--3-3-3-6-6-6-7-9-7--7-7--2-3--3-3-3--6-6-6-7-9--------------|

e|-------------------------------------------------------------------------|
B|-------------------------------------------------------------------------|
G|-------------------------------------------------------------------------|
D|-----------5--5-5-5------------------------5--5-5-5------------99-9------|
A|-7--7-7--2-3--3-3-3--------------7--7-7--2-3--3-3-3------------77-7------|
D|-7--7-7--2-3--3-3-3--6-6-6-7-9---7--7-7--2-3--3-3-3--6-6-6-7-9-----------|

e|----------------------------|
B|----------------------------|
G|----------------------------|
D|-99-9------xx9xx7xx10xx9xx--|
A|-77-7------xx7xx5xx-8xx7xx--|
D|----------------------------|

Guitar2
e|-------------------------------------------------------------------------|
B|-------------------------------------------------------------------------|
G|-------------------------------------------------------------------------|
D|-----------5--5-5-5---------------------5--5-5-5------------9xx7xx10xx9--|
A|-7--7-7--2-3--3-3-3-----------7--7-7--2-3--3-3-3------------7xx5xx-8xx7--|
D|-7--7-7--2-3--3-3-3-2-2-2-3-5-7--7-7--2-3--3-3-3--2-2-2-3-5--------------|

e|-------------------------------------------------------------------------|
B|-------------------------------------------------------------------------|
G|-------------------------------------------------------------------------|
D|-----------5--5-5-5------------------------5--5-5-5------------99-9------|
A|-7--7-7--2-3--3-3-3--------------7--7-7--2-3--3-3-3------------77-7------|
D|-7--7-7--2-3--3-3-3--2-2-2-3-5---7--7-7--2-3--3-3-3--2-2-2-3-5-----------|

e|----------------------------|
B|----------------------------|
G|----------------------------|
D|-99-9------xx9xx7xx10xx9xx--|
A|-77-7------xx7xx5xx-8xx7xx--|
D|----------------------------|



BRIDGE HARMONY 2:30

Guitar1
e|---------------------------------------------------------------------------|
B|-13-13-13/15-13\8-8-8/10~10-10--\9~--13-13-13/15-13\8-8/10-10-12-13-12-12--|
G|-------------------------------9-------------------------------------------|
D|---------------------------------------------------------------------------|
A|---------------------------------------------------------------------------|
D|---------------------------------------------------------------------------|

e|---------------------------------------------------------------------------|
B|-12-15-13~-----------------------------------------------------------------|
G|---------------------------------------------------------------------------|
D|---------------------------------------------------------------------------|
A|---------------------------------------------------------------------------|
D|---------------------------------------------------------------------------|

Guitar2
e|---------------------------------------------------------------------------|
B|-10~-10-10-12-8-------------------------10~-10-10-12-8-----------------10-9|
G|----------------9-9-9-10~-10-10-----/9~----------------9-9/10-10-10-12-----|
D|---------------------------------10----------------------------------------|
A|---------------------------------------------------------------------------|
D|---------------------------------------------------------------------------|

e|---------------------------------------------------------------------------|
B|-9-9-10-12-10~-------------------------------------------------------------|
G|---------------------------------------------------------------------------|
D|---------------------------------------------------------------------------|
A|---------------------------------------------------------------------------|
D|---------------------------------------------------------------------------|

REPEAT VERSE 2:43
REPEAT BRIDGE HARMONY 3:10
REPEAT CHORUS 3:24


RHYTHM SOLO INTRO
(played at end of chorus)

e|---------------------------------------------------------------------------|
B|---------------------------------------------------------------------------|
G|---------------------------------------------------------------------------|
D|-xx-9------xx-9---xx9xx7xx10xx9--------------------------------------------|
A|-xx-7------xx-7---xx7xx5xx-8xx7--------------------------------------------|
D|---------------------------------------------------------------------------|


SOLO SECTION: 4:00
(SEE UNDER SOLO FOR WHAT RHYTHM IS PLAYING)

PRE-SOLO HARMONIES
Guitar1
e|--------------------------------------------------------------|
B|-13-13-13-13-13/15-17\13-13\10/15\10-10\8-12-12-12-13/15~-----|
G|--------------------------------------------------------------| 
D|--------------------------------------------------------------| x2
A|--------------------------------------------------------------|
D|--------------------------------------------------------------|

Guitar2
e|--------------------------------------------------------------|
B|-10-10-10-10/12-13\-8-8\5-5/10\6-6-5-8-8-8/10/12~-------------|
G|--------------------------------------------------------------|
D|--------------------------------------------------------------| x2
A|--------------------------------------------------------------|
D|--------------------------------------------------------------|


SOLO HARMONY
Guitar1
e|-17p12---------15p12---------17p13---------15p12---------17p12-----------|
B|------h13--X5-------h13--X5-------h15--X5-------h13--X5-------h13--X5----|
G|-------------------------------------------------------------------------|
D|-------------------------------------------------------------------------|
A|-------------------------------------------------------------------------|
D|-------------------------------------------------------------------------|

e|-15p12---------17p13--------1617161516171615-19201918--------------------|
B|------h13--X5-------h15--X5------------------------------------13-14-15--|
G|------------------------------------------------------13-14-16-----------|
D|-------------------------------------------------------------------------|
A|-------------------------------------------------------------------------|
D|-------------------------------------------------------------------------|

Guitar2
e|-12p8--------12p8--------13p10--------12p7----12p8--------12p8-----------|
B|-----h10-X5-------h8-X5-------h10-X5------h8------h10-X5------h8--X5-----|
G|-------------------------------------------------------------------------|
D|-------------------------------------------------------------------------|
A|-------------------------------------------------------------------------|
D|-------------------------------------------------------------------------|

e|-13p10---------1213121112131211-15161514---------------------------------|
B|------h10--X5------------------------------------------------------------|
G|-------------------------------------------------------------------------|
D|-------------------------------------------------------------------------|
A|-------------------------------------------------------------------------|
D|-------------------------------------------------------------------------|


SOLO 4:27

e|---------------------12121212/171717171717171717----------------------17-|
B|-10101010101313131313----------------------------1313131313/1818181818---|
G|-------------------------------------------------------------------------|
D|-------------------------------------------------------------------------|
A|-------------------------------------------------------------------------|
D|-------------------------------------------------------------------------|

e|171717161616161616--------------------12121212/1717171717/19191919/202020|
B|------------------10101010101313131313-----------------------------------|
G|-------------------------------------------------------------------------|
D|-------------------------------------------------------------------------|
A|-------------------------------------------------------------------------|
D|-------------------------------------------------------------------------|

e|2020\19191919\1111111111-------------------------------------------------|
B|-------------------------------------------------------------------------|
G|-------------------------------------------------------------------------|
D|-------------------------------------------------------------------------|
A|-------------------------------------------------------------------------|
D|-------------------------------------------------------------------------|

e|-17-12---------12-19-12-17-12------12-19-12-17-12------12-17-12-16-12----|
B|------13----13---------------13--13--------------13--13--------------13--|
G|---------14--------------------14------------------14------------------13|
D|-------------------------------------------------------------------------|
A|-------------------------------------------------------------------------|
D|-------------------------------------------------------------------------|

e|---12-16-12-----------------------12121212/171717\1212121313131111111212|
B|-13----------10101010101313131313--------------------------------------|
G|-------------------------------------------------------------------------|
D|-------------------------------------------------------------------------|
A|-------------------------------------------------------------------------|
D|-------------------------------------------------------------------------|

e|-------------------------------------------------------------------------|
B|12121212121213131313-----------------------------------------------------|
G|--------------------1313131313-14~---------------------------------------|
D|-------------------------------------------------------------------------|
A|-------------------------------------------------------------------------|
D|-------------------------------------------------------------------------|

e|------------------------------------------------------12-15b17~----------|
B|-------------------12-15-15b17~--------------13-14-15--------------------|
G|-------------12-14---------------------13-14-----------------------------|
D|-------13-14---------------------13-14-----------------------------------|
A|-12-15-------------------------------------------------------------------|
D|-------------------------------------------------------------------------|

e|----------------15-16-17-19b20r19-17-15b17r15-12-------------------------|
B|-------15-16-17----------------------------------15-13~-13-15-13~--------|
G|-14-17-------------------------------------------------------------------|
D|-------------------------------------------------------------------------|
A|-------------------------------------------------------------------------|
D|-------------------------------------------------------------------------|

e|-----------12-12--------------------12-13--------------------13-16b17~\--|
B|13h14h15h16-----12----------------12-----13----------------13------------|
G|------------------13------------13---------14------------14--------------|
D|--------------------14--------14-------------15--------15----------------|
A|----------------------15-12-15-----------------17-13-17------------------|
D|-------------------------------------------------------------------------|


RHYTHM DURING SOLO 4:00
e|-------------------------------------------------------------------------|
B|-------------------------------------------------------------------------|
G|-------------------------------------------------------------------------|   
D|-2-22-2-22-2-xx-5-55-5-55-5-5-7-77-7-77-7-7------------------------------|
A|-0-00-0-00-0-xx-3-33-3-33-3-3-5-55-5-55-5-5-5-55-55----------------------|
D|--------------------------------------------5-55-55-7-9~-----------------|
     **   **        **   **   *   **   **   *   **

e|-------------------------------------------------------------------------|
B|-------------------------------------------------------------------------|
G|-------------------------------------------------------------------------|   
D|-2-22-2-22-2-xx-5-55-5-55-5-5-7-77-7-77-7-xx9xx7xx10xx9------------------|
A|-0-00-0-00-0-xx-3-33-3-33-3-3-5-55-5-55-5-xx7xx5xx-8xx7------------------|
D|-------------------------------------------------------------------------| x2
     **   **        **   **   *   **   **  

4:28
e|----------------------------------------|
B|----------------------------------------|
G|----------------------------------------|   
D|----------------------------------------|
A|-7-7777-7-7777-2-22-3-3333-3-3333-6-66--| x4
D|-7-7777-7-7777-2-22-3-3333-3-3333-6-66--|
     ****   ****   **   ****   ****   **

4:41
e|-------------------------------------------------------------------------|
B|-------------------------------------------------------------------------|
G|-------------------------------------------------------------------------|   
D|----------------------------------------------------------4-xx-5---------|
A|-7-7777-7-7777-7-77-6-6666-6-6666-6-66-5-5555-5-5555-5-55-4-xx-3---------|
D|-7-7777-7-7777-7-77-6-6666-6-6666-6-66-5-5555-5-5555-5-55-4-xx-3---------|
     ****   ****   **   ****   ****   **   ****   ****   ** 

e|-------------------------------------------------------------------------|
B|-------------------------------------------------------------------------|
G|-------------------------------------------------------------------------|   
D|-xx9xx7xx10xx9xx---------------------------------------------------------|
A|-xx7xx5xx-8xx7xx-7-------------------------------------------------------|
D|-----------------7-------------------------------------------------------|

BREAKDOWN 4:59
       
e|-------------------------------------------------------------------------|
B|-------------------------------------------------------------------------|
G|-------------------------------------------------------------------------|   
D|-------------------------------------------------------------------------|
A|-2-22-2-22-2-2-2-22-2-22-2-2-2-22-2-22-2-2-2-22-2-22-2-2-----------------|
D|-2-22-2-22-2-2-2-22-2-22-2-2-2-22-2-22-2-2-2-22-2-22-2-2-----------------|
     **   **   *   **   **   *   **   **   *   **   **   *

  5:05
e|--------------------------------------------------------------|
B|--------------------------------------------------------------|
G|--------------------------------------------------------------|   
D|--------------------------------------------------------------|
A|-2-22-2-22-2-2-2-22-2-22-2-2-2-22-2-22-2-2-555-44-3-----------| X3
D|-2-22-2-22-2-2-2-22-2-22-2-2-2-22-2-22-2-2-555-44-3-----------|
     **   **   *   **   **   *   **   **   *   


Guitar1  5:26
e|-------------------------------------------------------------------------|
B|-------------------------------------------------------------------------|
G|-------------------------------------------------------------------------|   
D|-------------------------------------------------------------------------|
A|-------------------------------------------------------------------------|
D|-6-6-6-7~/9~-7-7-7-9~-10~---6-6-6-7~/9~-7-7-7-9~-10~---------------------|

Guitar2  
e|-------------------------------------------------------------------------|
B|-------------------------------------------------------------------------|
G|-------------------------------------------------------------------------|   
D|-------------------------------------------------------------------------|
A|-2-2-2-3~/5~-3-3-3-5~-7~---2-2-2-3~/5~-3-3-3-5~-7~-----------------------|
D|-------------------------------------------------------------------------|


5:33
e|--------------------------------------------------------------|
B|--------------------------------------------------------------|
G|--------------------------------------------------------------|   
D|--------------------------------------------------------------|
A|-2-22-2-22-2-2-2-22-2-22-2-2-2-22-2-22-2-2-555-44-3-----------| X2
D|-2-22-2-22-2-2-2-22-2-22-2-2-2-22-2-22-2-2-555-44-3-----------|
     **   **   *   **   **   *   **   **   *   

Guitar1  5:46
e|-------------------------------------------------------------------------|
B|-------------------------------------------------------------------------|
G|-------------------------------------------------------------------------|   
D|-------------------------------------------------------------------------|
A|-------------------------------------------------------------------------|
D|-6-6-6-7~/9~-7-7-7-9~-10~---6-6-6-7~/9~-7-7-7-9~-10~---------------------|

Guitar2  
e|-------------------------------------------------------------------------|
B|-------------------------------------------------------------------------|
G|-------------------------------------------------------------------------|   
D|-------------------------------------------------------------------------|
A|-2-2-2-3~/5~-3-3-3-5~-7~---2-2-2-3~/5~-3-3-3-5~-7~-----------------------|
D|-------------------------------------------------------------------------|


SOLO 5:53 (Rhythm underneath)
Guitar1
e|-------------------------------------------------------------------------|
B|-15b17~--15b17r15-12-----------------------------------------------12-15-|
G|---------------------14-14b16r14-12h14-14b16-12~-------------12-13-------|   
D|-------------------------------------------------14\---12-14-------------|
A|-------------------------------------------------------------------------|
D|-------------------------------------------------------------------------|

e|-12-17-15-12----------------16-13-12----------16-13-12-------------------|
B|-------------17-15-15-12-12----------16-13-12----------16-13-12-15b17~~--|
G|-------------------------------------------------------------------------|   
D|-------------------------------------------------------------------------|
A|-------------------------------------------------------------------------|
D|-------------------------------------------------------------------------|

e|--------18-17-----17-15~----------------------------------18-17-----17-15|
B|-17--17-------17------------------------------------17--17-----17--------|
G|---16-----------16--------15-13-15-13-----15-14-13~---16---------16------|   
D|--------------------------------------14-13------------------------------|
A|-------------------------------------------------------------------------|
D|-------------------------------------------------------------------------|

e|-18b20-18b20~~-----------------------------------------------------------|
B|-------------------------------------------------------------------------|
G|-------------------------------------------------------------------------|   
D|-------------------------------------------------------------------------|
A|-------------------------------------------------------------------------|
D|-------------------------------------------------------------------------|

Guitar2
e|----------------------------------------------------------------------|
B|----------------------------------------------------------------------|
G|----------------------------------------------------------------------|   
D|----------------------------------------------------------------------|
A|-2-22-2-22-2-2-2-22-2-22-2-2-2-22-2-22-2-2-2-22-2-22-2-2--------------| X2
D|-2-22-2-22-2-2-2-22-2-22-2-2-2-22-2-22-2-2-2-22-2-22-2-2--------------|
     **   **   *   **   **   *   **   **   *   **   **   *

6:07
e|--------------------------------|
B|--------------------------------|
G|--------------------------------|   
D|--------------------------------|
A|-2--5-4--3-2-222-222-222--------| X4
D|-2--5-4--3-2-222-222-222--------|

e|--------------------------------|
B|--------------------------------|
G|--------------------------------|   
D|--------------------------------|
A|-2--5-4--3-2-2222-2222-2222-----| X4
D|-2--5-4--3-2-2222-2222-2222-----|

e|---------------------------------------------|
B|---------------------------------------------|
G|---------------------------------------------|   
D|---------------------------------------------|
A|-2--5-4--3-2-222-222-222--2--5-4--3-2--------| 
D|-2--5-4--3-2-222-222-222--2--5-4--3-2--------|

========================================================================
Natural Born Killer
Tabbed By: ferp

(Uncomplete. Apologies)


Intro

e|--------------------------------------------------------------------------|
B|--------------------------------------------------------------------------|
G|--------------------------------------------------------------------------|
D|--------------------------------------------------------------------------|
A|-----------------------------------------------------8-/-11---------------|
D|--0-0-0-0-12-0-0-0-11-0-0-0-12-0-0-0-8-0-0-0-7-0-0-0-8-/-11---------------|   x8



e|-----------------------Synyster Gates goes rad about here-----------------|
B|--------------------------------------------------------------------------|
G|--------------------------------------------------------------------------|
D|--------------------------------------------------------------------------|
A|--------------------------------------------------------------------------|
D|-1-1-1-1-1-1-1-1-1-1-1-1-1-1-1-1-1-1-1-1-1-1-1-1-1-1-1-1-1-1-1-1-----PING-|



Main Riff

e|--------------------------------------------------------------------------|
B|--------------------------------------------------------------------------|
G|--------------------------------------------------------------------------|
D|--------------------------------------------------------------------------|
A|--0-----------------------------------------------------------------------|
D|--0--0-0-0-0-3p0-5p0-7p0-6p0-5p0-3p0-0-0-0-0-0-0-0-0-0000000000000000-----| x2



Verse

e|------------------------------------------------------------------------|
B|------------------------------------------------------------------------|
G|------------------------------------------------------------------------|
D|------------------------3-/-6-------------------------------------------|
A|--0---------------------1-/-4-------------------------------------------|
D|--0--0-0-0-0-0-0-0-0-0-0------------------------------------------------| x2



e|--------------------------------------------------------------------------|
B|--------------------------------------------------------------------------|
G|--------------------------------------------------------------------------|
D|--------------------------------------------------------------------------|
A|--0-----------------------------------------------------------------------|
D|--0-0-0-0-0-0-0-0-0-0-0-0-0-0-0-0-5p0-7p0-8p0-7p0-5p0-7p0-5p0-7p0---------|



e|--------------------------------------------------------------------------|
B|--------------------------------------------------------------------------|
G|--------------------------------------------------------------------------|
D|--8----8----8--8----8----8--8----8----8--88888888-/-10--------------------|
A|--6----6----6--6----6----6--6----6----6--66666666-/-8---------------------|
D|--------------------------------------------------------------------------|



e|--------------------------------------------------------------------------|
B|--------------------------------------------------------------------------|
G|--------------------------------------------------------------------------|
D|--------------------------------------------------------------------------|
A|--0-----------------------------------------------------------------------|
D|--0--0-0-0-0-3p0-5p0-7p0-6p0-5p0-3p0-0-0-0-0-0-0-0-0-0000000000000000-----|



e|--------------------------------------------------------------------------|
B|--------------------------------------------------------------------------|
G|--------------------------------------------------------------------------|
D|--8----8----8--8----8----8--8----8----8--88888888-/-10--------------------|
A|--6----6----6--6----6----6--6----6----6--66666666-/-8---------------------|
D|--------------------------------------------------------------------------|



e|-------------------------------------------------------------------------|
B|-------------------------------------------------------------------------|
G|-------------------------------------------------------------------------|
D|-------------------------------------------------------------------------|
A|--0----------------------------------------------------------------------|
D|--0--0-0-0-0-3p0-5p0-7p0-6p0-5p0-3p0-0-0-0-0-0-0-0-0-0000000000000000----|



bridge
e|--------------------------------------------------------------------------|
B|--------------------------------------------------------------------------|
G|-10~~~~~~~~--7~~~~~~~~--10~~~~~~~--7~~~~~~~~--12~~~-13~~~-----------------|
D|-10~~~~~~~~--7~~~~~~~~--10~~~~~~~--7~~~~~~~~--12~~~-13~~~-----------------|
A|--8~~~~~~~~--5~~~~~~~~--8~~~~~~~~--5~~~~~~~~--10~~~-11~~~-----------------|
D|--8~~~~~~~~--5~~~~~~~~--8~~~~~~~~--5~~~~~~~~--10~~~-11~~~-----------------|


ref.
e|------------------------------------------------------------------------|
B|------------------------------------------------------------------------|
G|--7--7--7-7--9--9--9-9--10-10-1010-7--7--7-7----------------------------|
D|--7--7--7-7--7--7--7-7--8--8--8-8--5--5--5-5----------------------------|
A|--5--5--5-5--7--7--7-7--8--8--8-8--5--5--5-5----------------------------|
D|--0--0--0-0--7--7--7-7--8--8--8-8--5--5--5-5----------------------------| x4


e|-------------------------------------------------------------------------|
B|-------------------------------------------------------------------------|
G|-------------------------------------------------------------------------|
D|--8-8--8-8--8-8--8-8--8--------------------------------------------------|
A|--6-6--6-6--6-6--6-6--6--------------------------------------------------|
D|-------------------------------------------------------------------------|


Repeat from Main riff


e|------------------------------------------------------------------------|
B|------------------------------------------------------------------------|
G|------------------------------------------------------------------------|
D|--5---0-1---8--8888-7-5-5553-2------------------------------------------|
A|--5---0-1---6--6666-5-3-5551-0------------------------------------------|
D|--5---0-1---------------------------------------------------------------| x8



e|-------------------------------------------------------------------------|
B|-------------------------------------------------------------------------|
G|-------------------------------------------------------------------------|
D|--8-8--8-8--8-8--8-8--8-------1---1---1---1---1--------------------------|
A|--6-6--6-6--6-6--6-6--6-------1---1---1---1---1--------------------------|
D|------------------------------1---1---1---1---1--------------------------|



Solo and stuff.. Will figure that one out later.


hope you enjoy this tab :) its my first ever.
- ferp

=============================================================================
So Far Away
Tabbed by: xxav3ng3d7xx
Email: xxav3ng3d7xx@aim.com

Tuning: Standard

Here's a new song off A7X's new album, Nightmare. One of my 
favorite songs, and pretty easy to play. Listen to the song 
for the strumming, very easy to figure out. Also, the timing 
on the solos are a bit off with some notes, listen to the 
solos to get a feel for the notes. 
Note - the 2nd solo sounds the same when repeated, but there 
are slight variations each time, pay attention to those.


 Em                        Em
  Never feared for anything
                             Em
  Never shamed but never free
    G                     D
  A laugh that healed the broken heart 
       Bm          C
  With all that it could

 Em                          Em
  Lived the life so endlessly
                            Em
  Saw beyond what others see
    G                  D
  I tried to heal your broken heart
       Bm         C
  With all that I could

  C
  Will you stay?
  D
  Will you stay away forever?

  Em                        G
  How do i live without the ones i love?
  Am                                Em             D                         
  Time still turns the pages of the book it's burned
  Em                    G
  Place and time always on my mind
    Am                                C       D
  I have so much to say but you're so far away

 Em                               Em
  Plans of what our features hold
                              Em
  Foolish lies of growin' old
     G                  D           Bm          C
  It seems we're so invincible, the truth is so cold

 Em                            Em
  A final song, a last request
                                 Em
  A perfect chapter laid to rest
  G              D             Bm          C
  Now and then I try to find a place in my mind

        C
  Where you can stay
  D
  You can stay awake forever


  Em                        G
  How do I live without the ones i love?
  Am                                Em             D                         
  Time still turns the pages of the book it's burned
  Em                    G
  Place and time always on my mind
    Am                                C       D
  I have so much to say but you're so far away

  E                C
  Sleep tight, I'm not afraid
      Am                      Em
  The ones that we love are here with me
  E          C   
  Lay away a place for me
            D                            C
  'Cause as soon as I'm done, I'll be on my way
     D
  To live eternally


  Solo 1
e|--------------------------------------------------------------------------|
B|--------9--12-12b13r12--8v-----/10--10h12p10v-----------------------------|
G|--/9--------------------------------------------/9-12-12/14-14b16r14-12v\-|
D|--------------------------------------------------------------------------|
A|--------------------------------------------------------------------------|
E|--------------------------------------------------------------------------|

e|--------------------------------------------------------------------------|
B|--------9--12-12b13r12--8v-----/15-15-17-17--19--19-20-17v----15-20b22r20-|
G|--/9----------------------------------------------------------------------|
D|--------------------------------------------------------------------------|
A|--------------------------------------------------------------------------|
E|--------------------------------------------------------------------------|

e|--------------------------------------------------------------------------|
B|-19-15---17b19r17v--------------------------------------------------------|
G|--------------------------------------------------------------------------|
D|--------------------------------------------------------------------------|
A|--------------------------------------------------------------------------|
E|--------------------------------------------------------------------------|


  Em                        G
  How do I live without the ones i love?
  Am                                Em             D                         
  Time still turns the pages of the book it's burned
  Em                    G
  Place and time always on my mind
          Am                                 C          D
  And the light you left remains but it's so hard to stay  
         Am                                C       D    Em
  When I have so much to say and you're so far away

  
Break - chords are played with arpeggios 

Em - D - Am - G - D 
Em - D - C 
Em - D - Am - G - D
Em - D - C

Solo 2
                          \done very quickly/  
                              \each time/
e|--------------------------------------------------------------------|
B|--/17----19--20--13----12--10--12p10s8------------------------------|
G|------------------------------------------/11v-/16-16\9-9/12v-------|
D|--------------------------------------------------------------------|
A|--------------------------------------------------------------------|
E|--------------------------------------------------------------------|

e|--------------------------------------------------------------------|
B|--/17----19--20--13----12--10--12p10s8------------------------------|
G|------------------------------------------/11v-/16-16\9-9/12v-------|
D|--------------------------------------------------------------------|
A|--------------------------------------------------------------------|
E|--------------------------------------------------------------------|

e|----------------------------|
B|----------------------------|
G|-/12v-11v--/16-16\9/12v-----|
D|----------------------------|
A|----------------------------|
E|----------------------------|

e|-------------------------------------------------------------------------|
B|--/17----19--20--13----12b13r12-10--12p10s8------------------------------|
G|-----------------------------------------------/11v-/16-16\9-9/12v-------|
D|-------------------------------------------------------------------------|
A|-------------------------------------------------------------------------|
E|-------------------------------------------------------------------------|

e|-------------------------------------------------------------------|
B|--/17----19--20--13---15-17-15-13-15-12--12-13-10---12p10s8--------|
G|-------------------------------------------------------------------|
D|-------------------------------------------------------------------|
A|-------------------------------------------------------------------|
E|-------------------------------------------------------------------|

e|-------------------------------------------------------|
B|-------------------------------------------------------|
G|--/11v-/16-16\9-9/12v-12b13r12v--11v--/16-16\9-9/12v---|
D|-------------------------------------------------------|
A|-------------------------------------------------------|
E|-------------------------------------------------------|

e|---------------------------------------------------------|
B|---------------------------------------------------------|
G|--/12v--11v--/16-16\9-9/12v----/12v--11v--/16-16\9-9/12v-|
D|---------------------------------------------------------|
A|---------------------------------------------------------|
E|---------------------------------------------------------|

e|-------------------------------------------------------|
B|-------------------------------------------------------|
G|--/12--11--7/9vvvvvv(9)v-------------------------------|
D|-------------------------------------------------------|
A|-------------------------------------------------------|
E|-------------------------------------------------------|

Solo lyrics:
I love you
You were ready
The pain is strong enough to despise
But I'll see you
When He lets me
Your pain is gone, your hands are tied

So far away
And I need you to know

So far away
And I need you to, need you to know...


Legend:
b   - bend up to fret
h   - hammer on
p   - pull off
s   - slide 
/   - slide up to
\   - slide down from
( ) - pinch harmonic
v   - vibrato
vvv - heavy vibrato

===========================================================================
God Hates Us
Tabbed By: Max la menace

I'll tab the solo soon. The bends at the chorus were weird to tab!  

Drop D

Clean 

||--5-------5-------3-------3-------1-------1-------0-------0-------|
||----6-------6-------5-------5-------3-------3-------3-------3-----|
||------7-------7-------5-------5-------2-------2-------3-------3---|
||--0-----0-------0-0-----0-------0-0-----0-------0-0-----0-------0-|
||------------------------------------------------------------------|
||------------------------------------------------------------------|

|-5-------5-------3-------3-------1-------1-------0-------0---0-1--|
|---6-------6-------5-------5-------3-------3-------3-------1------|
|-----7-------7-------5-------5-------2-------2-------3------------|
|-0-----0-------0-0-----0-------0-0-----0-------0-0-----0----------|
|------------------------------------------------------------------|
|------------------------------------------------------------------|


|--5-------5-------3-------3-------1-------1-------0-------0-------|
|----6-------6-------5-------5-------3-------3-------3-------3-----|
|------7-------7-------5-------5-------2-------2-------3-------3---|
|--0-----0-------0-0-----0-------0-0-----0-------0-0-----0-------0-|
|------------------------------------------------------------------|
|------------------------------------------------------------------|
|
|------------------------------------------------------------------|
|-10\----------13=S8======S13----8-10-8-6-------6--6s8-6-----------|
|-10\----------14=S9======S14----9-10-9-7-------7--7s9-7-7-----7/--|
|--------------------------------------------------------8-----7/--|
|------------------------------------------------------------------|
|------------------------------------------------------------------|


|-5-------5-------3-------3-------1-------1-------0-------0---0-1--|
|---6-------6-------5-------5-------3-------3-------3-------1------|
|-----7-------7-------5-------5-------2-------2-------3------------|
|-0-----0-------0-0-----0-------0-0-----0-------0-0-----0----------|
|------------------------------------------------------------------|
|------------------------------------------------------------------|
|
|------------------------------------------------------------------|
|-10\----------13=S8======S13----8-10-8-6-------6--6s8-6-----------|
|-10\----------14=S9======S14----9-10-9-7-------7--7s9-7-7---------|
|--------------------------------------------------------8-----7---|
|------------------------------------------------------------------|
|------------------------------------------------------------------|


|-------------------------------------------------------------------|
|-2-------2-------3-------3-------10-------5-------3-------3--------|
|---0-------0-------0-------0--------0-------0-------0-------0------|
|-----2-------2-------3-------3--------11\-----5-------3-------3----|
|-0-----0-------0-0-----0-------0-0--------------0-0-----0-------0--|
|-------------------------------------------------------------------|
|
|--------------------------------------------------------------------|
|---------------------------------10-------8-------6-----------------|
|-6-------6-7-9S==12--10-9-10-----10-------9-------7-----------------|
|-7-------7-------12-------------------------------------------------|
|--------------------------------------------------------------------|
|--------------------------------------------------------------------|
|
|--------------------------------------------------------------------|
|--------------------------------------------------------------------|
|--<6~----(6)-------7~------------14~------12b14r12-10~--------------|
|--------------------------------------------------------------------|
|--------------------------------------------------------------------|
|--------------------------------------------------------------------|


|---------------------------------------------------------|
|-2-------2-------3------3-------10--------13-------------|
|---0-------0-------0------0--------0---------0-----------|
|-----2-------2-------3------3--------10--------14--------|
|-0-----0-------0-0-----0------0---------0---------0------|
|---------------------------------------------------------|
|
|------------------15--13-12-13---------------------------|
|-14-----14-15-17--15-------------13-------17-------------|
|-14-----14-----------------------14-------17-------------|
|---------------------------------------------------------|
|---------------------------------------------------------|
|---------------------------------------------------------|
|							 /1\1/ ~~~~~	
|---------------------------------------------------------||--------|
|---------------------------------------------------------||--[15]~-|
|-9~------9~==s10s12s10~==========s14~====s17~------------||--[15]~-|
|---------------------------------------------------------||--------|
|---------------------------------------------------------||--------|
|---------------------------------------------------------||--------|


Riff 1 (Disto)
                                  X7 (After 4x, the 2nd guitar comes in)
||--------------------------------||-----------------------------------------|
||--------------------------------||-----------------------------------------|
||o------------------------------o||-----------------------------------------|
||o-7-------------7----5-----8---o||-7------------7---5-----8--1-1-1/-8-8-8--|
||--5-------------5----3-----6----||-5------------5---3-----6--1-1-1/-6-6-6--|
||----0-0-0-0-0-0----0---0-0------||--0-0-0-0-0-0---0---0-0----1-1-1/--------|

                                  X3 
||--------------------------------||-----------------------------------------|
||--------------------------------||-----------------------------------------|
||o------------------------------o||-----------------------------------------|
||o-7-------------7----5-----8---o||-7------------7---5-----8--1-1-1/-8-8-8--|
||--5-------------5----3-----6----||-5------------5---3-----6--1-1-1/-6-6-6--|
||----0-0-0-0-0-0----0---0-0------||--0-0-0-0-0-0---0---0-0----1-1-1/--------|

                                  X3 
||--------------------------------||-----------------------------------------|
||--------------------------------||-----------------------------------------|
||o------------------------------o||-----------------------------------------|
||o-7-------------7----5-----8---o||-7------------7---5-----8--1-1-1/-8-8-8--|
||--5-------------5----3-----6----||-5------------5---3-----6--1-1-1/-6-6-6--|
||----0-0-0-0-0-0----0---0-0------||--0-0-0-0-0-0---0---0-0----1-1-1/--------|


Riff 2 
||---------------------------------------------------------------||
||---------------------------------------------------------------||
||o----7-7-5-5s8-----10-10-10--8-7--------7-7-5-5s8-------------o||
||o-0--------------0-------------------0----------------1-1-1-1-o||
||--0--5-5-3-3s6---0--8--8--8--6-5-----0--5-5-3-3s6-----1-1-1-1--||
||--0--------------0-------------------0----------------1-1-1-1--||


Riff 3
|--------------------------------------------------------------------------------|
|--------------------------------------------------------------------------------|
|--------------------------------------------------------------------------------|
|--------------------------------------------------------------------------------|
|--------------------------------------------------------------------------------|
|-0-0-12-12-10-0-0-13-0-12-0-0-10-0-10-12-0-0-12-12-10-0-0-13-0-12-0-0-17-0-16-0-|

||-----------------------------------------------------------------------||
||-----------------------------------------------------------------------||
||o---------------------------------------------------------------------o||
||o------------------------------------------------------------3--6--9--o||
||-------------------------------------------------------------3--6--9---||
||--0-0-12-12-10-0-0-13-0-12-0-0-10-0-10-12-0-0-12-12-10-0-0-0-3--6--9---||

 
Riff 4                         
||-----------------------------||
||-----------------------------||
||o---------------------------o||
||o-0-/6-3-3s9-6--3-6-3-3s9-6-o||
||--0-/6-3-3s9-6--3-6-3-3s9-6--||
||--0-/6-3-3s9-6--3-6-3-3s9-6--||

|-------------------------------------------------------|
|-------------------------------------------------------|
|-------------------------------------------------------|
|-0---/6-----3----3s9---6------3----6--3---3s9----6-----|
|-0---/6-----3----3s9---6------3----6--3---3s9----6-----|
|-0---/6-----3----3s9---6------3----6--3---3s9----6-----|
|
|--------------------------------------------------------|
|-6----9-----6----12----9------6----9--6----12----9------|
|-8b10-11b13-8b10-14b16-11b13--8b10----8b10-14b16-11b13--|
|--------------------------------------------------------|
|--------------------------------------------------------|
|--------------------------------------------------------|


|-------------------------------------------------------|
|-------------------------------------------------------|
|-------------------------------------------------------|
|-0---/6-----3----3s9---6------3----6--3---3s9----6-----|
|-0---/6-----3----3s9---6------3----6--3---3s9----6-----|
|-0---/6-----3----3s9---6------3----6--3---3s9----6-----|
|
|---------------------------------------------------------|
|-6----9-----6----12----9------6----9--6----/12----9------|
|-8b10-11b13-8b10-14b16-11b13--8b10----8b10-/14b16-11b13--|
|---------------------------------------------------------|
|---------------------------------------------------------|
|---------------------------------------------------------|
|
|-----------------------------------------------------------------|
|-9-----13-----9-----15----13------9-----13--9-----/15----13------|
|-11b13-13b15--11b13-17b19-15b17---11b13-----11b13-/17b19--15b17--|
|-----------------------------------------------------------------|
|-----------------------------------------------------------------|
|-----------------------------------------------------------------|

Repeat Riff 2 
Riff 1
			        X3
||--------------------------------||-----------------------------------------|
||--------------------------------||-----------------------------------------|
||o------------------------------o||-----------------------------------------|
||o-7-------------7----5-----8---o||-7------------7---5-----8--1-1-1/-8-8-8--|
||--5-------------5----3-----6----||-5------------5---3-----6--1-1-1/-6-6-6--|
||----0-0-0-0-0-0----0---0-0------||--0-0-0-0-0-0---0---0-0----1-1-1/--------|

                                  X8
||--------------------------------||
||--------------------------------||
||o------------------------------o||
||o-7-------------7----5-----8---o||
||--5-------------5----3-----6----||
||----0-0-0-0-0-0----0---0-0------||

Repeat Riff 3, Riff 4,Riff 2
Breakdown  
                                              \1/~       
||---------------------------------------------------------------------------||
||---------------------------------------------------------------------------||
||--------------------------------------------[0]----------------------------||
||--------------------------------------------[0]----------------------------||
||-0-0-0-0---0-0-0---0-0-0-0---0-0-0----0-0-0------0-0-0---0-0-0-0---0-0-0---||
||-0-0-0-0---0-0-0---0-0-0-0---0-0-0----0-0-0------0-0-0---0-0-0-0---0-0-0---||

Riff 3
||--------------------------------------------------------------------------------|
||--------------------------------------------------------------------------------|
||o-------------------------------------------------------------------------------|
||o-------------------------------------------------------------------------------|
||--------------------------------------------------------------------------------|
||-0-0-12-12-10-0-0-13-0-12-0-0-10-0-10-12-0-0-12-12-10-0-0-13-0-12-0-0-17-0-[16]-|

|----------------------------------------------------------------------||
|----------------------------------------------------------------------||
|---------------------------------------------------------------------o||
|------------------------------------------------------------3--6--9--o||
|------------------------------------------------------------3--6--9---||
|---0-12-12-10-0-0-13-0-12-0-0-10-0-10-12-0-0-12-12-10-0-0-0-3--6--9---||

Repeat Riff 4 x16 (Solo)
Repeat Riff 2
Last time 
|-------------------------------------------------------------|-----|
|-------------------------------------------------------------|-----|
|----7-7-5-5s8-----10-10-10-8-7--------7-7-5-5s8--------------|-----|
|-0--------------0------------------0----------------1-1-1-1--|--0--|
|-0--5-5-3-3s6---0--8--8--8-6-5-----0--5-5-3-3s6-----1-1-1-1--|--0--|
|-0--------------0------------------0----------------1-1-1-1--|--0--|

Outro (Intro)
||---5-------5-------3-------3-------1-------1-------0-------0--------||
||-----6-------6-------5-------5-------3-------3-------3-------3------||
||o------7-------7-------5-------5-------2-------2-------3-------3---o||
||o--0-----0-------0-0-----0-------0-0-----0-------0-0-----0-------0-o||
||--------------------------------------------------------------------||
||--------------------------------------------------------------------||
||
||--------------------------------------------------------------------||
||---10\----------13=S8======S13----8-10-8-6-------6--6s8-6-----------||
||o--10\----------14=S9======S14----9-10-9-7-------7--7s9-7-7-----7/-o||
||o---------------------------------------------------------8-----7/-o|| (fade out) 
||--------------------------------------------------------------------||
||--------------------------------------------------------------------||


Tablature Legend
----------------
 h   - hammer-on
 p   - pull-off
 b   - bend
 pb  - pre-bend
 r   - bend release (if no number after the r, then release immediately)
 /\  - slide into or out of (from/to "nowhere")
 s   - legato slide
 S   - shift slide
 - natural harmonic
[n]  - artificial harmonic
n(n) - tapped harmonic
 ~   - vibrato
 tr  - trill
 T   - tap
 TP  - trem. picking
 PM  - palm muting
\n/  - tremolo bar dip; n = amount to dip
 \n  - tremolo bar down
 n/  - tremolo bar up
/n\  - tremolo bar inverted dip
 =   - hold bend; also acts as connecting device for hammers/pulls
 <> - volume swell (louder/softer)
 x   - on rhythm slash represents muted slash
 o   - on rhythm slash represents single note slash

Misc Legend
-----------
 |  - bar
||  - double bar
||o - repeat start
o|| - repeat end
*|  - double bar (ending)
 :  - bar (freetime)
 $  - Segno
 &  - Coda
Tempo markers -  = BPM(8/16=s8/s16), where s8 = swing 8ths, s16 = swing 16ths

============================================================================
Song: Victim
Artist: Avenged Sevenfold
Album: Nightmare (2010)
Tabbed by: shah
Standard tuning

i didnt include the fills in the verses...

  intro                                                x2
e|--------------------------------------------------------------------------|
B|---------6--4--3----------------6--4--3-----3h4p3-------------------------|
G|-------5----------------------5-------------------3-----------------------|
D|-----5----------------5-----5---------------------------------------------|
A|-3----------------------3-------------------------------------------------|
E|---3----------------------3-----------------------------------------------|

0:33 D#                                               Cm
e|------------------------------------------------------------------------------------------|
B|--8----8-9-8-------8-9-11--9-8---8-9-11-------------4----4---4---4---4--------6p4-6p4---4-|
G|--8----8-----8-----8-------------8------------------5----5-5-----5-5------------------5---|
D|--8------------8------------------------------------5----5-------5------------------------|
A|--6-------------------------------------------------3----3-------3------------------------|
E|------------------------------------------------------------------------------------------|

    D#                                          repeat intro...
e|----------------------------------------------------8---------------------|
B|--9p8-----9p8-9-8-------------4/-8----------------------------------------|
G|--8--------------------------------------------5/8------------------------|
D|--8-----------------------------------------------------------------------|
A|--6-----------------------------------------------------------------------|
E|--------------------------------------------------------------------------|

guitar 2 0:59                                 1:05
e|--8/10---10\8-------------------------------------8-------10---------11---|
B|--------------------------------------------------------------------------|
G|--5/7----7\5----------------------------------8-8---8-8/10---10-10/12-----|
D|--------------------------------------------------------------------------|
A|--------------------------------------------------------------------------|
E|--------------------------------------------------------------------------|

-----------------------------------------------------------------

chords in verse
C G# C G#
Bb G# Bb G#

C                        G#
  House full of roses A letter on the stairs

C                           G#
I tape all of messages  For anyone who cares

Bb                       G#
Closure broken words And stories full of tears

Bb                          G#
Remembering your life Cause we wish you were here

repeat chords

------------------------------------------------------------------
Chorus 

And some say this can't be real           And i've lost my power to feel, 
e|---------------------------------------------------------------------------|
B|---------------------------------------------------------------------------|
G|---5-5----5-5-5-5-5---5-5-5-5-5-5-5-5-5---5-5-5-5-5---5-5-5-5-5-5-5--------|
D|---5-5----5-5-5-5-5---5-5-5-5-5-5-5-5-5---5-5-5-5-5---5-5-5-5-5-5-5--------|
A|---3-5----3-3-3-3-3---3-3-3-3-3-3-3-3-3---3-3-3-3-3---3-3-3-3-3-3-3--------|
E|---------------------------------------------------------------------------|

tonight                We are all just victims of a crime
e|---------------------------------------------------------------------------|
B|---------------------------------------------------------------------------|
G|---3-3----3-3-3-3-3---3-3-3-3-3-3-3-8---8----------------------------------|
D|---3-3----3-3-3-3-3---3-3-3-3-3-3-3-8---8---x-5---5-5-5-5-5-5--------------|
A|---1-1----1-1-1-1-1---1-1-1-1-1-1-1-6---6---x-5---5-5-5-5-5-5--------------|
E|--------------------------------------------x-3---3-3-3-3-3-3--------------|


When all is gone and can't be regained    We can't seem to shelter the pain
e|---------------------------------------------------------------------------|
B|---------------------------------------------------------------------------|
G|---5-5----5-5-5-5-5---5-5-5-5-5-5-5-5-5---5-5-5-5-5---5-5-5-5-5-5-5--------|
D|---5-5----5-5-5-5-5---5-5-5-5-5-5-5-5-5---5-5-5-5-5---5-5-5-5-5-5-5--------|
A|---3-5----3-3-3-3-3---3-3-3-3-3-3-3-3-3---3-3-3-3-3---3-3-3-3-3-3-3--------|
E|---------------------------------------------------------------------------|

 inside             We are all just victims of a crime
e|---------------------------------------------------------------------|
B|---------------------------------------------------------------------|
G|---3-3----3-3-3-3-3---3-3-3-3-3-3-3-8---8----------------------------|
D|---3-3----3-3-3-3-3---3-3-3-3-3-3-3-8---8---x-5----------------------|
A|---1-1----1-1-1-1-1---1-1-1-1-1-1-1-6---6---x-5----------------------|
E|--------------------------------------------x-3----------------------|

-----------------------------------------------------------------------

guitar 1 
e|------------------------------|
B|---------6--4--3--------------|
G|-------5----------------------|
D|-----5------------------------|
A|-3----------------------------|
E|---3--------------------------|

guitar 2
e|---------8--------10---------12---------------|
B|----------------------------------------------|
G|-----8-8---8-8/10---10-10/12------------------|
D|----------------------------------------------|
A|----------------------------------------------|
E|----------------------------------------------|

*repeat verse*
*repeat chorus*


guitar 1 (during solo) listen for strumming pattern
e|-------------------------------------------------------------------|
B|-------------------------------------------------------------------|
G|--5---5--xx-3-5---5------------------------------------------------|
D|--5---5--xx-3-5---5---5-7-8-7-5-------------6---6--xx-6----6-6-----|
A|--3---3--xx-1-3---3---3-5-6-5-3-5-/8---6--x-6---6--xx-6----6-6-----|
E|--------------------------------3-/6---4--x-4---4--xx-4----4-4-----|


e|-------------------------------------------------------------------|
B|-------------------------------------------------------------------|
G|---------------------------------5---5--xx-3-5--5---5---3-5-8---5--|
D|-x--3--3--x-3-3--x-3--xx-3-3-x---5---5--xx-3-5--5---5---3-5-8---5--|
A|-x--3--3--x-3-3--x-3--xx-3-3-x---3---3--xx-1-3--3---3---1-3-6---3--|
E|-x--1--1--x-1-1--x-1--xx-1-1-x-------------------------------------|

guitar 2 first solo
e|-----------------------------------------------------------------------------------|
B|--12b13~~~~---13-15-16-15-13-------------------------------------------------------|
G|-----------------------------12-13/15-13-----\8---10---12---13-12-10-12-10----10---|
D|---------------------------------------------------------------------------13------|
A|-----------------------------------------------------------------------------------|
E|-----------------------------------------------------------------------------------|


e|-------------------------------------------------------------------------------|
B|--------13-16-18b20~~--b21-18-13-16b18---13h16p13----13------------------------|
G|--------------------------------------------------15----15-12-------15b17--b17~|
D|--13-15-------------------------------------------------------15-13------------|
A|-------------------------------------------------------------------------------|
E|-------------------------------------------------------------------------------|

e|--------------15-16-15---------------15-16-15---------------15-16-18b20~~~~~--|
B|-----15-16-18---------------15-16-18---------------15-16-18-------------------|
G|--17---------------------17---------------------17----------------------------|
D|------------------------------------------------------------------------------|
A|------------------------------------------------------------------------------|
E|------------------------------------------------------------------------------|



Cm                  G#                           D#
   nothing lasts forever for all good things its true 
                    G                     Cm
id rather trade it all  somehow saving you 
                   G#                          D#
must have been the season that threw us out of line 
                G                              D#
once i stood so tall now im searching for a sign 


                  Bb                          Cm
so dont need your salvation with promises and kind 
                    G#                           D#
and all those speculation save it for another time 
                    Bb                      Cm
cause we all need a reason a reason just to stay
                       G#                                   Cm
well some just cant be bothered to stick around another day 


pre solo
guitar 2
e|--------------------|
B|--------------------|
G|---5~---------------|
D|---5~---------------|
A|---3~---------------| repeat 4x
E|--------------------|


guitar 1
e|---------------|----------------|-----------------|------------------|
B|--6--4--3~-----|-3-3--6--4--3---|--3-3--6--4--3---|--3--6--4--3------|
G|---------------|-5-5------------|--5-5------------|--5---------------|
D|---------------|-5-5------------|--5-5------------|--5---------------|
A|---------------|----------------|-----------------|------------------|
E|---------------|----------------|-----------------|------------------|


guitar 1 chords (during solo) listen for strumming pattern
e|---------------------------------------------------------------------|
B|---------------------------------------------------------------------|
G|--8-----------------------5------------------------------------------|
D|--8-----------8-----------5-------------6----------------------------|
A|--6-----------8-----------3-------------6----------------------------|
E|--------------6-------------------------4----------------------------| repeat


guitar 2 solo
e|---------------------------------------------------------------------|
B|--15-b16-b16~--16r15---16-------------------16-----------------------|
G|--------------------------15---12---15b17-------b17-15-12-15b17r15---|
D|---------------------------------------------------------------------|
A|---------------------------------------------------------------------|
E|---------------------------------------------------------------------|

e|---------------------------------------------------------------------------18-------------------|
B|--------------------------------------------------/11-11---9--/16~---18b20------b20r18--16------|
G|--10b12r10b12~~--8----8---10-8-10b12---8----8----------------------------------------------15---|
D|-------------------10--------------------10-----------------------------------------------------|
A|------------------------------------------------------------------------------------------------|
E|------------------------------------------------------------------------------------------------|

e|-------------------------------------------------------------------------------|
B|--20-16-15-20-15-16-15---------------------------------------------------------|
G|-----------------------15-19\15----15------15----------------------------------|
D|--------------------------------17----17-15------17----------------------------|
A|----------------------------------------------18----18-17-18-17----------------|
E|----------------------------------------------------------------18-13-11/15----|


e|---------------------------------------------------------------------|
B|---------------------------------------------------------------------|
G|--------------------------------15-------17-------19~---b20r19-17----|
D|--/13-12---13-12-13/15-----8/12----12/15----15/17--------------------|
A|---------------------------------------------------------------------|
E|---------------------------------------------------------------------|

e|-------15-18-b20--15------------------15-18-b20--r18p16p15-16b18-r16-16---18-----------15--16-15~|
B|----16---------------16------------16------------------------------------------16--18------------|
G|-17---------------------15-17~--17---------------------------------------------------------------|
D|-------------------------------------------------------------------------------------------------|
A|-------------------------------------------------------------------------------------------------|
E|-------------------------------------------------------------------------------------------------|

*repeat chorus*

  im missin you....(capo on 3rd fret)       x4
e|--------------------------|
B|---------3--1--0----------|
G|-------2------------------|
D|-----2------------------2-|
A|-0------------------------|
E|---0----------------------|

(capo on 3rd fret) 
e|---------------------------------------------------------------------------------------------|
B|--0h1p0-----------1----------------1---------------1---------------1---------------1---------|
G|--------0-----0-----0----------0-----0---0-----0-----0---------0-----0---------2-----2-------|
D|------------2---2-----2------2---2-----2-----2---2-----2-----2---2-----2-----2---2-----2-----|
A|----------3-------------3------------------3-------------3---------------3-0-------------3-0-|
E|---------------------------------------------------------------------------------------------|

e|-------------------------------------------------------------------------------------------------|
B|------0---------------1-------3-------1---------------1--------------1--------------1-----3-----1|
G|--2-----2---------2-----2---2---2---2---2---------0-----0--------0-----0---0-----0----0-----0----|
D|2---2-----2-----2---2-----2-------2-------2-----2---2-----2----2---2-----2-----2---2----2-----2--|
A|------------3-0-----------------------------0-3-------------3----------------3-------------------|
E|-------------------------------------------------------------------------------------------------|


e|-------------------------------------------------------------------------------------------------|
B|--1---------------1-------0-------0-------1-------1-------3-------3-------5-------5-------6------|
G|0---0---------2-----2-------2-------2-------2-------2-------2-------2-------5-------5-------5----|
D|------2-----2---2-----2-------2-------2-------2-------2-------2-------2-------5-------5-------5--|
A|--------3-0-------------0-------0-------0-------0-------0-------0-------0-------3-------3-------3|
E|-------------------------------------------------------------------------------------------------|


e|--------------------------------------------0---0---------------3-----------0---0---------------|
B|6-------5-------5-------3-------1-----------1-1---1---1-----3-----3---3-------1-1-1-0-1-3-0-----|
G|--5-------5-------5-------0---0---0---0---2---------2-----4---4-----4-4---2-------------4---2---|
D|----5-------5-------5-------2-------2-----------------------------------------------------------|
A|------3-------3-------3-----------------0---------------0---------------0---------------------0-|
E|------------------------------------------------------------------------------------------------|


e|--------0-------0-------1-------1-------3-------3-------|
B|3-0-----1-1-----1-1-----1-------1-------3-------3-------|
G|4---2-------0-------0-----0-------0-------0-------0-----|
D|--------------2-------2-----0-------0-------0-------0---|
A|------0-----------------------3-------3-------3-------3-|
E|--------------------------------------------------------|



e|----------------------|
B|---5-3---5-3---3-5-1~-|
G|---5-4-4-5-4-4-4-5-2~-|
D|-------5-----5--------|
A|----------------------|
E|----------------------|

end.

********************
/=slide
h=hammer on
p-pull of
b=bend
r=release bend
~=let ring
x=mute string

********************

p.s If you think this song is supposed to be played in drop c or some other 
tuning, feel free to submit your own tab.
Thanks for viewing. :)

============================================================================
Tonight the World Dies
Tabbed By: VintageBassline

Artist - Avenged Sevenfold
Album - Nightmare
Track - Tonight The World Dies
Guitar 1 tuning - Dropped D (DADGBE) - Lightly Distorted/Clean
Guitar 2 tuning - Standard (EADGBE) - Acoustic

NB - When Guitar 1+2 is stated, Guitar 1 is tabbed and Guitar 2's chords shown above the bar
   - Guitar 1 is only clean during the chorus

Key:
/   slide up
\   slide down
h   hammer-on
p   pull-off
~   vibrato
+   harmonic
x   Mute note
b   Bend
pb  Pre-bend
br  Bend release
pbr Pre-bend release
brb Bend release bend
()  Optional notes
Repeats more than x2 shown above the bar

Chords used:
    Em    C   Am    G    E    B    D
e|---0----0----0----3----0----2----2----------------------|
B|---0----1----1----3----0----4----3----------------------|
G|---0----0----2----0----1----4----2----------------------|
D|---2----2----2----0----2----4----0----------------------|
A|---2----3----0----2----2----2---------------------------|
E|---0--------------3----0--------------------------------|

Intro
Guitar 1
e|--------------------------------|--------------------------------|
B|--------------------------------|--------------------------------|
G|--------------------------------|--------------------------------|
D|--------------------------------|--------------------------------|
A|--------------------------------|--------------------------------|
D|--------------------------------|--------------------------------|

e|--------------------------------|--------------------------------|
B|--------------------------------|--------------------------------|
G|--------------------------------|--------------------------------|
D|------------------------12b14---|--------------r12-------/-------|
A|--------------------------------|--------------------------------|
D|--------------------------------|--------------------------------|

e|--------------------------------|--------------------------------|
B|--------------------------------|--------------------------------|
G|--------------------------------|--------------------------------|
D|-17-----------------------------|--------------------------------|
A|--------------------------------|--------------------------------|
D|--------------------------------|--------------------------------|

e|--------------------------------|--------------------------------|
B|--------------------------------|--------------------------------|
G|-----------------------19---16--|-19---16----------\-------------|
D|--------------17b19-------------|--------------------------------|
A|--------------------------------|--------------------------------|
D|--------------------------------|--------------------------------|

e|--------------------------------|--------------------------------|
B|--------------------------------|--------------------------------|
G|--------------------------------|--------------------------------|
D|--------------------------------|--------------------------------|
A|--------------------------------|--------------------------------|
D|--------------------------------|--------------------------------|

e|--------------------------------|--------------------------------|
B|--------------------------------|--------------------------------|
G|-------14b15---r14--------------|-12b13---r12-12---11------------|
D|--------------------------------|-----------------------12-------|
A|--------------------------------|--------------------------------|
D|--------------------------------|--------------------------------|

e|--------------------------------|--------------------------------|
B|--------------------------------|--------------------------------|
G|--------------------------------|--------------------------------|
D|-/----14------------------------|--------------------------------|
A|--------------------------------|--------------------------------|
D|--------------------------------|--------------------------------|

e|--------------------------------|--------------------------------|
B|-19b20----r19-------------------|-17b18r17---17------------------|
G|--------------------------------|-----------------16----/----17--|
D|--------------------------------|--------------------------------|
A|--------------------------------|--------------------------------|
D|--------------------------------|--------------------------------|

Guitar 2
e|--------------------------------|--------------------------------|
B|o-------------------------------|--------------------------------|
G|--------------------------------|--------------------------------|
D|-2----------------2---------2---|---2---2-------2---2---2------2-|
A|o2----------------2---------2---|---2---2-------2---2---2------2-|
E|--------------------------------|--------------------------------|
                                                                 x4
e|--------------------------------|--------------------------------|
B|--------------------------------|-------------------------------o|
G|-4----------------4---------4---|---4---4-------4---4---4------4-|
D|-2----------------2---------2---|---2---2-------2---2---2------2-|
A|-1----------------1---------1---|---1---1-------1---1---1------1o|
E|--------------------------------|--------------------------------|

Verse 1
Guitar 1+2
   C                                
e|--------------------------------|--------------------------------|
B|--------------------------------|--------------------------------|
G|--------------------------------|--------------------------------|
D|--------------------------------|--------------------------------|
A|--------------------------------|--------------------------------|
D|--------------------------------|--------------------------------|
   Em                               
e|--------------------------------|--------------------------------|
B|--------------------------------|--------------------------------|
G|-------------------------14---\-|-12------------11b12r11---------|
D|--------------------------------|--------------------------------|
A|--------------------------------|--------------------------------|
D|--------------------------------|--------------------------------|
   C                               
e|--------------------------------|--------------------------------|
B|--------------------------------|--------------------------------|
G|-11---\---9---------------------|--------------------------------|
D|--------------------------------|--------------------------------|
A|--------------------------------|--------------------------------|
D|--------------------------------|--------------------------------|
   Em                                
e|--------------------------------|--------------------------------|
B|--------------17b19-------------|-19---\---17--------------------|
G|--------------------------------|------------------------16------|
D|--------------------------------|--------------------------------|
A|--------------------------------|--------------------------------|
D|--------------------------------|--------------------------------|
   C                                
e|--------------------------------|--------------------------------|
B|--------------------------------|--------------------------------|
G|-16b17--------------------------|--------------------------------|
D|--------------------------------|--------------------------------|
A|--------------------------------|--------------------------------|
D|--------------------------------|--------------------------------|
   Em
e|--------------------------------|--------------------------------|
B|--------------------------------|--------------------------------|
G|---------------16--------\------|-12--------------\--------------|
D|--------------------------------|--------------------------------|
A|--------------------------------|--------------------------------|
D|--------------------------------|--------------------------------|
   Am                                
e|--------------------------------|--------------------------------|
B|--------------------------------|--------------------------------|
G|-9------------------------------|--------------------------------|
D|--------------------------------|--------------------------------|
A|--------------------------------|--------------------------------|
D|--------------------------------|--------------------------------|
   G                                
e|--------------------------------|--------------------------------|
B|--------------------------------|--------------------------------|
G|--------------------------------|--------------------------------|
D|--------------------------------|-12---\---10--------------------|
A|--------------------------------|--------------------------------|
D|--------------------------------|--------------------------------|

Pre Verse 2
Guitar 1
e|--------------------------------|--------------------------------|
B|--------------------------------|--------------------------------|
G|--------------------------------|--------------------------------|
D|--------------------------------|--------------------------------|
A|-12b14--------------------------|--------------------------------|
D|--------------------------------|--------------------------------|

e|--------------------------------|--------------------------------|
B|-------------------------15-----|--15---15b17--------------------|
G|-----------14b16-------------15-|--------------------------------|
D|--------------------------------|--------------------------------|
A|--------------------------------|--------------------------------|
D|--------------------------------|--------------------------------|

e|--------------------------------|--------------------------------|
B|--------------------------------|--------------------------------|
G|--------------------------------|--------------------------------|
D|--------------------------------|--------------------------------|
A|--------------------------------|--------------------------------|
D|--------------------------------|--------------------------------|

e|--------------------------------|--------------------------------|
B|-17-\-15------15-\-13-----------|-12b14r12-------12-------\------|
G|--------------------------------|--------------------------------|
D|--------------------------------|--------------------------------|
A|--------------------------------|--------------------------------|
D|--------------------------------|--------------------------------|

Guitar 2
e|--------------------------------|--------------------------------|
B|o-------------------------------|--------------------------------|
G|--------------------------------|--------------------------------|
D|-2----------------2---------2---|---2---2-------2---2---2------2-|
A|o2----------------2---------2---|---2---2-------2---2---2------2-|
E|--------------------------------|--------------------------------|
                                                                 
e|--------------------------------|--------------------------------|
B|--------------------------------|-------------------------------o|
G|-4----------------4---------4---|---4---4-------4---4---4------4-|
D|-2----------------2---------2---|---2---2-------2---2---2------2-|
A|-1----------------1---------1---|---1---1-------1---1---1------1o|
E|--------------------------------|--------------------------------|

Verse 2
Guitar 1+2
   C
e|--------------------------------|--------------------------------|
B|-8------------------------------|--------------------------------|
G|--------------------------------|--------------------------------|
D|--------------------------------|--------------------------------|
A|--------------------------------|--------------------------------|
D|--------------------------------|--------------------------------|
   Em
e|--------------------------------|--------------------------------|
B|-------------12---------/-------|-17----------\----------12---/--|
G|--------------------------------|--------------------------------|
D|--------------------------------|--------------------------------|
A|--------------------------------|--------------------------------|
D|--------------------------------|--------------------------------|
   C
e|--------------------------------|--------------------------------|
B|-13-----------------------------|--------------------------------|
G|--------------------------------|--------------------------------|
D|--------------------------------|--------------------------------|
A|--------------------------------|--------------------------------|
D|--------------------------------|--------------------------------|
   Em
e|--------------15---\---12---/---|-19-----------19---\---15---/---|
B|--------------------------------|--------------------------------|
G|--------------------------------|--------------------------------|
D|--------------------------------|--------------------------------|
A|--------------------------------|--------------------------------|
D|--------------------------------|--------------------------------|
   C
e|-20-----------------------------|--------------------------------|
B|--------------------------------|--------------------------------|
G|--------------------------------|--------------------------------|
D|--------------------------------|--------------------------------|
A|--------------------------------|--------------------------------|
D|--------------------------------|--------------------------------|
   Em
e|--------------------------------|--------------------------------|
B|--------------------------------|--------------------------------|
G|--------------------------------|--------------------------------|
D|--------------------------------|--------------------------------|
A|--------------------------------|--------------------------------|
D|--------------------------------|--------------------------------|
   Am
e|--------------------------------|--------------------------------|
B|--------------------------------|--------------------------------|
G|--------------------------------|--------------------------------|
D|-12b14-------r12----------------|----------------14---------\----|
A|--------------------------------|--------------------------------|
D|--------------------------------|--------------------------------|
   G
e|--------------------------------|--------------------------------|
B|--------------------------------|--------------------------------|
G|--------------------------------|--------------------------------|
D|-12-----------------------------|--------------------------------|
A|--------------------------------|--------------------------------|
D|--------------------------------|--------------------------------|

Chorus
Guitar 1+2
Em - C - Em - C - Am - C

Pre Verse 3
Guitar 1
e|--------------------------------|--------------------------------|
B|/16b18--------------------------|--------------------------------|
G|--------------------------------|--------------------------------|
D|--------------------------------|--------------------------------|
A|--------------------------------|--------------------------------|
D|--------------------------------|--------------------------------|

e|--------------------------------|--------------------------------|
B|-----------15b17r15-------------|--------------------------------|
G|--------------------------------|-17b19r17-------17b19r17--------|
D|--------------------------------|--------------------------------|
A|--------------------------------|--------------------------------|
D|--------------------------------|--------------------------------|

e|--------------------------------|--------------------------------|
B|--------------------------------|--------------------------------|
G|--------------------------------|------------------14-/-16---\---|
D|--------------------------------|--------------------------------|
A|--------------------------------|--------------------------------|
D|--------------------------------|--------------------------------|

e|--------------------------------|--------------------------------|
B|--------------------------------|--------------------------------|
G|-12-----------------------------|---------------11b13r11---------|
D|--------------------------------|--------------------------------|
A|--------------------------------|--------------------------------|
D|--------------------------------|--------------------------------|

Guitar 2
e|--------------------------------|--------------------------------|
B|o-------------------------------|--------------------------------|
G|--------------------------------|--------------------------------|
D|-2----------------2---------2---|---2---2-------2---2---2------2-|
A|o2----------------2---------2---|---2---2-------2---2---2------2-|
E|--------------------------------|--------------------------------|
                                                                 
e|--------------------------------|--------------------------------|
B|--------------------------------|-------------------------------o|
G|-4----------------4---------4---|---4---4-------4---4---4------4-|
D|-2----------------2---------2---|---2---2-------2---2---2------2-|
A|-1----------------1---------1---|---1---1-------1---1---1------1o|
E|--------------------------------|--------------------------------|

Verse 3
Guitar 1+2
   C
e|--------------------------------|--------------------------------|
B|--------------------------------|--------------------------------|
G|--------------------------------|--------------------------------|
D|-12-/-14------------------------|--------------------------------|
A|--------------------------------|--------------------------------|
D|--------------------------------|--------------------------------|
   Em
e|--------------------------------|--------------------------------|
B|-------19b20r19--------17-------|-17---\---15------15------------|
G|--------------------------------|-------------------------16-----|
D|--------------------------------|--------------------------------|
A|--------------------------------|--------------------------------|
D|--------------------------------|--------------------------------|
   C                                
e|--------------------------------|--------------------------------|
B|--------------------------------|--------------------------------|
G|-16-/-17------------------------|--------------------------------|
D|--------------------------------|--------------------------------|
A|--------------------------------|--------------------------------|
D|--------------------------------|--------------------------------|
   Em                                
e|--------------------------------|--------------------------------|
B|-----------------12b13r12b13r12-|--------------------------------|
G|--------------------------------|--------------------------------|
D|--------------------------------|---------------14b16r15r14------|
A|--------------------------------|--------------------------------|
D|--------------------------------|--------------------------------|
   C                                
e|--------------------------------|--------------------------------|
B|--------------------------------|--------------------------------|
G|--------------------------------|--------------------------------|
D|--------------------------------|--------------------------------|
A|--------------------------------|--------------------------------|
D|--------------------------------|--------------------------------|
   Em                                
e|--------------------------------|--------------------------------|
B|--------------------------------|--------------------------------|
G|--------------------------------|--------------------------------|
D|--------------------------------|--------------------------------|
A|--------------------------------|--------------------------------|
D|--------------------------------|--------------------------------|
   Am                                
e|--------------------------------|--------------------------------|
B|--------------------------------|--------------------------------|
G|--------------------------------|--------------------------------|
D|-14b16--------------------------|--------------------------------|
A|--------------------------------|--------------------------------|
D|--------------------------------|--------------------------------|
   G
e|--------------------------------|--------------------------------|
B|---------15b17------------------|--------------------------------|
G|--------------------------------|-16b18b16b18b16-----------------|
D|--------------------------------|--------------------------------|
A|--------------------------------|--------------------------------|
D|--------------------------------|--------------------------------|

Chorus
Guitar 1+2
Em - C - Em - C - Am - C - Am - C

Pre Solo
Guitar 1+2
E - B - C - D - E - B - C - D

Solo
Guitar 1+2
   D                                E
e|---------------------10-12-14-15|-17b19--------------------------|
B|---------10----10-12------------|--------------------------------|
G|----9-11----12------------------|--------------------------------|
D|-12-----------------------------|--------------------------------|
A|--------------------------------|--------------------------------|
D|--------------------------------|--------------------------------|
                                    C
e|--------------19-\-17-----------|--------------------------------|
B|------------------------17--17--|---------------15-\-17b19r17b19-|
G|--------------------------------|--------------------------------|
D|--------------------------------|--------------------------------|
A|--------------------------------|--------------------------------|
D|--------------------------------|--------------------------------|
                                    E
e|--------------------------------|--------------------------------|
B|--------------17b19----17b19----|----------------------15---17---|
G|--------------------------------|--------------------------------|
D|--------------------------------|--------------------------------|
A|--------------------------------|--------------------------------|
D|--------------------------------|--------------------------------|
                                    C
e|--------------------------------|-15\----------------------------|
B|--------------------------------|----------------------15---17---|
G|--------------------------------|--------------------------------|
D|--------------------------------|--------------------------------|
A|--------------------------------|--------------------------------|
D|--------------------------------|--------------------------------|
                                    Am
e|--------------------------------|--------------------------------|
B|--------------------------------|--------------------------------|
G|-----------------------------12\|-9------------------------------|
D|--------------------------------|--------------------------------|
A|--------------------------------|--------------------------------|
D|--------------------------------|--------------------------------|
                                    C
e|--------------------------------|--------------------------------|
B|--------------------------------|----------------15------17------|
G|--\---14------14------16--------|-17-----------------------------|
D|--------------------------------|--------------------------------|
A|--------------------------------|--------------------------------|
D|--------------------------------|--------------------------------|
                                    Am
e|--------------------------------|--------------------------------|
B|--------------------------------|-14-----------------------15-14-|
G|--------------------------------|-----------------------14-------|
D|--------------------------------|--------------------------------|
A|--------------------------------|--------------------------------|
D|--------------------------------|--------------------------------|
                                    C
e|--------------------------------|--------------------------------|
B|--------------------------------|--------------------------------|
G|-14-------------14--16--15b17---|--------------------------------|
D|-----14------14-----------------|--------------------------------|
A|---------16---------------------|--------------------------------|
D|--------------------------------|--------------------------------|

e|--------------------------------|
B|--------------------------------|
G|15b16-1412----------------------|
D|-----------14-12----------------|
A|-----------------1012-----------|
D|-----------------------12--14---|   

Outro
Guitar 1
e|--------------------------------|--------------------------------|
B|--------------------------------|--------------------------------|
G|--------------------------------|--------------------------------|
D|--------------------------------|--------------------------------|
A|--------------------------------|--------------------------------|
D|--------------------------------|--------------------------------|

e|--------------------------------|--------------------------------|
B|--------------------------------|--------------------------------|
G|-------------14b16--------------|-------16------16---\---14------|
D|--------------------------------|--------------------------------|
A|--------------------------------|--------------------------------|
D|--------------------------------|--------------------------------|

e|--------------------------------|--------------------------------|
B|--------------------------------|--------------------------------|
G|-14---/---16--------------------|--------------------------------|
D|--------------------------------|--------------------------------|
A|--------------------------------|--------------------------------|
D|--------------------------------|--------------------------------|

e|--------------------------------|--------------------------------|
B|--------------17---\---15---/---|-17---/---20--------------------|
G|--------------------------------|--------------------------------|
D|--------------------------------|--------------------------------|
A|--------------------------------|--------------------------------|
D|--------------------------------|--------------------------------|

e|--------------------------------|--------------------------------|
B|--------------------------------|--------------------------------|
G|--------------------------------|--------------------------------|
D|--------------------------------|--------------------------------|
A|--------------------------------|--------------------------------|
D|--------------------------------|--------------------------------|

e|--------------------------------|--------------------------------|
B|--------------------------------|--------------------------------|
G|--------------------------------|---------19------19------19-----|
D|--------------12--------/-------|-16-----------------------------|
A|--------------------------------|--------------------------------|
D|--------------------------------|--------------------------------|

e|--------------------------------|--------------------------------|
B|--------------------------------|--------------------------------|
G|-19b21--------------------------|--------------------------------|
D|--------------------------------|--------------------------------|
A|--------------------------------|--------------------------------|
D|--------------------------------|--------------------------------|

e|--------------------------------|
B|--------------------------------|
G|--------------------------------|
D|--------------------------------|
A|--------------------------------|
D|--------------------------------|

Guitar 2
e|--------------------------------|--------------------------------|
B|o-------------------------------|--------------------------------|
G|--------------------------------|--------------------------------|
D|-2----------------2---------2---|---2---2-------2---2---2------2-|
A|o2----------------2---------2---|---2---2-------2---2---2------2-|
E|--------------------------------|--------------------------------|
                                                                 x3
e|--------------------------------|--------------------------------|
B|--------------------------------|-------------------------------o|
G|-4----------------4---------4---|---4---4-------4---4---4------4-|
D|-2----------------2---------2---|---2---2-------2---2---2------2-|
A|-1----------------1---------1---|---1---1-------1---1---1------1o|
E|--------------------------------|--------------------------------|

e|-0------------------------------|
B|-0------------------------------|
G|-0------------------------------|
D|-2------------------------------|
A|-2------------------------------|
E|-0------------------------------|

===========================================================================
Fiction
Tabbed by: sugarcomblary

Here's what I think is pretty close to the song. Im pretty sure the "Not that I could" 
is wrong, it's just a guess so please feel free to message me any corrections. This is my 
tab, so please be nice. Happy playing :D

Tuning: Standard (EADGBe)

Intro:

 part A            (x8)(x2)                            part B      (x1)(x1)
e|-8--7--8-------------------|-----------------------------------------------|
B|----------9--5--8--9--8----|-------11-11-11--13-13-13--17-17-17------------|
G|---------------------------|---10------------------------------------------|
D|---------------------------|-----------------------------------------------|
A|---------------------------|-----------------------------------------------|
E|---------------------------|-----------------------------------------------|

Verse: (This part works well if you have a seperate guitar to play the part on the high 
string at the end)

                                                                  (x2)
e|--0--------0-----------0-----0----------1------333--111--0-----------------|
B|--1-----------1--------1--------1-------1----------------------------------|
G|--0--------------0-----0-----------0----2----------------------------------|
D|--2--------------------2----------------3----------------------------------|
A|--3--------------------3----------------3----------------------------------|
E|--x--------------------x----------------1----------------------------------|

Repeat Intro (Part A) x2 and (Part B) x1
Verse (x2)

"Not that I could, or that I would..."
(Please send me a message if you have any corrections for this or any other parts :) )

 Play each section 3 times, before switching to the next, 3 times. (or just listen to 
song)

e|--------------------------------|------------------------------------------|
B|--------------------------------|----------------13------------------------|
G|----------------13--------------|--------------------14--------------------|
D|-----12-------------14----------|--------12-------------15-----------------|
A|-12------12-------------15------|----12-----12-----------------------------|
E|--------------------------------|------------------------------------------|

Repeat Intro (Part A) x2 and (Part B) x1
Verse (x2)
"Not That I could" section (x1)

If you have 2 guitars, you can get one guitar to play this the whole time, and have the 
part played by the other guitar over this the third time.

(x4)
e|---------------------------------------------------------------------------|
B|---------------------------------------------------------------------------|
G|----------8---12-11-----8----11-10----7----12-11-----7-----11-10-----------|
D|--7/9--9--------------9---9---------8---8----------8---8-------------------|
A|---------------------------------------------------------------------------|
E|---------------------------------------------------------------------------|

This can either be played after playing the above section two times, or if playing with 
guitarist when they begin the above section for the 3rd time.

e|---------------------------------------------------------------------------|
B|-13---12----12-13-12-10----------------------------------------------------|
G|---------------------------12--13---5--7--8--9---7/9-10--9--7--5--4--7-----|
D|---------------------------------------------------------------------------|
A|---------------------------------------------------------------------------|
E|---------------------------------------------------------------------------|

"I hope it's worth it"
The chords are: C G Am Em Am G F G (x4)

You can do whatever strum/picking pattern you like for this part.


Well there it is. If you have any corrections, or anything you'd like to add, feel free 
message me.

************************************

| /   slide up
| \   slide down
| h   hammer-on
| p   pull-off
| ~   vibrato
| +   harmonic
| x   Mute note
| b   Bend
| pb  Pre-bend
| br  Bend release
| pbr Pre-bend release
| brb Bend release bend

************************************

===========================================================================
Save Me
Tabbed By: Unregistered

hey guys im chris. okay guys first of all, this is my first tab.
i really liked this song and since there were no tabs i tried to do it myself. 
its still not complete but with your guys's help, maybe we can complete this awesome song. 
please email me at this email: everythingthatmakesyouhappy@hotmail.com 
and make the subject: "savemetab"
(yeah i know its a long email, sorry)

here it is:

Bass intro (0:00-0:15)

  Guitar 1 (0:16-0:44)

e|-------------------------------------------------------------------------|
B|-----------------10-11~-10~-11p10p9-10~---------10-11~-10~-9~-8~---------|
G|--------------10-----------------------------10--------------------------|
D|----12~---/12----------------------------/12-----------------------------|
A|-------------------------------------------------------------------------|
D|-------------------------------------------------------------------------|

  Guitar 1:
 
e||------------------------------------------------------------------------|
B||------/8-10~-8~-7~----------7~-8~---------------------------------------|
G||------------------9~-7~-9~-------7~-------------------------------------|
D||------------------------------------------------------------------------|
A||------------------------------------------------------------------------|
D||------------------------------------------------------------------------|
 ||
 ||Guitar 2:
 ||
e||------------------------------------------------------------------------|
B||-----/5--7~-5~-3~-2~-0~-2~-3~-5~-0~-------------------------------------|
G||------------------------------------------------------------------------|
D||------------------------------------------------------------------------|
A||------------------------------------------------------------------------|
D||------------------------------------------------------------------------|
 
  Guitar 1:
 
e||--/10~--10-10~--9--/12~--10~--/10--10-10~--9--/12~-10-------------------|
B||-------------------------------------------------------10-12-14~--------|
G||------------------------------------------------------------------------|
D||------------------------------------------------------------------------|
A||------------------------------------------------------------------------|
D||------------------------------------------------------------------------|
 ||
 ||Guitar 2:
 ||
e||------------------------------------------------------------------------|
B||--/19~--19-19~--17-/20~--19~--/18~-18-18~--17--/20~-18\-13--15--17~-----|
G||------------------------------------------------------------------------|
D||------------------------------------------------------------------------|
A||------------------------------------------------------------------------|
D||------------------------------------------------------------------------|

  Guitar 1:

e||--/17--17--16--16---------------------------------17~--19~--17~---------|
B||-------------------14h17p14~-------------13--/17------------------------|
G||------------------------------------------------------------------------|
D||------------------------------------------------------------------------|
A||------------------------------------------------------------------------|
D||------------------------------------------------------------------------|
 ||
 ||Guitar 2:
 ||
e||------------/17--17--16--16---------------------------------------------|
B||-----------------------------14h17p14~---11---13--13---15---13~---------|
G||------------------------------------------------------------------------|
D||------------------------------------------------------------------------|
A||------------------------------------------------------------------------|
D||------------------------------------------------------------------------|

  Both Guitars(0:45-0:52)

e|-------------------------------------------------------------------------|
B|-------------------------------------------------------------------------|
G|-------------------------------------------------------------------------|
D|-----0--00000--00000--0000000000000--00000--00000--0000000000000---------|
A|-----0--00000--00000--0000000000000--00000--00000--0000000000000---------|
D|-----0--00000--00000--0000000000000--00000--00000--0000000000000---------|

   Guitar 1(0:53-1:00)

e||------------------------------------------------------------------|
B||------------------------------------------------------------------|
G||------------------------------------------------------------------|
D||--------0-------------0------------0-----2-3-0--------------------| x2
A||-----12---12-13----10---10-12----8---4-5--------------------------|
D||------------------------------------------------------------------|
 ||
 ||Guitar 2
 ||
e||------------------------------------------------------------------|
B||------------------------------------------------------------------|
G||------------------------------------------------------------------|
D||-----0--00000--00000--0000000000000--00000--00000--0000000000000--|x2
A||-----0--00000--00000--0000000000000--00000--00000--0000000000000--|
D||-----0--00000--00000--0000000000000--00000--00000--0000000000000--|

   Guitar 1(1:01-1:07)

e||------------------------------------------------------------------|
B||------------------------------------------------------------------|
G||-----14----14-15~----12----12--14~----10----------9-10------------|
D||--------12--------------12---------------12-11-12------12---------|x2
A||------------------------------------------------------------------|
D||------------------------------------------------------------------|
 ||
 ||Guitar 2
 ||
e||------------------------------------------------------------------|
B||------------------------------------------------------------------|
G||------------------------------------------------------------------|
D||--------0-------------0------------0-----2-3-0--------------------| x2
A||-----12---12-13----10---10-12----8---4-5--------------------------|
D||------------------------------------------------------------------|
 ||
 ||Guitar 3
 ||
e||------------------------------------------------------------------|
B||------------------------------------------------------------------|
G||------------------------------------------------------------------|
D||-----0--00000--00000--0000000000000--00000--00000--0000000000000--|x2
A||-----0--00000--00000--0000000000000--00000--00000--0000000000000--|
D||-----0--00000--00000--0000000000000--00000--00000--0000000000000--|



             (1:07-4:48)
sorry guys i know its a big chunk off the song but i havent got it yet.
please email me what you've got. 
ill also keep trying to get these other parts as well.


  Guitar 1(4:49-5:09)

e|-------------------------------------------------------------------|
B|-------------------------------------------------------------------|
G|-------------------------------------------------------------------|
D|--------7-x-x-5-x-x-8-x-x-7-x-x-5h7--------------------------------|x8
A|-----00------------------------------------------------------------|
D|-----00------------------------------------------------------------|


pre solo

solo


  Guitar 1(5:47-6:07)
(yes theyre 10's,12's,13's'14's, and 15's)
e|-----------------------101010-12b-------------101010151515-17b-----|
B|-----------------101010-----------------121212---------------------|
G|-----------101010-----------------121212---------------------------|
D|-----121212--------------------------------------------------------|
A|-------------------------------------------------------------------|
D|-------------------------------------------------------------------|

  Guitar 1

e|-----1313131010101313121212999-----101010--------------------------|
B|------------------------------10~--------101010--------------------|
G|-----------------------------------------------101010--------------|
D|-----------------------------------------------------12121214b-----|
A|-------------------------------------------------------------------|
D|-------------------------------------------------------------------|

yeah thats all i have for now. 
remember email me if you have anything to add on!!!!!!!!
we can finish this song with all your help!!!




| /   slide up
| \   slide down
| h   hammer-on
| p   pull-off
| ~   vibrato
| +   harmonic
| x   Mute note
| b   Bend

===========================================================================
Lost It All
Tabbed by: Daarikon
Email: nick.wittman@hotmail.co.uk

Tuning: Drop D: D A D G B E
Intro:
/=====================x2==================\
e|------------------------------------------------------------------------------|
B|------------------------------------------------------------------------------|
G|------------------------------------------------------------------------------|
D|----0---------0----------0---------0------------------------------------------|
A|----0-0-1-----0-3-7/-----0-0-1-----0-3-3----3-3---------------0-5s8-5---------|
D|00000-0-1-00000-3-7/-00000-0-1-00000-3-3----3-3--0-0-0-0-0-0--0-------6-3-6---|
                           \-3-/ \-3--------------------------------------------|
Verse 1 (Double speed)

  /============x4============\
e|----------------------------|
B|----------------------------|
G|----------------------------|
D|----------------------------|
A|0-0-0-0-0-0-0-5s8-5---------|
D|0-0-0-0-0-0-0-------6-3-6---|

Pre-Chorus
 /==============x2==============\
e|------------------------------|
B|------------------------------|
G|-----------------------9------|
D|2-----2--------------8---8-\--|
A|2-----2-----------7-----------|
D|2-22222-2222-5s8--------------|

Chorus
e|-----------------------------------------------------------------------------------------------|
B|-----------------------------------------------------------------------------------------------|
G|----------5-----------------3------2----------5------------------------------------------------|
D|0--0------5--------5--------3------2----0-----5-----3-----5---3--3--3--------------------------|
A|0--0------3--------2--------1------0----0-----3-----3-----5---3--3--3---0-0-0-0-0-0-5s8-5------|
D|0-00------------------------------------0-----------3-----5---3--3--3---0-0-0-0-0-0-------6-3-6|

Repeat Verse and Pre-Chorus

Chorus 2
e|------------------------------------------------------------------------------------|
B|------------------------------------------------------------------------------------|
G|------------------5-----------------------3-----2---------------5--------------3--2-|
D|0--0-0--0-0-------5-----------5-----------3-----2-----0---------5--------5-----3--2-|
A|0--0-0--0-0-------3-----------2-----------1-----0-----0---------3--------2-----1--0-|
D|0--0-0--0-0-------------------------------------------0-----------------------------|
Slow down again
/==========x3========\ /double speed\
e|------------------------------------
B|------------------------------------
G|3--3--3-3----5--5-5----3------5-----
D|3--3--3-3-3--5--5-5----3------5-----
A|1--1--1-1-3--3--3-3----1------3-----
D|----------3-------------------------

/===========================doublespeed again====================\
-----------------------------------------------------------------|
-----------------------------------------------------------------|
----------------7---7--7---5--5--5--3--3--3-3-3-3-----5------5-5-|
-5--5--5----5---7---7--7---5--5--5--3--3--3-3-3-3-----5------5-5-|
-4--4--4----4---5---5--5---3--3--3--1--1--1-1-1-1-----3------3-3-|
-----------------------------------------------------------------|

  /===================x2================\
e|----------------------------------------|
B|----------------------------------------|
G|----------------------------------------|
D|0-----0-----0-----5---0-----6---0----6--|
A|0-----0-----0-----5---0-----6---0----6--|
D|0-00000-00000-00005---0-----6---0----6--|

/======================x2===============\
e|----------------------------------------|
B|----------------------------------------|
G|----------------------------------------|
D|0-----0-----0-----5---0-----6---0----6--|
A|0-----0-----0-----5---0-----6---0----6--|
D|0-00000-00000-00005---0-----6---0----6--|
e|----------------------------------------|
/===================x2========\
B|----------------------------|
G|------------------------9---|
D|2------2--------------8---8-|
A|2------2------------7-------|
D|2--22222-2222-3---8---------|

/======================x2===============\
e|---------------------------------------------------------------------------|
B|---------------------------------------------------------------------------|
G|---------------------------------------------------------------------------|
D|0-----0-----0-----5---0-----6---0----6-------------------------------------|
A|0-----0-----0-----5---0-----6---0----6-------------------------------------|
D|0-00000-00000-00005---0-----6---0----6-------------------------------------|
e|---------------------------------------------------------------------------|


/==========================x2==========================\
e|------------------------------------------------------|
B|------------------------------------------------------|
G|------------------------------------------------------|
D|--------------5--5---5----------------7------5---3--3-|
A|8--8---8------5--5---5---7--7---7-----7------5---3--3-|
D|8--8---8------3-33--33---4-44--44-----5----333---1--1-|
e|8-88--88----------------------------------------------|

then play the verse riff 5 times and then the pre-chorus then Chorus 2


e|------------------------------------------------|-|
B|------------------------------------------------|-|
G|------------------------------------------------|-|
D|----0---------0----------0---------0------------|0|
A|----0-0-1-----0-3-7/-----0-0-1-----0-3-3----3-3-|0|
D|00000-0-1-00000-3-7/-00000-0-1-00000-3-3----3-3-|0|hold that then play that chord 6 times

************************************

| /   slide up
| \   slide down
| h   hammer-on
| p   pull-off
| ~   vibrato
| +   harmonic
| x   Mute note
| b   Bend
| pb  Pre-bend
| br  Bend release
| pbr Pre-bend release
| brb Bend release bend

************************************

============================================================================

Thanks for viewing my tab.
Please Rate!
comments
print report bad tab
I want to post or [tab]
guest
You may want to rate the tab now too:
select rating
Please do not post tabs as comments. Select "correction" instead!