Oops, an error
Loading. Please wait.

Nightmare Bass Tab

ver2
ver2
More versions @911Tabs.com
1,020 views 18 this week
no commentswrite comment
1 2 3 4 5
excellent!
x 1
Autoscroll
+/-
esc
set tempo
stop
Contributor
Tuning
D G C F A D
WARNING: You are trying to view
                                    content from Ultimate-Guitar.com
                                    in an unauthorized application,
                                    which is prohibited.

                                    Please use an official Ultimate
                                    Guitar Tabs application for iPhone,
                                    iPad or Android to access legitimate
                                    chords, guitar, bass, and drum tabs
                                    from Ultimate-Guitar.com database.

                                    Type "ultimate guitar tabs" in Apple
                                    App Store's or Android Market's
                                    search to find the application.
Tabbed by Dave Vucko

Nightmare

0:33
G|---------------------------------------------------|
D|o-------------------------------------------------o|
A|o-------------------------------------------------o|
D|--0-0-0-0-0-0-0------------------------------------|
    1 + 2 + 3 + 4 + 5 + 6 + 1 + 2 + 3 + 4 + 5 + 6 + 

G|-------------------------------------------------|
D|-------------------------------------------------|
A|-------------------------------------------------|
D|-0-0-0-0-0-0-0-------0-0-0-------0-0-0-------0-0-|
   1 + 2 + 3 + 4 + 5 + 6 + 1 + 2 + 3 + 4 + 5 + 6 + 

G|-------------------------------------------------|
D|-------------------------------------------------|
A|-------------------------------------------------|
D|-0-------0-0-0-------0-0-0-------0-0-0-------0-0-|
   1 + 2 + 3 + 4 + 5 + 6 + 1 + 2 + 3 + 4 + 5 + 6 + 

G|--------------------------------------------------|
D|o-------------------------------------------------|
A|o-------------------------------------------------|
D|--0-----------------------------------------------|
    1 + 2 + 3 + 4 + 5 + 6 + 1 + 2 + 3 + 4 + 5 + 6 + 

G|--------------------------------------------------|
D|-------------------------------------------------o|
A|-------------------------------------------------o|
D|-------------------------0-0-0-0-0-0-0-0-0-0-0-0--|
   1 + 2 + 3 + 4 + 5 + 6 + 1 + 2 + 3 + 4 + 5 + 6 + 

G|-------------------------------------------------|
D|-------------------------------------------------|
A|-1-----------------------2-----------------------|
D|-------------------------------------------------|
   1 + 2 + 3 + 4 + 5 + 6 + 1 + 2 + 3 + 4 + 5 + 6 + 

G|-------------------------------------------------|
D|-------------------------------------------------|
A|-3---3---3---3---3---3---4-----------------------|
D|-------------------------------------------------|
   1 + 2 + 3 + 4 + 5 + 6 + 1 + 2 + 3 + 4 + 5 + 6 + 

Rest

1:08
G|---------------------|
D|---------------------|
A|---------------------|
D|-3-/-12------12--\---|
   4 + 1 + 2 + 3 + 4 +

Verse
G|------------------------------------------------------------------|
D|o-----------------------------------------------------------------|
A|o-----------------------------------------------------------------|
D|--3-------3---0-------0-0-0-0-0-0-3-------3---0-------0-0-0-0-0-0-|
    1 e + a 2 e + a 3 e + a 4 e + a 1 e + a 2 e + a 3 e + a 4 e + a

G|------------------------------------------------------------------|
D|-----------------------------------------------------------------o|
A|-----------------------------------------------------------------o|
D|-3-------3---0-------0-0-0-0-0-0-6-3-5-3-5-3-0-3-6-3-5-3-5-3-0-3--|
   1 e + a 2 e + a 3 e + a 4 e + a 1 e + a 2 e + a 3 e + a 4 e + a

1:24
G|------------------------------------------------------------------|
D|o-----------------------------------------------------------------|
A|o-----------------------------------------------------------------|
D|--3---3---0---0---0---3---0---0---3---0---0---3---0---0---3---0---|
    1 e + a 2 e + a 3 e + a 4 e + a 1 e + a 2 e + a 3 e + a 4 e + a

G|------------------------------------------------------------------|
D|-----------------------------------------------------------------o|
A|-----------------------------------------------------------------o|
D|-3---0---0---3---0---0---3---0---6-3-5-3-5-3-0-3-6-3-5-3-5-3-0-3--|
   1 e + a 2 e + a 3 e + a 4 e + a 1 e + a 2 e + a 3 e + a 4 e + a

1:39 Pre Chorus
G|---------------------------------|
D|---------------------------------|
A|---------------------------------|
D|-6-3-5-3-5-3-0-3-6-3-5-3-5-3-0-3-|
   1 e + a 2 e + a 3 e + a 4 e + a 

1:41 Chorus
G|-----------------------------------------------------------------|
D|-----------------------------------------------------------------|
A|-----------------3-----------3-------------------1-------1-1-1-3-|
D|-0-----------0-------------------3-----------3-------------------|
   1 + 2 + 3 + 4 + 1 + 2 + 3 + 4 + 1 + 2 + 3 + 4 + 1 + 2 + 3 + 4 +

G|-----------------------------------------------------------------|
D|-----------------------------------------------------------------|
A|-5-----------5---3-------3-5-3-0-----------------1---------------|
D|---------------------------------3-----------3-------------------|
   1 + 2 + 3 + 4 + 1 + 2 + 3 + 4 + 1 + 2 + 3 + 4 + 1 + 2 + 3 + 4 +

G|---------------------------------|
D|---------------------------------|
A|-0-0-0-0-0-0-0-0-0---------------|
D|---------------------------------|
   1 + 2 + 3 + 4 + 1 + 2 + 3 + 4 +

G|-----------------------------------------------------------------|
D|-----------------------------------------------------------------|
A|-----------------------------------------------------------------|
D|-0-------------------------------------------------------3-/-12--|
   1 + 2 + 3 + 4 + 1 + 2 + 3 + 4 + 1 + 2 + 3 + 4 + 1 + 2 + 3 + 4 +

2:07 Verse
G|------------------------------------------------------------------|
D|o-----------------------------------------------------------------|
A|o-----------------------------------------------------------------|
D|--3-------3---0-------0-0-0-0-0-0-3-------3---0-------0-0-0-0-0-0-|
    1 e + a 2 e + a 3 e + a 4 e + a 1 e + a 2 e + a 3 e + a 4 e + a

G|------------------------------------------------------------------|
D|-----------------------------------------------------------------o|
A|-----------------------------------------------------------------o|
D|-3-------3---0-------0-0-0-0-0-0-6-3-5-3-5-3-0-3-6-3-5-3-5-3-0-3--|
   1 e + a 2 e + a 3 e + a 4 e + a 1 e + a 2 e + a 3 e + a 4 e + a

G|------------------------------------------------------------------|
D|o-----------------------------------------------------------------|
A|o-----------------------------------------------------------------|
D|--3---3---0---0---0---3---0---0---3---0---0---3---0---0---3---0---|
    1 e + a 2 e + a 3 e + a 4 e + a 1 e + a 2 e + a 3 e + a 4 e + a

G|------------------------------------------------------------------|
D|-----------------------------------------------------------------o|
A|-----------------------------------------------------------------o|
D|-3---0---0---3---0---0---3---0---6-3-5-3-5-3-0-3-6-3-5-3-5-3-0-3--|
   1 e + a 2 e + a 3 e + a 4 e + a 1 e + a 2 e + a 3 e + a 4 e + a

2:36 Pre Chorus
G|---------------------------------|
D|---------------------------------|
A|---------------------------------|
D|-6-3-5-3-5-3-0-3-6-3-5-3-5-3-0-3-|
   1 e + a 2 e + a 3 e + a 4 e + a 

2:38 Chorus
G|------------------------------------------------------------------|
D|o-----------------------------------------------------------------|
A|o-----------------3---3---3---3-------------------1---1---1---1-3-|
D|--0-----------0-------------------3---3---3---3-------------------|
    1 + 2 + 3 + 4 + 1 + 2 + 3 + 4 + 1 + 2 + 3 + 4 + 1 + 2 + 3 + 4 +

G|------------------------------------------------------------------|
D|-----------------------------------------------------------------o|
A|-----------------3---3---3-5-3-0-----------------1---1---1---1---o|
D|-0---0---0---0-------------------3---3---3---3--------------------|
   1 + 2 + 3 + 4 + 1 + 2 + 3 + 4 + 1 + 2 + 3 + 4 + 1 + 2 + 3 + 4 +

G|---------------------------------|
D|---------------------------------|
A|-0-0-0-0-0-0-0-0-0---------------|
D|---------------------------------|
   1 + 2 + 3 + 4 + 1 + 2 + 3 + 4 +

Rest

3:15 Interlude
G|--------------------------------------------------|
D|o-------------------------------------------------|
A|o-------------------------------------------------|
D|--0-----------------------------------------------|
    1 + 2 + 3 + 4 + 5 + 6 + 1 + 2 + 3 + 4 + 5 + 6 + 

G|--------------------------------------------------|
D|-------------------------------------------------o|
A|-------------------------------------------------o|
D|-0-----------------------0-0-0-0-0-0-0-0-0-0-0-0--|
   1 + 2 + 3 + 4 + 5 + 6 + 1 + 2 + 3 + 4 + 5 + 6 + 

G|-------------------------------------------------|
D|-------------------------------------------------|
A|-1-----------------------2-----------------------|
D|-------------------------------------------------|
   1 + 2 + 3 + 4 + 5 + 6 + 1 + 2 + 3 + 4 + 5 + 6 + 

G|-------------------------------------------------|
D|-------------------------------------------------|
A|-3---3---3---3---3---3---4---4---4---4---4---4---|
D|-------------------------------------------------|
   1 + 2 + 3 + 4 + 5 + 6 + 1 + 2 + 3 + 4 + 5 + 6 + 

Solo
G|o|-------------------------------------------------------------------|
D|-|o-----------------------------------------------------------------o|
A|-|o-----------------------------------------------------------------o|x3
D|o|--0-----------0-0-3---0-------0-------0-0-3---0-------0-0-3--------|
      1 e + a 2 e + a 3 e + a 4 e + a 1 e + a 2 e + a 3 e + a 4 e + a

G|-----------------------------------------------------------------o|
D|------------------------------------------------------------------|
A|-1-1-1-1-1-1-1-1-2-2-2-2-2-2-2-3-3-3-3-3-3-3-3-4-4-4-4-4-4-4-4----|
D|-----------------------------------------------------------------o|
   1 e + a 2 e + a 3 e + a 4 e + a 1 e + a 2 e + a 3 e + a 4 e + a

4:01
G|-------------------------------------------------------------------|
D|o-----------------------------------------------------------------o|
A|o-----------------------------------------------------------------o|x3
D|--0---0-0-0-0-0-0-0-0-0-0-0-0-0-0-0-0-0-0-0-0-0-0-0-0-0-0-0-0-0-0--|
    1 + 2 + 3 + 4 + 1 + 2 + 3 + 4 + 1 + 2 + 3 + 4 + 1 + 2 + 3 + 4 +

G|-----------------------------------------------------------------|
D|-----------------------------------------------------------------|
A|-1-1-1-1-1-1-1-1-1-1-1-1-1-1-1-1-1-1-1-1-1-1-1-1-1---------------|
D|-----------------------------------------------------3-----------|
   1 e + a 2 e + a 3 e + a 4 e + a 1 e + a 2 e + a 3 e + a 4 e + a

G|-------------------------------------------------------------------|
D|o-----------------------------------------------------------------o|
A|o-----------------------------------------------------------------o|x3
D|--0---0-0-0-0-0-0-0-0-0-0-0-0-0-0-0-0-0-0-0-0-0-0-0-0-0-0-0-0-0-0--|
    1 + 2 + 3 + 4 + 1 + 2 + 3 + 4 + 1 + 2 + 3 + 4 + 1 + 2 + 3 + 4 +

4:49 Bridge
G|-----------------------------------------------------------------|
D|-----------------------------------------------------------------|
A|-1-----1-1-----1-1---1---1-0-1---3-----3-3-----3-3---3---3-5-3-0-|
D|-----------------------------------------------------------------|
   1 + 2 + 3 + 4 + 1 + 2 + 3 + 4 + 1 + 2 + 3 + 4 + 1 + 2 + 3 + 4 +

G|-----------------------------------------------------------------|
D|-----------------------------------------------------7---5-------|
A|-1-----1-1-----1-1---1---1-0-1-2-3-----3-3-----3-3---------8-7-5-|
D|-----------------------------------------------------------------|
   1 + 2 + 3 + 4 + 1 + 2 + 3 + 4 + 1 + 2 + 3 + 4 + 1 + 2 + 3 + 4 +

G|-----------------------------------------------------------------|
D|---------------------------------------------------------5-------|
A|-1-----1-1-----1-1---1---1-0-1-2-3-----3-3-----3-3---3-----8-7-7-|
D|-----------------------------------------------------------------|
   1 + 2 + 3 + 4 + 1 + 2 + 3 + 4 + 1 + 2 + 3 + 4 + 1 + 2 + 3 + 4 +

G|-----------------------------------------------------------------|
D|-----------------------------------------------------------------|
A|-1-----1-1-----1-2-----2-2-----2-3-3---3-3-3---3-4---4-4-4-4-4-4-|
D|-----------------------------------------------------------------|
   1 + 2 + 3 + 4 + 1 + 2 + 3 + 4 + 1 + 2 + 3 + 4 + 1 + 2 + 3 + 4 +

Pre Chorus
G|-----------------------------------------------------------------|
D|-----------------------------------------------------------------|
A|-----------------------------------------------------------------|
D|-0---------------------------------------------------------/-12\-|
   1 + 2 + 3 + 4 + 1 + 2 + 3 + 4 + 1 + 2 + 3 + 4 + 1 + 2 + 3 + 4 +

5:26 Outro Chorus
G|-----------------------------------------------------------------|
D|-----------------------------------------------------------------|
A|-----------------3---3---3---3-------------------1---1---1---1-3-|
D|-0-----------0-------------------3---3---3---3-------------------|
   1 + 2 + 3 + 4 + 1 + 2 + 3 + 4 + 1 + 2 + 3 + 4 + 1 + 2 + 3 + 4 +

G|-----------------------------------------------------------------|
D|-----------------------------------------------------------------|
A|-----------------3---3---3-5-3-0-----------------1---1---1-1-1-1-|
D|-0---0---0---0-------------------3---3---3---3-------------------|
   1 + 2 + 3 + 4 + 1 + 2 + 3 + 4 + 1 + 2 + 3 + 4 + 1 + 2 + 3 + 4 +

G|-----------------------------------------------------------------|
D|-----------------------------------------------------------------|
A|---------------1-3---3---3-5-3-0-----------------1-------1---1-3-|
D|-0-----------0-------------------3-----------3-------------------|
   1 + 2 + 3 + 4 + 1 + 2 + 3 + 4 + 1 + 2 + 3 + 4 + 1 + 2 + 3 + 4 +

G|-----------------------------------------------------------------|
D|-----------------------------------------------------------------|
A|-5-----5-5-8-7---3-------3-5-3-0-----------------1-------1-------|
D|---------------------------------3-------3-----------------------|
   1 + 2 + 3 + 4 + 1 + 2 + 3 + 4 + 1 + 2 + 3 + 4 + 1 + 2 + 3 + 4 +

G|---------------------------------|
D|---------------------------------|
A|-0-0-0-0-0-0-0-0-0---------------|
D|---------------------------------|
   1 + 2 + 3 + 4 + 1 + 2 + 3 + 4 +

Welcome To The Family

0:06
G|------------------------------------------------------------------------|
D|o-----------------------------------------------------------------------|
A|o-----------------------------------------------------------------------|
D|--0---0-0-0-5/8---8--7---0-0-0-3/6---6--7---0---0---0-0---0-3h5-2h3-2h3-|

G|-----------------------------------------------------------------------|
D|----------------------------------------------------------------------o|
A|----------------------------------------------------------------------o|
D|-0---0-0-0-5/8---8--7---0-0-0-3/6---6--7---0---0---0-0---3---2--/7-----|

0:26
G|-------------------------------------------------------------------------|
D|o-----------------------------------------------------------------------o|
A|o-----------------------------------------------------------------------o|
D|--8---8-8---8-8---7---7---7---7---0-0-0-0-0-0-0-0-0-0-3h5p3-2h3p2-2h3p2--|

0:37
G|-------------------------------------------------------------------------------|
D|-------------------------------------------------------------------------------|
A|-----------------------------------------------------4---5-5-7-7---------------|
D|-8---8-8---8-8---8-8-8-10---10-8---7-7-7-7-7-7-7-7-7---------------7---5---3---|

0:44
G|-----------------------------------------------------------------|
D|-----------------------------------------------------------------|
A|-------------------------------------------------3-3-3-3-3-5-3-0-|
D|-0---0-0---0-0-3/8-8-8-8-8-8-8-8\3---3-3---3-3-3-----------------|

G|-----------------------------------------------------------------|
D|-----------------------------------------------------------------|
A|-----------------------------------------------------------------|
D|-0---0-0---0-0-3/8-8-8-8-8-8-8-8\3---3-3---3-3-3-7-7-7-7-7-7-7-7-|

G|-----------------------------------------------------------------|
D|-----------------------------------------------------------------|
A|-------------------------------------------------3-3-3-3-3-5-3-0-|
D|-0---0-0---0-0-3/8-8-8-8-8-8-8-8\3---3-3---3-3-3-----------------|

G|---------------------------------------------------|
D|---------------------------------------------------|
A|---------------------------------------------------|
D|-0---0-0---0-0-3/8-8-8-8-8-8-8-8-7-----5-----3-----|

1:04
G|------------------------------------------------------------------------|
D|o-----------------------------------------------------------------------|
A|o-----------------------------------------------------------------------|
D|--0---0-0-0-5/8---8--7---0-0-0-3/6---6--7---0---0---0-0---0-3h5-2h3-2h3-|

G|-----------------------------------------------------------------------|
D|----------------------------------------------------------------------o|
A|----------------------------------------------------------------------o|
D|-0---0-0-0-5/8---8--7---0-0-0-3/6---6--7---0---0---0-0---3---2--/7-----|

1:25
G|-------------------------------------------------------------------------|
D|o-----------------------------------------------------------------------o|
A|o-----------------------------------------------------------------------o|
D|--8---8-8---8-8---7---7---7---7---0-0-0-0-0-0-0-0-0-0-3h5p3-2h3p2-2h3p2--|

1:35
G|-------------------------------------------------------------------------------|
D|-------------------------------------------------------------------------------|
A|-----------------------------------------------------4---5-5-7-7---------------|
D|-8---8-8---8-8---8-8-8-10---10-8---7-7-7-7-7-7-7-7-7---------------7---5---3---|

1:42
G|-----------------------------------------------------------------|
D|-----------------------------------------------------------------|
A|-------------------------------------------------3-3-3-3-3-5-3-0-|
D|-0---0-0---0-0-3/8-8-8-8-8-8-8-8\3---3-3---3-3-3-----------------|

G|-----------------------------------------------------------------|
D|-----------------------------------------------------------------|
A|-----------------------------------------------------------------|
D|-0---0-0---0-0-3/8-8-8-8-8-8-8-8\3---3-3---3-3-3-7-7-7-7-7-7-7-7-|

G|-----------------------------------------------------------------|
D|-----------------------------------------------------------------|
A|-------------------------------------------------3-3-3-3-3-5-3-0-|
D|-0---0-0---0-0-3/8-8-8-8-8-8-8-8\3---3-3---3-3-3-----------------|

G|---------------------------------------------------|
D|---------------------------------------------------|
A|---------------------------------------------------|
D|-0---0-0---0-0-3/8-8-8-8-8-8-8-8-7-----5-----3-----|

2:02
G|---------------------------------------------------|
D|---------------------------------------------------|
A|---------------------------------------------------|
D|-0000---0000-----0000---0000-----0000-----0000-----|

G|------------------------------------------------------------|
D|------------------------------------------------------------|
A|------------------------------------------------------------|
D|-0000---0000-----0000---8p000-7p000-5p000-3p000-5p000-0-----|

2:13
G|-------------------------------------------------------------------|
D|o-----------------------------------------------------------------o|x4
A|o-----------------------------------------------------------------o|
D|--8---8-8-8-8-8-8-7---7-7-7-7-7-7-0---0-0-0-0-0-0-0-0-333-222-111--|

2:32
G|-----------------------------------------------------------------|
D|-----------------------------------------------------------------|
A|-----------------------------------------------------------------|
D|-8---8-----8-8-----8-8---8-8-8-8-7---7-----7-7---7-7-7-7-7-7-7-7-|

G|-----------------------------------------------------------------|
D|-----------------------------------------------------------------|
A|-----------------------------------------------------------------|
D|-8---8-----8-8-----8-8---8-8-8-8-7-----7-5-----5-3-------2-------|

2:42
G|-------------------------------------------------------------------------------------------------|
D|-------------------------------------------------------------------------------------------------|
A|-------------------------------------------------------------------------1----1----1-1---1---1---|
D|-0----0----0-0-----------2----2----2-2-----------3----3----3-3-------3---------------------------|

G|-------------------------------------------------------------------------------------------------|
D|-------------------------------------------------------------------------------------------------|
A|-1----1----1-1---1-1-1-/-3----3----3-3-----3-3---------------------------1----1----1-1-------1---|
D|-------------------------------------------------3----3----3-3---2h3p2---------------------------|

2:57
G|-------------------------------------------------------------------------------------------------|
D|--------------------------------------------------------------------------------------------7h8--|
A|-1----1----1-1---1---1---3----3----3-3---3-3-3------------------------------------------7h8------|
D|-------------------------------------------------3----3----3-3---2h3p2---8----8----8h10----------|

3:05
G|-------------------------------------------------------------------------------------------------|
D|-------------------------------------------------------------------------------------------------|
A|-1----1----1-1-----1p0h1-3----3----3-3---3-3-3---------------------------------------3-----3-3-3-|
D|-------------------------------------------------3-----3-----2-----2-----0-----0-----------------|

G|-----------------------------------------------------------------|
D|-----------------------------------------------------------------|
A|-1-1-----1-1-----1-1-----1-1-------------------------0-0-0-0-----|
D|-----------------------------------------------0-2-3-------------|

3:18
G|-----------------------------------------------------------------|
D|-----------------------------------------------------------------|
A|-------------------------------------------------3-3-3-3-3-5-3-0-|
D|-0---0-0---0-0-3/8-8-8-8-8-8-8-8\3---3-3---3-3-3-----------------|

G|-----------------------------------------------------------------|
D|-----------------------------------------------------------------|
A|-----------------------------------------------------------------|
D|-0---0-0---0-0-3/8-8-8-8-8-8-8-8\3---3-3---3-3-3-7-7-7-7-7-7-7-7-|

G|-----------------------------------------------------------------|
D|-----------------------------------------------------------------|
A|-------------------------------------------------3-3-3-3-3-5-3-0-|
D|-0---0-0---0-0-3/8-8-8-8-8-8-8-8\3---3-3---3-3-3-----------------|

3:33
G|---------------------------------------------------------------------------------------------|
D|---------------------------------------------------------------------------------------------|
A|---------------------------------------------------------------------------------------------|
D|-8---8---8-8---8-8---8---8-8-8-8-7----7----7----5----5----5----3----3----3----2----2----2----|

3:39
G|-------------------------------------------------------|
D|o-----------------------------------------------------o|
A|o-----------------------------------------------------o| x4
D|--0000---0000-----0000---0000-----0000-----0001-/-6----|

Danger Line

G|-----------------------------------------------------------------|
D|-----------------------------------------------------------------|
A|-----------------------------------------------------------------|
D|-0-------0--0--0-0-------0--0--0-0-------0--0--0-0-------0-------|
   1 e + a Triplet 3 e + a Triplet 1 e + a Triplet 3 e + a 4 e + a

G|-------------------------------------------------------------------|
D|o-----------------------------------------------------------------o|x3
A|o-----------------------------------------------------------------o|
D|--0-------0--0--0-0-------0--0--0-0-------0-------0-------0--0--0--|
    1 e + a Triplet 3 e + a Triplet 1 e + a 2 e + a 3 e + a Triplet

0:10 Enter Guitar
G|-----------------------------------------------------------------|
D|-----------------------------------------------------------------|
A|-----------------------------------------------------------------|
D|-0-------0--0--0-0-------0--0--0-0-------0-------0-------0-------|
   1 e + a Triplet 3 e + a Triplet 1 e + a 2 e + a 3 e + a 4 e + a

G|-------------------------------------------------------------------|
D|o-----------------------------------------------------------------o|
A|o-----------------------------------------------------------------o|
D|--0-------0--0--0-0-------0--0--0-0-------0-------0-------0--0--0--|
    1 e + a Triplet 3 e + a Triplet 1 e + a 2 e + a 3 e + a Triplet

G|-----------------------------------------------------------------|
D|-----------------------------------------------------------------|
A|-----------------------------------------------------------------|
D|-0-------0--0--0-0-------0--0--0-0-------------------------------|
   1 e + a Triplet 3 e + a Triplet 1 e + a 2 e + a 3 e + a 4 e + a

G|------------------------------------------------------------------|
D|o-----------------------------------------------------------------|
A|o-----------------------------------------------------------------|
D|--0---0---0---0---0---0---0---0---2---2---2---2---2---2---2---2---|
    1 + 2 + 3 + 4 + 1 + 2 + 3 + 4 + 1 + 2 + 3 + 4 + 1 + 2 + 3 + 4 +

G|------------------------------------------------------------------|
D|-----------------------------------------------------------------o|
A|-----------------------------------------------------------------o|
D|-5---5---5---5---5---5---5---5---1---1---1---1---1---1---1---1----|
   1 + 2 + 3 + 4 + 1 + 2 + 3 + 4 + 1 + 2 + 3 + 4 + 1 + 2 + 3 + 4 +

Rest

0:45 Verse
G|-------------------------------------------------------------------|
D|o-----------------------------------------------------------------o|
A|o-----------------------------------------------------------------o|
D|--0-----------0-----------0--0--0-0-----------0-----------0--0--0--|
    1 e + a 2 e + a 3 e + a Triplet 1 e + a 2 e + a 3 e + a Triplet 

G|-------------------------------------------------------------------|
D|o-----------------------------------------------------------------o|
A|o-----------------------------------------------------------------o|
D|--5-----------5-----------5--5--5-5-----------5-----------5--5--5--|
    1 e + a 2 e + a 3 e + a Triplet 1 e + a 2 e + a 3 e + a Triplet 

G|-----------------------------------------------------------------|
D|-----------------------------------------------------------------|
A|-----------------------------------------------------------------|
D|-0---0---3---0-------0-0-0--0--0-0---0---3---0-------0-0-0--0--0-|
   1 e + a 2 e + a 3 e + a Triplet 1 e + a 2 e + a 3 e + a Triplet 

G|-----------------------------------------------------------------|
D|-----------------------------------------------------------------|
A|-----------------------------------------------------------------|
D|-0---0---3---0-------0-0-0--0--0-0---0---3---0---0---0---3---0---|
   1 e + a 2 e + a 3 e + a Triplet 1 e + a 2 e + a 3 e + a 4 e + a

G|-----------------------------------------------------------------|
D|-----------------------------------------------------------------|
A|-----------------------------------------------------------------|
D|-5---5---8---5------5-5-5--5--5-5---5---8---5--------5-5-5--5--5-|
   1 e + a 2 e + a 3 e + a Triplet 1 e + a 2 e + a 3 e + a Triplet 

G|-----------------------------------------------------------------|
D|-----------------------------------------------------------------|
A|-----------------------------------------------------------------|
D|-5---5---8---5-------5-5-5--5--5-5---5---8---5---5---5---8---5---|
   1 e + a 2 e + a 3 e + a Triplet 1 e + a 2 e + a 3 e + a 4 e + a

Rest

1:08 Chorus
G|------------------------------------------------------------------|
D|o-----------------------------------------------------------------|
A|o-----------------------------------------------------------------|
D|--0-0-0-0-0-0-0-0-0-0-0-0-0-0-0-0-5-5-5-5-5-5-5-5-5-5-5-5-5-5-5-5-|
    1 + 2 + 3 + 4 + 1 + 2 + 3 + 4 + 1 + 2 + 3 + 4 + 1 + 2 + 3 + 4 +

G|------------------------------------------------------------------|
D|-----------------------------------------------------------------o|
A|-----------------------------------------------------------------o|
D|-5-5-5-5-5-5-5-5-5-5-5-5-5-5-5-5-0-0-0-0-0-0-0-0-0-0-0-0-0-0-0-0--|
    1 + 2 + 3 + 4 + 1 + 2 + 3 + 4 + 1 + 2 + 3 + 4 + 1 + 2 + 3 + 4 +

1:29
G|------------------------------------------------------------------|
D|o-----------------------------------------------------------------|
A|o-----------------------------------------------------------------|
D|--0---0---0---0---0---0---0---0---2---2---2---2---2---2---2---2---|
    1 + 2 + 3 + 4 + 1 + 2 + 3 + 4 + 1 + 2 + 3 + 4 + 1 + 2 + 3 + 4 +

G|------------------------------------------------------------------|
D|-----------------------------------------------------------------o|
A|-----------------------------------------------------------------o|
D|-5---5---5---5---5---5---5---5---1---1---1---1---1---1---1---1----|
   1 + 2 + 3 + 4 + 1 + 2 + 3 + 4 + 1 + 2 + 3 + 4 + 1 + 2 + 3 + 4 +

Rest

1:43 Verse
G|-------------------------------------------------------------------|
D|o-----------------------------------------------------------------o|
A|o-----------------------------------------------------------------o|
D|--0-----------0-----------0--0--0-0-----------0-----------0--0--0--|
    1 e + a 2 e + a 3 e + a Triplet 1 e + a 2 e + a 3 e + a Triplet 

G|-------------------------------------------------------------------|
D|o-----------------------------------------------------------------o|
A|o-----------------------------------------------------------------o|
D|--5-----------5-----------5--5--5-5-----------5-----------5--5--5--|
    1 e + a 2 e + a 3 e + a Triplet 1 e + a 2 e + a 3 e + a Triplet 

G|-----------------------------------------------------------------|
D|-----------------------------------------------------------------|
A|-----------------------------------------------------------------|
D|-0---0---3---0-------0-0-0--0--0-0---0---3---0-------0-0-0--0--0-|
   1 e + a 2 e + a 3 e + a Triplet 1 e + a 2 e + a 3 e + a Triplet 

G|-----------------------------------------------------------------|
D|-----------------------------------------------------------------|
A|-----------------------------------------------------------------|
D|-0---0---3---0-------0-0-0--0--0-0---0---3---0---0---0---3---0---|
   1 e + a 2 e + a 3 e + a Triplet 1 e + a 2 e + a 3 e + a 4 e + a

G|-----------------------------------------------------------------|
D|-----------------------------------------------------------------|
A|-----------------------------------------------------------------|
D|-5---5---8---5------5-5-5--5--5-5---5---8---5--------5-5-5--5--5-|
   1 e + a 2 e + a 3 e + a Triplet 1 e + a 2 e + a 3 e + a Triplet 

G|-----------------------------------------------------------------|
D|-----------------------------------------------------------------|
A|-----------------------------------------------------------------|
D|-5---5---8---5-------5-5-5--5--5-5---5---8---5---5---5---8---5---|
   1 e + a 2 e + a 3 e + a Triplet 1 e + a 2 e + a 3 e + a 4 e + a

G|-----------------------------------------------------------------|
D|-----------------------------------------------------------------|
A|-----------------------------------------------------------------|
D|-----------------------------------------------------------------|
   1 e + a 2 e + a 3 e + a 4 e + a 1 e + a 2 e + a 3 e + a 4 e + a

2:07 Chorus
G|------------------------------------------------------------------|
D|o-----------------------------------------------------------------|
A|o-----------------------------------------------------------------|
D|--0-0-0-0-0-0-0-0-0-0-0-0-0-0-0-0-5-5-5-5-5-5-5-5-5-5-5-5-5-5-5-5-|
    1 + 2 + 3 + 4 + 1 + 2 + 3 + 4 + 1 + 2 + 3 + 4 + 1 + 2 + 3 + 4 +

G|------------------------------------------------------------------|
D|-----------------------------------------------------------------o|
A|-----------------------------------------------------------------o|
D|-5-5-5-5-5-5-5-5-5-5-5-5-5-5-5-5-0-0-0-0-0-0-0-0-0-0-0-0-0-0-0-0--|
    1 + 2 + 3 + 4 + 1 + 2 + 3 + 4 + 1 + 2 + 3 + 4 + 1 + 2 + 3 + 4 +

G|-----------------------------------------------------------------|
D|-----------------------------------------------------------------|
A|-1-1-1-1-1-1-1-1-1-1-1-1-1-1-1-1---------------------------------|
D|---------------------------------1-1-1-1-1-1-1-1-1-1-1-1-1-1-1-1-|
   1 + 2 + 3 + 4 + 1 + 2 + 3 + 4 + 1 + 2 + 3 + 4 + 1 + 2 + 3 + 4 +

2:34 Bridge
G|-----------------------------------------------------------------|
D|-----------------------------------------------------------------|
A|-1-1-1-1-1-1-1-1-1-1-1-1-1-1-1-1---------------------------------|
D|---------------------------------3-3-3-3-3-3-3-3-3-3-3-3-3-3-3-3-|
   1 e + a 2 e + a 3 e + a 4 e + a 1 e + a 2 e + a 3 e + a 4 e + a

G|-----------------------------------------------------------------|
D|-----------------------------------------------------------------|
A|-3-3-3-3-3-3-3-3-3-3-3-3-3-3-3-3---------------------------------|
D|---------------------------------0-0-0-0-0-0-0-0-0-0-0-0-0-0-0-0-|
   1 e + a 2 e + a 3 e + a 4 e + a 1 e + a 2 e + a 3 e + a 4 e + a

2:45
G|-----------------------------------------------------------------|
D|-----------------------------------------------------------------|
A|-1-1-1-1-1-1-1-1-1-1-1-1-1-1-1-1---------------------------------|
D|---------------------------------3-3-3-3-3-3-3-3-3-3-3-3-3-3-3-3-|
   1 e + a 2 e + a 3 e + a 4 e + a 1 e + a 2 e + a 3 e + a 4 e + a

G|-----------------------------------------------------------------|
D|-----------------------------------------------------------------|
A|-0-0-0-0-0-0-0-0-0-0-0-0-0-0-0-0-3-3-3-3-3-3-3-3-6-6-6-6-6-6-6-6-|
D|-----------------------------------------------------------------|
   1 + 2 + 3 + 4 + 1 + 2 + 3 + 4 + 1 + 2 + 3 + 4 + 1 + 2 + 3 + 4 +

2:55
G|-----------------------------------------------------------------|
D|-----------------------------------------------------------------|
A|-1-------1--1--1-1-------1--1--1-1-------1--1--1-1-------1--1--1-|
D|-----------------------------------------------------------------|
   1 e + a Triplet 3 e + a Triplet 1 e + a Triplet 3 e + a Triplet

G|-----------------------------------------------------------------|
D|-----------------------------------------------------------------|
A|-----------------------------------------------------------------|
D|-3-------3--3--3-3-------3--3--3-3-------3--3--3-3-------3--3--3-|
   1 e + a Triplet 3 e + a Triplet 1 e + a Triplet 3 e + a Triplet

G|-----------------------------------------------------------------|
D|-----------------------------------------------------------------|
A|-----------------------------------------------------------------|
D|-2-------2--2--2-2-------2--2--2-2-------2--2--2-2-------2--2--2-|
   1 e + a Triplet 3 e + a Triplet 1 e + a Triplet 3 e + a Triplet

G|-----------------------------------------------------------------|
D|-----------------------------------------------------------------|
A|-5-------5--5--5-5-------5--5--5-8-----------7-----------5---3---|
D|-----------------------------------------------------------------|
   1 e + a Triplet 3 e + a Triplet 1 e + a 2 e + a 3 e + a 4 e + a 

3:06
G|-----------------------------------------------------------------|
D|-----------------------------------------------------------------|
A|-1-------1--1--1-1-------1--1--1-1-------1--1--1-1-------1--1--1-|
D|-----------------------------------------------------------------|
   1 e + a Triplet 3 e + a Triplet 1 e + a Triplet 3 e + a Triplet

G|-----------------------------------------------------------------|
D|-----------------------------------------------------------------|
A|-----------------------------------------------------------------|
D|-3-------3--3--3-3-------3--3--3-3-------3--3--3-3-------3--3--3-|
   1 e + a Triplet 3 e + a Triplet 1 e + a Triplet 3 e + a Triplet

G|-----------------------------------------------------------------|
D|-----------------------------------------------------------------|
A|-0-------0--0--0-0-------0--0--0-0-------0--0--0-0-------0--0--0-|
D|-----------------------------------------------------------------|
   1 e + a Triplet 3 e + a Triplet 1 e + a Triplet 3 e + a Triplet

G|-----------------------------------------------------------------|
D|-----------------------------------------------------------------|
A|-1-------1--1--1-1-------1--1--1-6---6---6---6---6---6---6---6---|
D|-----------------------------------------------------------------|
   1 e + a Triplet 3 e + a Triplet 1 e + a 2 e + a 3 e + a 4 e + a

Rest

3:59 Solo
G|-----------------------------------------------------------------|
D|-----------------------------------------------------------------|
A|-1---------------1---1-------0-------------------------------1---|
D|---------------------------------3---3---3-------3---3---3-------|
   1 e + a 2 e + a 3 e + a 4 e + a 1 e + a 2 e + a 3 e + a 4 e + a

G|-----------------------------------------------------------------|
D|-----------------------------------------------------------------|
A|-3---3---3-------3---3---3---7---5---5---5-------7-------8-------|
D|-----------------------------------------------------------------|
   1 e + a 2 e + a 3 e + a 4 e + a 1 e + a 2 e + a 3 e + a 4 e + a

G|-----------------------------------------------------------------|
D|-----------------------------------------------------------------|
A|-1---------------1---3---1---0-----------------------------------|
D|---------------------------------3---3---3-------3-----------5---|
   1 e + a 2 e + a 3 e + a 4 e + a 1 e + a 2 e + a 3 e + a 4 e + a

G|-----------------------------------------------------------------|
D|---------------------------------7---------------7---5-----------|
A|-0---------------------------7---------------------------8---7---|
D|-----------------------------------------------------------------|
   1 e + a 2 e + a 3 e + a 4 e + a 1 e + a 2 e + a 3 e + a 4 e + a

G|-----------------------------------------------------------------|
D|-----------------------------------------------------------------|
A|-1---------------1---1-------0-------------------------------1---|
D|---------------------------------3---3---3-------3---3---3-------|
   1 e + a 2 e + a 3 e + a 4 e + a 1 e + a 2 e + a 3 e + a 4 e + a

G|-----------------------------------------------------------------|
D|-----------------------------------------------------------------|
A|-3---3---3-------3---3---3---7---5---5-------5-------7---8---0---|
D|-----------------------------------------------------------------|
   1 e + a 2 e + a 3 e + a 4 e + a 1 e + a 2 e + a 3 e + a 4 e + a

G|-----------------------------------------------------------------|
D|-----------------------------------------------------------------|
A|-1---------------1---3---1---0-----------------------------------|
D|---------------------------------3---3---3-------3---3---3---5---|
   1 e + a 2 e + a 3 e + a 4 e + a 1 e + a 2 e + a 3 e + a 4 e + a

G|-----------------------------------------------------------------|
D|-----------------------------------------------------------------|
A|-0---0---0---0---0---0---0---7--/12------------------------------|
D|-----------------------------------------------------------------|
   1 e + a 2 e + a 3 e + a 4 e + a 1 e + a 2 e + a 3 e + a 4 e + a

G|-----------------------------------------------------------------|
D|-----------------------------------------------------------------|
A|-1---------------------------------------------------------------|
D|-----------------------------------------------------------------|
   1 e + a 2 e + a 3 e + a 4 e + a 1 e + a 2 e + a 3 e + a 4 e + a
Tabbed by Dave Vucko

Buried Alive

Intro
G|---------------------5-r-9-----------------------|
D|-7-----------------------------------------------|
A|-------------------------------------------------|
D|-------------------------------------------------|
   1 + 2 + 3 + 4 + 5 + 6 + 1 + 2 + 3 + 4 + 5 + 6 + 

G|-7-------------------5---------------------------|
D|-----------------------9-7-----------------------|
A|-------------------------------------------------|
D|-------------------------------------------------|
   1 + 2 + 3 + 4 + 5 + 6 + 1 + 2 + 3 + 4 + 5 + 6 + 

G|---------------------5-r-9-----------------------|
D|-7-----------------------------------------------|
A|-------------------------------------------------|
D|-------------------------------------------------|
   1 + 2 + 3 + 4 + 5 + 6 + 1 + 2 + 3 + 4 + 5 + 6 + 

G|-7---------------7-r-9-r-10----------9-----------|
D|-------------------------------------------------|
A|-------------------------------------------------|
D|-------------------------------------------------|
   1 + 2 + 3 + 4 + 5 + 6 + 1 + 2 + 3 + 4 + 5 + 6 +

0:20
G|--------------------------------------------------|
D|-7---------7h9---------9h10--------10h12----------|
A|--------------------------------------------------|
D|--------------------------------------------------|
   1 + 2 + 3 + 4 + 5 + 6 + 1 + 2 + 3 +  4 + 5 + 6 +

G|-------------------------------------------------|
D|-7---------7h9-----------12----------10--10------|
A|-------------------------------------------------|
D|-------------------------------------------------|
   1 + 2 + 3 + 4 + 5 + 6 + 1 + 2 + 3 +  4 + 5 + 6 +

G|--------------------------------------------------|
D|-7---------7h9---------9h10--------10h12------10--|
A|--------------------------------------------------|
D|--------------------------------------------------|
   1 + 2 + 3 + 4 + 5 + 6 + 1 + 2 + 3 +  4 + 5 + 6 +

G|-------------------------------------------------|
D|-7---------7h9-----------12----------10--10------|
A|-----------------------------------------------7-|
D|-------------------------------------------------|
   1 + 2 + 3 + 4 + 5 + 6 + 1 + 2 + 3 +  4 + 5 + 6 + 

G|-------------------------------------------------|
D|-7-----------5-------------------------------5---|
A|-------------------------8-----------------------|
D|-------------------------------------------------|
   1 + 2 + 3 + 4 + 5 + 6 + 1 + 2 + 3 + 4 + 5 + 6 + 

G|-------------------------------------------------|
D|-7-----------5-----------------------------------|
A|-------------------------8-----------------------|
D|-------------------------------------------------|
   1 + 2 + 3 + 4 + 5 + 6 + 1 + 2 + 3 + 4 + 5 + 6 + 

Main Riff 0:50
G|-----------------------------------------------------------------|
D|---------------------------0-2---3-----------3---2-------2-0-----|
A|-0-----0-0-r-2-r-3-------3-----------------------------------3-2-|
D|-----------------------------------------------------------------|
   1 + 2 + 3 + 4 + 1 + 2 + 3 + 4 + 1 + 2 + 3 + 4 + 1 + 2 + 3 + 4 +

G|-----------------------------------------------------------------|
D|---------------------------0-2---------------------------2-0-----|
A|-0-----0-0-r-2-r-3-------3-----------------------------------3-2-|
D|---------------------------------3-----------3---2---------------|
   1 + 2 + 3 + 4 + 1 + 2 + 3 + 4 + 1 + 2 + 3 + 4 + 1 + 2 + 3 + 4 +

G|-----------------------------------------------------------------|
D|---------------------------0-2---3---------------2-------2-0-----|
A|-0-----0-0-r-2-r-3-------3-----------------------------------3-2-|
D|-----------------------------------------------------------------|
   1 + 2 + 3 + 4 + 1 + 2 + 3 + 4 + 1 + 2 + 3 + 4 + 1 + 2 + 3 + 4 +

G|-----------------------------------------------------------------|
D|---------------------------0-2---------------------------2-0-----|
A|-0-----0-0-r-2-r-3-------3-----------------------------------3-2-|
D|---------------------------------3---------------2---------------|
   1 + 2 + 3 + 4 + 1 + 2 + 3 + 4 + 1 + 2 + 3 + 4 + 1 + 2 + 3 + 4 +

Verse 1:18
G|-------------------------------------------------------------------|
D|o---------------------------0-2-----------------------------------o|
A|o-0-----0-0-r-2-r-3-------3---------------------------------------o|x3
D|----------------------------------3-----------3---2-----------2----|
    1 + 2 + 3 + 4 + 1 + 2 + 3 + 4 + 1 + 2 + 3 + 4 + 1 + 2 + 3 + 4 +

G|-----------------------------------------------------------------|
D|---------------------------0-2-----------------------------------|
A|-0-----0-0-r-2-r-3-------3---------------------------------------|
D|---------------------------------3-----------3---2-------0---2---|
   1 + 2 + 3 + 4 + 1 + 2 + 3 + 4 + 1 + 2 + 3 + 4 + 1 + 2 + 3 + 4 +

Pre Chorus 1:45
G|-----------------------------------------------------------------|
D|-----------------------------------------------------------------|
A|-5-----5-5-8-7---3-----3-3-5-3-------------------------------2-3-|
D|---------------------------------5---------------5---5-r-3-5-----|
   1 + 2 + 3 + 4 + 1 + 2 + 3 + 4 + 1 + 2 + 3 + 4 + 1 + 2 + 3 + 4 +

G|-----------------------------------------------------------------|
D|-----------------------------------------------------------------|
A|-5-----5-5-8-7---3-----3-3-5-3-------------------7-------7---7---|
D|---------------------------------5-----------5-------------------|
   1 + 2 + 3 + 4 + 1 + 2 + 3 + 4 + 1 + 2 + 3 + 4 + 1 + 2 + 3 + 4 +

Chorus 1:59
G|-------------------------------------------------|
D|-------------------------------------------------|
A|-0-----0-0-r-------------------------------------|
D|-------------2-r-3-----3-3-----3-6-6-6-7-9-9-\---|
   1 + 2 + 3 + 4 + 1 + 2 + 3 + 4 + 1 + 2 + 3 + 4 + 

G|-----------------------------------------------------------------|
D|-----------------------------------------------------------------|
A|-0-----0-0-r-------------------------------------7-r-5-r-8-r-7-r-|
D|-------------2-r-3-----3-3-----3-6-6-6-7-9-9-\-------------------|
   1 + 2 + 3 + 4 + 1 + 2 + 3 + 4 + 1 + 2 + 3 + 4 + 1 + 2 + 3 + 4 +

G|-------------------------------------------------|
D|-------------------------------------------------|
A|-0-----0-0-r-------------------------------------|
D|-------------2-r-3-------3---3---6-6-6-7-9-9-\---|
   1 + 2 + 3 + 4 + 1 + 2 + 3 + 4 + 1 + 2 + 3 + 4 + 

G|-----------------------------------------------------------------|
D|-----------------------------------------------------------------|
A|-0-----0-0-r-------------------------------------7---------------|
D|-------------2-r-3-------3---3---6-6-6-7-9-9-\-------------------|
   1 + 2 + 3 + 4 + 1 + 2 + 3 + 4 + 1 + 2 + 3 + 4 + 1 + 2 + 3 + 4 +

G|-------------------------------------------------|
D|-------------------------------------------------|
A|-----------------7---------------7-r-5-r-8-r-7-r-|
D|-------------------------------------------------|
   1 + 2 + 3 + 4 + 1 + 2 + 3 + 4 + 1 + 2 + 3 + 4 + 

2:29 interlude
G|-----------------------------------------------------------------|
D|---------------------------0-2---3-----------3---2-------2-0-----|
A|-0-----0-0-r-2-r-3-------3-----------------------------------3-2-|
D|-----------------------------------------------------------------|
   1 + 2 + 3 + 4 + 1 + 2 + 3 + 4 + 1 + 2 + 3 + 4 + 1 + 2 + 3 + 4 +

G|-----------------------------------------------------------------|
D|---------------------------0-2---------------------------2-0-----|
A|-0-----0-0-r-2-r-3-------3-----------------------------------3-2-|
D|---------------------------------3-----------3---2---------------|
   1 + 2 + 3 + 4 + 1 + 2 + 3 + 4 + 1 + 2 + 3 + 4 + 1 + 2 + 3 + 4 +

Verse 2:42
G|-------------------------------------------------------------------|
D|o---------------------------0-2-----------------------------------o|
A|o-0-----0-0-r-2-r-3-------3---------------------------------------o|x3
D|----------------------------------3-----------3---2-----------2----|
    1 + 2 + 3 + 4 + 1 + 2 + 3 + 4 + 1 + 2 + 3 + 4 + 1 + 2 + 3 + 4 +

G|-----------------------------------------------------------------|
D|---------------------------0-2-----------------------------------|
A|-0-----0-0-r-2-r-3-------3---------------------------------------|
D|---------------------------------3-----------3---2-------0---2---|
   1 + 2 + 3 + 4 + 1 + 2 + 3 + 4 + 1 + 2 + 3 + 4 + 1 + 2 + 3 + 4 +

Pre Chorus 3:10
G|-----------------------------------------------------------------|
D|-----------------------------------------------------------------|
A|-5-------5-8-7-5-3-------3-5-3-2-----------------------------2-3-|
D|---------------------------------5---------------5---5-r-3-5-----|
   1 + 2 + 3 + 4 + 1 + 2 + 3 + 4 + 1 + 2 + 3 + 4 + 1 + 2 + 3 + 4 +

G|-----------------------------------------------------------------|
D|-----------------------------------------------------------------|
A|-5-------5-8-7-5-3-------3-5-3-2-----------------7-------7---7---|
D|---------------------------------5-----------5-------------------|
   1 + 2 + 3 + 4 + 1 + 2 + 3 + 4 + 1 + 2 + 3 + 4 + 1 + 2 + 3 + 4 +

Chorus 3:23
G|-------------------------------------------------|
D|-------------------------------------------------|
A|-0-----0-0-r-------------------------------------|
D|-------------2-r-3-----3-3-----3-6-6-6-7-9-9-\---|
   1 + 2 + 3 + 4 + 1 + 2 + 3 + 4 + 1 + 2 + 3 + 4 + 

G|-----------------------------------------------------------------|
D|-----------------------------------------------------------------|
A|-0-----0-0-r-------------------------------------7-r-5-r-8-r-7-r-|
D|-------------2-r-3-----3-3-----3-6-6-6-7-9-9-\-------------------|
   1 + 2 + 3 + 4 + 1 + 2 + 3 + 4 + 1 + 2 + 3 + 4 + 1 + 2 + 3 + 4 +

G|-------------------------------------------------|
D|-------------------------------------------------|
A|-0-----0-0-r-------------------------------------|
D|-------------2-r-3-------3---3---6-6-6-7-9-9-\---|
   1 + 2 + 3 + 4 + 1 + 2 + 3 + 4 + 1 + 2 + 3 + 4 + 

G|-----------------------------------------------------------------|
D|-----------------------------------------------------------------|
A|-0-----0-0-r-------------------------------------7---------------|
D|-------------2-r-3-------3---3---6-6-6-7-9-9-\-------------------|
   1 + 2 + 3 + 4 + 1 + 2 + 3 + 4 + 1 + 2 + 3 + 4 + 1 + 2 + 3 + 4 +

G|-----------------------------------------------------------------|
D|-----------------------------------------------------------------|
A|-----------------7---------------7-r-5-r-8-r-7-r-7---------------|
D|-----------------------------------------------------------------|
   1 + 2 + 3 + 4 + 1 + 2 + 3 + 4 + 1 + 2 + 3 + 4 + 1 + 2 + 3 + 4 +

G|-------------------------------------------------|
D|-------------------------------------------------|
A|-----------------7---------------7-r-5-r-8-r-7-r-|
D|-------------------------------------------------|
   1 + 2 + 3 + 4 + 1 + 2 + 3 + 4 + 1 + 2 + 3 + 4 + 

Solo 3:59
G|------------------------------------------------------------------|
D|o-----------------------------------------------------------------|
A|o-0-0-0-0-0-0-2-r-3-3-3-3-3-3-3-r-5-5-5-5-5-5-5-r-----------0-2---|
D|--------------------------------------------------5-5-5-5-5-------|
    1 + 2 + 3 + 4 + 1 + 2 + 3 + 4 + 1 + 2 + 3 + 4 + 1 + 2 + 3 + 4 +

G|------------------------------------------------------------------|
D|-----------------------------------------------------------------o|
A|-0-0-0-0-0-0-2-r-3-3-3-3-3-3-3-r-5-5-5-5-5-5-5-r-7-r-5-r-8-r-7-r-o|
D|------------------------------------------------------------------|
   1 + 2 + 3 + 4 + 1 + 2 + 3 + 4 + 1 + 2 + 3 + 4 + 1 + 2 + 3 + 4 +

4:26
G|-------------------------------------------------------------------|
D|o-----------------------------------------------------------------o|
A|o-----------------------------------------------------------------o|
D|--7-----7-----2---3-----3-----6---7-----7-----2---3-----3-----6----|
    1 + 2 + 3 + 4 + 1 + 2 + 3 + 4 + 1 + 2 + 3 + 4 + 1 + 2 + 3 + 4 +

G|-----------------------------------------------------------------|
D|-----------------------------------------------------------------|
A|-----------------------------------------------------------------|
D|-7------7----7---6-----6-----6---5-----5-----5---4-----4-----4---|
   1 + 2 + 3 + 4 + 1 + 2 + 3 + 4 + 1 + 2 + 3 + 4 + 1 + 2 + 3 + 4 +

G|-----------------------------------------------------------------|
D|-----------------------------------------------------------------|
A|-----------------7-r-5-r-8-r-7-r-0-------------------------------|
D|-3---------------------------------------------------------------|
   1 + 2 + 3 + 4 + 1 + 2 + 3 + 4 + 1 + 2 + 3 + 4 + 1 + 2 + 3 + 4 +

G|----------------------------------|
D|----------------------------------|
A|----------------------------------|
D|----------------------------------|
   1 + 2 + 3 + 4 + 1 + 2 + 3 + 4 +

4:57
G|-----------------------------------------------------------------|
D|-----------------------------------------------------------------|
A|-----------------------------------------------------------------|
D|-2-2-2-2-2-2-2-2-2-2-2-2-2-2-2-2-2-2-2-2-2-2-2-2-2-2-2-2-2-2-2-2-|
   1 + 2 + 3 + 4 + 1 + 2 + 3 + 4 + 1 + 2 + 3 + 4 + 1 + 2 + 3 + 4 +

G|-------------------------------------------------------------------|
D|o-----------------------------------------------------------------o|
A|o-----------------------------------------------------------------o|x3
D|--2-2-2-2-2-2-2-2-2-2-2-2-2-2-2-2-2-2-2-2-2-2-2-2-5-5-5-4-4-4-3-3--|
    1 + 2 + 3 + 4 + 1 + 2 + 3 + 4 + 1 + 2 + 3 + 4 + 1 + 2 + 3 + 4 +

5:25
G|-----------------------------------------------------------------|
D|-----------------------------------------------------------------|
A|-------0-0-2-2---0-0-0-2-2-3-3---------0-0-2-2---0-0-0-2-2-3-3---|
D|-6-6-6---------------------------6-6-6---------------------------|
   1 + 2 + 3 + 4 + 1 + 2 + 3 + 4 + 1 + 2 + 3 + 4 + 1 + 2 + 3 + 4 +

G|-------------------------------------------------------------------|
D|o-----------------------------------------------------------------o|
A|o-----------------------------------------------------------------o|
D|--2-2-2-2-2-2-2-2-2-2-2-2-2-2-2-2-2-2-2-2-2-2-2-2-5-5-5-4-4-4-3-3--|
    1 + 2 + 3 + 4 + 1 + 2 + 3 + 4 + 1 + 2 + 3 + 4 + 1 + 2 + 3 + 4 +

G|-----------------------------------------------------------------|
D|-----------------------------------------------------------------|
A|-------0-0-2-2---0-0-0-2-2-3-3---------0-0-2-2---0-0-0-2-2-3-3---|
D|-6-6-6---------------------------6-6-6---------------------------|
   1 + 2 + 3 + 4 + 1 + 2 + 3 + 4 + 1 + 2 + 3 + 4 + 1 + 2 + 3 + 4 +

Solo #2 5:52
G|-------------------------------------------------------------------|
D|o-----------------------------------------------------------------o|
A|o-----------------------------------------------------------------o|
D|--2-2-2-2-2-2-2-2-2-2-2-2-2-2-2-2-2-2-2-2-2-2-2-2-2-2-2-2-2-2-2-2--|
    1 + 2 + 3 + 4 + 1 + 2 + 3 + 4 + 1 + 2 + 3 + 4 + 1 + 2 + 3 + 4 +

Outro
6:06
G|-------------------------------------------------------------------|
D|o-----------------------------------------------------------------o|
A|o-----------------------------------------------------------------o|
D|--2-----5-4-----3-2---222-222-222-2-----5-4-----3-2---222-222-222--|
    1 + 2 + 3 + 4 + 1 + 2 + 3 + 4 + 1 + 2 + 3 + 4 + 1 + 2 + 3 + 4 +

G|-------------------------------------------------------------------|
D|o-----------------------------------------------------------------o|
A|o-----------------------------------------------------------------o|
D|--2-----5-4-----3-2---2222222222222-----5-4-----3-2---222222222222-|
    1 + 2 + 3 + 4 + 1 + 2 + 3 + 4 + 1 + 2 + 3 + 4 + 1 + 2 + 3 + 4 +

G|-----------------------------------------------------------------|
D|-----------------------------------------------------------------|
A|-----------------------------------------------------------------|
D|-2-----5-4-----3-2---222-222-222-2-----5-4-----3-2---------------|
   1 + 2 + 3 + 4 + 1 + 2 + 3 + 4 + 1 + 2 + 3 + 4 + 1 + 2 + 3 + 4 +
Tabbed by Dave Vucko


Natural Born Killer
G|-------------------------------------------------------------------|
D|o-----------------------------------------------------------------o|
A|o-------------------------------------------------1-------4-------o|x4
D|-------------------------------------------------------------------|
    1 e + a 2 e + a 3 e + a 4 e + a 1 e + a 2 e + a 3 e + a 4 e + a 

G|-------------------------------------------------------------------|
D|o-----------------------------------------------------------------o|
A|o-------------------------------------------------1-------4-------o|
D|--0--0--0-0--0--0-0--0--0-0--0--0-0--0--0-0--0--0------------------|
    Triplet Triplet Triplet Triplet Triplet Triplet 3 e + a 4 e + a 

G|-------------------------------------------------------------------|
D|o-----------------------------------------------------------------o|
A|o-------------------------------------------------1-------4-------o|
D|--0-0-0-0-0-0-0-0-0-0-0-0-0-0-0-0-0-0-0-0-0-0-0-0------------------|
    1 e + a 2 e + a 3 e + a 4 e + a 1 e + a 2 e + a 3 e + a 4 e + a 

G|-----------------------------------------------------------------|
D|-----------------------------------------------------------------|
A|-6---6---6---6---6---6---6---6---6---6---6---6---6---6---6---6---|
D|-----------------------------------------------------------------|
   1 e + a 2 e + a 3 e + a 4 e + a 1 e + a 2 e + a 3 e + a 4 e + a 

G|-----------------------------------------------------------------|
D|-----------------------------------------------------------------|
A|-6---6---6---6---6---6---6---6---6---6---6---6---6---------------|
D|-----------------------------------------------------------------|
   1 e + a 2 e + a 3 e + a 4 e + a 1 e + a 2 e + a 3 e + a 4 e + a 

0:26
G|------------------------------------------------------------------|
D|o-----------------------------------------------------------------|
A|o-----------------------------------------------------------------|
D|--0-------0---0---0---0---3-p-0---5-p-0---7-p-0---6-p-0---5-p-0---|
    1 e + a 2 e + a 3 e + a 4 e + a 1 e + a 2 e + a 3 e + a 4 e + a 

G|------------------------------------------------------------------|
D|-----------------------------------------------------------------o|
A|-----------------------------------------------------------------o|
D|-3-p-0---0---0---0---0---0---0---0-0-0-0-0-0-0-0-0-0-0-0-0-0-0-0--|
   1 e + a 2 e + a 3 e + a 4 e + a 1 e + a 2 e + a 3 e + a 4 e + a 

0:35 Verse
G|-------------------------------------------------------------------|
D|o-----------------------------------------------------------------o|
A|o-------------------------------------------------1-------4-------o|
D|--0-------0---0---0---0---0---0---0---0---0---0--------------------|
    1 e + a 2 e + a 3 e + a 4 e + a 1 e + a 2 e + a 3 e + a 4 e + a 

G|-----------------------------------------------------------------|
D|-----------------------------------------------------------------|
A|-----------------------------------------------------------------|
D|-0-------0---0---0---0---0---0---0---0---0---0---0---0---0---0---|
   1 e + a 2 e + a 3 e + a 4 e + a 1 e + a 2 e + a 3 e + a 4 e + a 

G|-----------------------------------------------------------------|
D|-----------------------------------------------------------------|
A|-----------------------------------------------------------------|
D|-5-p-0---7-p-0---8-p-0---7-p-0---5-p-0---7-p-0---5-p-0---7-p-0---|
   1 e + a 2 e + a 3 e + a 4 e + a 1 e + a 2 e + a 3 e + a 4 e + a 

G|------------------------------------------------------------------|
D|o-----------------------------------------------------------------|
A|o-6---6---6---6---6---6---6---6---6---6---6---6---6---6---6---6---|
D|------------------------------------------------------------------|
    1 e + a 2 e + a 3 e + a 4 e + a 1 e + a 2 e + a 3 e + a 4 e + a 

G|-----------------------------------------------------------------|
D|-----------------------------------------------------------------|
A|-6---6---6---6---6---6---6---6---6---6---6---6---6-------8-------|
D|-----------------------------------------------------------------|
   1 e + a 2 e + a 3 e + a 4 e + a 1 e + a 2 e + a 3 e + a 4 e + a 

G|-----------------------------------------------------------------|
D|-----------------------------------------------------------------|
A|-----------------------------------------------------------------|
D|-0-------0---0---0---0---3-p-0---5-p-0---7-p-0---6-p-0---5-p-0---|
   1 e + a 2 e + a 3 e + a 4 e + a 1 e + a 2 e + a 3 e + a 4 e + a 

G|------------------------------------------------------------------|
D|-----------------------------------------------------------------o|
A|-----------------------------------------------------------------o|
D|-3-p-0---0---0---0---0---0---0---0-0-0-0-0-0-0-0-0-0-0-0-0-0-0-0--|
   1 e + a 2 e + a 3 e + a 4 e + a 1 e + a 2 e + a 3 e + a 4 e + a 

1:07 Pre Chorus
G|-----------------------------------------------------------------|
D|-------------8---10----8---------------------5---7---7-5-5-------|
A|-------8-------------------------------5-------------------------|
D|-8---------------------------8---5---------------------------5---|
   1 e + a 2 e + a 3 e + a 4 e + a 1 e + a 2 e + a 3 e + a 4 e + a 

G|--------------------------------------------------------------------------|
D|-------------8---10----8-8-7-8-10-----------10----10-------11---12---14---|
A|-------8-------------------------------10------10-------------------------|
D|-8--------------------------------10------------------11------------------|
   1 e + a 2 e + a 3 e + a 4 e + a  1  e +  a 2  e  + a 3  e +  a 4  e +  a 

1:18 Chorus
G|-----------------------------------------------------------------|
D|-----------------------------------------------------------------|
A|-----------------------------------------------------------------|
D|-0-----0-0---0---7-----7-7---5h7-8-----8-8---8---5-----5-5---5---|
   1 e + a 2 e + a 3 e + a 4 e + a 1 e + a 2 e + a 3 e + a 4 e + a 

G|-----------------------------------------------------------------|
D|-----------------------------------------------------------------|
A|-----------------------------------------------------------------|
D|-0-----0-0---0---7-----7-7---5h7-8-----8-8---8---5-------5h7p5-3-|
   1 e + a 2 e + a 3 e + a 4 e + a 1 e + a 2 e + a 3 e + a 4 e + a 

G|-----------------------------------------------------------------|
D|-----------------------------------------------------------------|
A|-----------------------------------------------------------------|
D|-0-----0-0---0---7-----7-7---5h7-8-----8-8---8---5-----5-5---5---|
   1 e + a 2 e + a 3 e + a 4 e + a 1 e + a 2 e + a 3 e + a 4 e + a 

G|------------------------------------------------------------------|
D|------------------------------------------------------------------|
A|------------------------------------------------------------------|
D|-0-----0-0---0---7-----7-7---5h7-8-----8-8h10p8-7-5-----5-5---5---|
   1 e + a 2 e + a 3 e + a 4 e + a 1 e + a 2 e  + a 3 e + a 4 e + a 

G|---------------------------------|
D|---------------------------------|
A|-6-6---6-6---6-6---6-6---6-------|
D|---------------------------------|
   1 e + a 2 e + a 3 e + a 4 e + a 

1:41 Interlude
G|------------------------------------------------------------------|
D|o-----------------------------------------------------------------|
A|o-----------------------------------------------------------------|
D|--0-------0---0---0---0---3-p-0---5-p-0---7-p-0---6-p-0---5-p-0---|
    1 e + a 2 e + a 3 e + a 4 e + a 1 e + a 2 e + a 3 e + a 4 e + a 

G|------------------------------------------------------------------|
D|-----------------------------------------------------------------o|
A|-----------------------------------------------------------------o|
D|-3-p-0---0---0---0---0---0---0---0-0-0-0-0-0-0-0-0-0-0-0-0-0-0-0--|
   1 e + a 2 e + a 3 e + a 4 e + a 1 e + a 2 e + a 3 e + a 4 e + a 

1:51 Verse
G|-------------------------------------------------------------------|
D|o-----------------------------------------------------------------o|
A|o-------------------------------------------------1-------4-------o|
D|--0-------0---0---0---0---0---0---0---0---0---0--------------------|
    1 e + a 2 e + a 3 e + a 4 e + a 1 e + a 2 e + a 3 e + a 4 e + a 

G|-----------------------------------------------------------------|
D|-----------------------------------------------------------------|
A|-----------------------------------------------------------------|
D|-0-------0---0---0---0---0---0---0---0---0---0---0---0---0---0---|
   1 e + a 2 e + a 3 e + a 4 e + a 1 e + a 2 e + a 3 e + a 4 e + a 

G|-----------------------------------------------------------------|
D|-----------------------------------------------------------------|
A|-----------------------------------------------------------------|
D|-5-p-0---7-p-0---8-p-0---7-p-0---5-p-0---7-p-0---5-p-0---7-p-0---|
   1 e + a 2 e + a 3 e + a 4 e + a 1 e + a 2 e + a 3 e + a 4 e + a 

G|------------------------------------------------------------------|
D|o-----------------------------------------------------------------|
A|o-6---6---6---6---6---6---6---6---6---6---6---6---6---6---6---6---|
D|------------------------------------------------------------------|
    1 e + a 2 e + a 3 e + a 4 e + a 1 e + a 2 e + a 3 e + a 4 e + a 

G|-----------------------------------------------------------------|
D|-----------------------------------------------------------------|
A|-6---6---6---6---6---6---6---6---6---6---6---6---6-------8-------|
D|-----------------------------------------------------------------|
   1 e + a 2 e + a 3 e + a 4 e + a 1 e + a 2 e + a 3 e + a 4 e + a 

G|-----------------------------------------------------------------|
D|-----------------------------------------------------------------|
A|-----------------------------------------------------------------|
D|-0-------0---0---0---0---3-p-0---5-p-0---7-p-0---6-p-0---5-p-0---|
   1 e + a 2 e + a 3 e + a 4 e + a 1 e + a 2 e + a 3 e + a 4 e + a 

G|------------------------------------------------------------------|
D|-----------------------------------------------------------------o|
A|-----------------------------------------------------------------o|
D|-3-p-0---0---0---0---0---0---0---0-0-0-0-0-0-0-0-0-0-0-0-0-0-0-0--|
   1 e + a 2 e + a 3 e + a 4 e + a 1 e + a 2 e + a 3 e + a 4 e + a 

2:22 Pre Chorus
G|-----------------------------------------------------------------|
D|-------------8---10----8---------------------5---7---7-5-5-------|
A|-------8-------------------------------5-------------------------|
D|-8---------------------------8---5---------------------------5---|
   1 e + a 2 e + a 3 e + a 4 e + a 1 e + a 2 e + a 3 e + a 4 e + a 

G|--------------------------------------------------------------------------|
D|-------------8---10----8-8-7-8-10-----------10----10-------11---12---14---|
A|-------8-------------------------------10------10-------------------------|
D|-8--------------------------------10------------------11------------------|
   1 e + a 2 e + a 3 e + a 4 e + a  1  e +  a 2  e  + a 3  e +  a 4  e +  a 

Chorus 2:33
G|-----------------------------------------------------------------|
D|-----------------------------------------------------------------|
A|-----------------------------------------------------------------|
D|-0-----0-0---0---7-----7-7---5h7-8-----8-8---8---5-----5-5---5---|
   1 e + a 2 e + a 3 e + a 4 e + a 1 e + a 2 e + a 3 e + a 4 e + a 

G|-----------------------------------------------------------------|
D|-----------------------------------------------------------------|
A|-----------------------------------------------------------------|
D|-0-----0-0---0---7-----7-7---5h7-8-----8-8---8---5-------5h7p5-3-|
   1 e + a 2 e + a 3 e + a 4 e + a 1 e + a 2 e + a 3 e + a 4 e + a 

G|-----------------------------------------------------------------|
D|-----------------------------------------------------------------|
A|-----------------------------------------------------------------|
D|-0-----0-0---0---7-----7-7---5h7-8-----8-8---8---5-----5-5---5---|
   1 e + a 2 e + a 3 e + a 4 e + a 1 e + a 2 e + a 3 e + a 4 e + a 

G|------------------------------------------------------------------|
D|------------------------------------------------------------------|
A|------------------------------------------------------------------|
D|-0-----0-0---0---7-----7-7---5h7-8-----8-8h10p8-7-5-----5-5---5---|
   1 e + a 2 e + a 3 e + a 4 e + a 1 e + a 2 e  + a 3 e + a 4 e + a 

G|---------------------------------|
D|---------------------------------|
A|-6-6---6-6---6-6---6-6---6-------|
D|---------------------------------|
   1 e + a 2 e + a 3 e + a 4 e + a 

2:56 Bridge
G|-------------------------------------------------------------------|
D|o-----------------------------------------------------------------o|
A|o---------------------------------6---66666---5---3---33331---0---o|x4
D|--5-----5-5---0---1-----1-1---0------------------------------------|
    1 e + a 2 e + a 3 e + a 4 e + a 1 e + a 2 e + a 3 e + a 4 e + a 

3:16 Vocals Enter
G|-----------------------------------------------------------------|
D|-----------------------------------------------------------------|
A|---------------------------------6---66666---5---3---33331---0---|x4
D|-5-----5-5---0---1-----1-1---0-----------------------------------|
   1 e + a 2 e + a 3 e + a 4 e + a 1 e + a 2 e + a 3 e + a 4 e + a 

3:38
G|-----------------------------------------------------------------|
D|-----------------------------------------------------------------|
A|-6-6---6-6---6-6---6-6---6---6-----------------------------------|
D|---------------------------------1-----1-----1-----1-----1-------|
   1 e + a 2 e + a 3 e + a 4 e + a 1 e + a 2 e + a 3 e + a 4 e + a 

Solo
G|------------------------------------------------------------------|
D|o-----------------------------------------------------------------|
A|o-----------------------------------------------------------------|
D|--0-------0---0---0---0---3-p-0---5-p-0---7-p-0---6-p-0---5-p-0---|
    1 e + a 2 e + a 3 e + a 4 e + a 1 e + a 2 e + a 3 e + a 4 e + a 

G|------------------------------------------------------------------|
D|-----------------------------------------------------------------o|
A|-----------------------------------------------------------------o|
D|-3-p-0---0---0---0---0---0---0---0-0-0-0-0-0-0-0-0-0-0-0-0-0-0-0--|
   1 e + a 2 e + a 3 e + a 4 e + a 1 e + a 2 e + a 3 e + a 4 e + a 

G|-----------------------------------------------------------------|
D|-----------------------------------------------------------------|
A|-6---6---6---6---6---6---6---6---6---6---6---6---6---6---6---6---|
D|-----------------------------------------------------------------|
   1 e + a 2 e + a 3 e + a 4 e + a 1 e + a 2 e + a 3 e + a 4 e + a 

G|-----------------------------------------------------------------|
D|-----------------------------------------------------------------|
A|-6---6---6---6---6---6---6---6---6---6---6---6---6-------8-------|
D|-----------------------------------------------------------------|
   1 e + a 2 e + a 3 e + a 4 e + a 1 e + a 2 e + a 3 e + a 4 e + a 

G|-----------------------------------------------------------------|
D|-----------------------------------------------------------------|
A|-----------------------------------------------------------------|
D|-0-------0---0---0---0---3-p-0---5-p-0---7-p-0---6-p-0---5-p-0---|
   1 e + a 2 e + a 3 e + a 4 e + a 1 e + a 2 e + a 3 e + a 4 e + a 

G|-----------------------------------------------------------------|
D|-----------------------------------------------------------------|
A|-----------------------------------------------------------------|
D|-3-p-0---0---0---0---0---0---0---0-0-0-0-0-0-0-0-0-0-0-0-0-0-0-0-|
   1 e + a 2 e + a 3 e + a 4 e + a 1 e + a 2 e + a 3 e + a 4 e + a 

4:03
G|-----------------------------------------------------------------|
D|-----------------------------------------------------------------|
A|-----------------------------------------------------------------|
D|-8---8-8---8-8---8---8---8---8---5---5-5---5-5---5---5---5---5---|
   1 e + a 2 e + a 3 e + a 4 e + a 1 e + a 2 e + a 3 e + a 4 e + a 

G|-----------------------------------------------------------------|
D|-----------------------------------------------------------------|
A|-----------------------------------------------------------------|
D|-8---8-8---8-8---8---8---8---8---5---5-5---5-5---5-5-5-5-5-5-5-5-|
   1 e + a 2 e + a 3 e + a 4 e + a 1 e + a 2 e + a 3 e + a 4 e + a 

G|------------------------------------------------------------------|
D|------------------------------------------------------------------|
A|------------------------------------------------------------------|
D|-8---8-8---8-8---8---8---8h10p8---5---5-5---5-5---5---5---5---5---|
   1 e + a 2 e + a 3 e + a 4 e  + a 1 e + a 2 e + a 3 e + a 4 e + a 

G|-----------------------------------------------------------------|
D|-----------------------------------------------------------------|
A|---------------------------------3-3-3-3-3-3-3-3-4-4-4-4-4-4-4-4-|
D|-8---8-8---8-8---8---8---8---8-----------------------------------|
   1 e + a 2 e + a 3 e + a 4 e + a 1 e + a 2 e + a 3 e + a 4 e + a 

4:24 Chorus
G|-----------------------------------------------------------------|
D|-----------------------------------------------------------------|
A|-----------------------------------------------------------------|
D|-0-----0-0---0---7-----7-7---5h7-8-----8-8---8---5-----5-5---5---|
   1 e + a 2 e + a 3 e + a 4 e + a 1 e + a 2 e + a 3 e + a 4 e + a 

G|-----------------------------------------------------------------|
D|-----------------------------------------------------------------|
A|-----------------------------------------------------------------|
D|-0-----0-0---0---7-----7-7---5h7-8-----8-8---8---5-------5h7p5-3-|
   1 e + a 2 e + a 3 e + a 4 e + a 1 e + a 2 e + a 3 e + a 4 e + a 

G|-----------------------------------------------------------------|
D|-----------------------------------------------------------------|
A|-----------------------------------------------------------------|
D|-0-----0-0---0---7-----7-7---5h7-8-----8-8---8---5-----5-5---5---|
   1 e + a 2 e + a 3 e + a 4 e + a 1 e + a 2 e + a 3 e + a 4 e + a 

G|------------------------------------------------------------------|
D|------------------------------------------------------------------|
A|------------------------------------------------------------------|
D|-0-----0-0---0---7-----7-7---5h7-8-----8-8h10p8-7-5-5-5-5-5-5-5-5-|
   1 e + a 2 e + a 3 e + a 4 e + a 1 e + a 2 e  + a 3 e + a 4 e + a 

4:45
G|-------------------------------------------------------------------|
D|o-----------------------------------------------------------------o|
A|o-----------------------------------------------------------------o|
D|--0-0-0-0-0-0-0-0-7-7-7-7-7-7-7-7-8-8-8-8-8-8-8-8-5-5-5-5-5-5-5-5--|
    1 e + a 2 e + a 3 e + a 4 e + a 1 e + a 2 e + a 3 e + a 4 e + a 

G|-----------------------------------------------------------------|
D|-----------------------------------------------------------------|
A|-----------------------------------------------------------------|
D|-0-0-0-0-0-0-0-0-2-2-2-2-2-2-2-2-3-3-3-3-3-3-3-3-5-5-5-5-5-5-5-5-|
   1 e + a 2 e + a 3 e + a 4 e + a 1 e + a 2 e + a 3 e + a 4 e + a 

G|-----------------------------------------------------------------|
D|-0-0-0-0-0-0-0-0-2-2-2-2-2-2-2-2-3-3-3-3-3-3-3-3-5-5-5-5-5-5-5-5-|
A|-----------------------------------------------------------------|
D|-----------------------------------------------------------------|
   1 e + a 2 e + a 3 e + a 4 e + a 1 e + a 2 e + a 3 e + a 4 e + a 

G|-----------------------------------------------------------------|
D|-----------------------------------------------------------------|
A|-6-6---6-6---6-6---6-6---6---6-----------------------------------|
D|---------------------------------1-----1-----1-----1-----1-------|
   1 e + a 2 e + a 3 e + a 4 e + a 1 e + a 2 e + a 3 e + a 4 e + a 

So Far Away

G|-----------------------------------------------------------------|
D|-----------------------------------------------------------------|
A|-----------------------------------------------------------------|
D|-2-----------------------2-2---2-2-------------------------------|
   1 e + a 2 e + a 3 e + a 4 e + a 1 e + a 2 e + a 3 e + a 4 e + a 

G|-----------------------------------------4-r---------------------|
D|-------------------------------------4---------------------------|
A|-----------------5---5---5h7-5---2-----------3-----3-3---3-3-3-3-|
D|-5---5---5---5h7-------------------------------------------------|
   1 e + a 2 e + a 3 e + a 4 e + a 1 e + a 2 e + a 3 e + a 4 e + a 

G|-----------------------------------------------------------------|
D|-----------------------------------------------------------------|
A|-----------------------------------------------------------------|
D|-2-----------------------2-2---2-2-------------------------------|
   1 e + a 2 e + a 3 e + a 4 e + a 1 e + a 2 e + a 3 e + a 4 e + a 

G|-----------------7-----------------------------------------------|
D|---------5---7-------7---4---------------------------------------|
A|-----5-----------------------5---2---2---r---3-----3-3---3---3---|
D|-5---------------------------------------------------------------|
   1 e + a 2 e + a 3 e + a 4 e + a 1 e + a 2 e + a 3 e + a 4 e + a 

0:25
G|-----------------------------------------------------------------|
D|-----------------------------------------------------------------|
A|-3-------3-----3-3---3---3---r---5-------5-------5---5---5h7p5---|
D|-----------------------------------------------------------------|
   1 e + a 2 e + a 3 e + a 4 e + a 1 e + a 2 e + a 3 e + a 4 e + a 

0:31
G|-----------------------------------------------------------------|
D|-----------------------------------------------------------------|
A|-----------------------------------------------------------------|
D|-2-------2-----2-2-r-2---2---4---5-------5-----5-5-r-5---7-5-4---|
   1 e + a 2 e + a 3 e + a 4 e + a 1 e + a 2 e + a 3 e + a 4 e + a 

G|-----------------------------------------------------------------|
D|-----------------------------------------------------------------|
A|-------------------------------------------------5-------5h7p5---|
D|-7-------7-----7-7-r-7---7h9p7---5-------5-----------------------|
   1 e + a 2 e + a 3 e + a 4 e + a 1 e + a 2 e + a 3 e + a 4 e + a 

G|-----------------------------------------------------------------|
D|-----------------------------------------------------------------|
A|-----------------------------------------------------------------|
D|-2-------2-----2-2-r-2-------4---5---5---5-----5-5-r-5---7-5-4-5-|
   1 e + a 2 e + a 3 e + a 4 e + a 1 e + a 2 e + a 3 e + a 4 e + a 

G|-----------------------------------------------------------------|
D|-----------------------------------------------------------------|
A|-0-------0---0-0-0-r-0---0---2---3---3---3---3---5---5---5---5---|
D|-----------------------------------------------------------------|
   1 e + a 2 e + a 3 e + a 4 e + a 1 e + a 2 e + a 3 e + a 4 e + a 

0:57
G|-----------------------------------------------------------------|
D|-----------------------------------------------------------------|
A|-----------------------------------------------------------------|
D|-2-------------------------------2-------------------------------|
   1 e + a 2 e + a 3 e + a 4 e + a 1 e + a 2 e + a 3 e + a 4 e + a 

G|-----------------------------------------4-r---------------------|
D|-------------------------------------4---------------------------|
A|-----------------5---5---5h7-5---2-----------3-----3-3---3-3-3-3-|
D|-5---5---5---5h7-------------------------------------------------|
   1 e + a 2 e + a 3 e + a 4 e + a 1 e + a 2 e + a 3 e + a 4 e + a 

G|-----------------------------------------------------------------|
D|-----------------------------------------------------------------|
A|-----------------------------------------------------------------|
D|-2-----------------------2-2---2-2-2-2---------------------------|
   1 e + a 2 e + a 3 e + a 4 e + a 1 e + a 2 e + a 3 e + a 4 e + a 

G|-----------------7-----------------------------------------------|
D|---------5---7-------7---4---------------------------------------|
A|-----5-----------------------5---2---2---r---3-----3-3---3-3-3-3-|
D|-5---------------------------------------------------------------|
   1 e + a 2 e + a 3 e + a 4 e + a 1 e + a 2 e + a 3 e + a 4 e + a 

1:22
G|-----------------------------------------------------------------|
D|-----------------------------------------------------------------|
A|-3-------3-----3-3---3---3---r---5---5---5---5---5---5---5h7p5---|
D|-----------------------------------------------------------------|
   1 e + a 2 e + a 3 e + a 4 e + a 1 e + a 2 e + a 3 e + a 4 e + a 

1:28
G|-----------------------------------------------------------------|
D|-----------------------------------------------------------------|
A|-----------------------------------------------------------------|
D|-2-------2-----2-2-r-2---2---4---5-------5-----5-5-r-5---7-5-4---|
   1 e + a 2 e + a 3 e + a 4 e + a 1 e + a 2 e + a 3 e + a 4 e + a 

G|-----------------------------------------------------------------|
D|-----------------------------------------------------------------|
A|-------------------------------------------------5---5---5h7p5---|
D|-7-------7-----7-7-r-7---7h9p7---5-------5-----5-----------------|
   1 e + a 2 e + a 3 e + a 4 e + a 1 e + a 2 e + a 3 e + a 4 e + a 

G|-----------------------------------------------------------------|
D|-----------------------------------------------------------------|
A|-----------------------------------------------------------------|
D|-2-------2-----2-2-r-2-------4---5-------5-----5-5-r-5---7-5-4-5-|
   1 e + a 2 e + a 3 e + a 4 e + a 1 e + a 2 e + a 3 e + a 4 e + a 

G|-----------------------------------------------------------------|
D|-----------------------------------------------------------------|
A|-0-------0-----0-0-r-0---0---2---3---3---3---3---5---5---5---5---|
D|-----------------------------------------------------------------|
   1 e + a 2 e + a 3 e + a 4 e + a 1 e + a 2 e + a 3 e + a 4 e + a 

1:53
G|-----------------------------------------------------------------|
D|-------------9-------------------------------5-------------------|
A|---------7---------------7---\---3-------3---------------3---\---|
D|-2---------------------------------------------------------------|
   1 e + a 2 e + a 3 e + a 4 e + a 1 e + a 2 e + a 3 e + a 4 e + a 

G|-----------------------------------------------------------------|
D|-----------------------------------------------------------------|
A|-0-------0---7-----------0h2p0-----------------------------------|
D|---------------------------------5-------5---5-----------5---4---|
   1 e + a 2 e + a 3 e + a 4 e + a 1 e + a 2 e + a 3 e + a 4 e + a 

2:06
G|-----------------------------------------------------------------|
D|-------------9-------------------------------5-------------------|
A|---------7---------------7---\---3-------3---------------3-------|
D|-2---------------------------------------------------------------|
   1 e + a 2 e + a 3 e + a 4 e + a 1 e + a 2 e + a 3 e + a 4 e + a 

G|-----------------------------------------------------------------|
D|-------------7-----------7-------------------5-----------5-------|
A|-5-------5-----------------------3-------3-----------3-------0-3-|
D|-----------------------------------------------------------------|
   1 e + a 2 e + a 3 e + a 4 e + a 1 e + a 2 e + a 3 e + a 4 e + a 

G|---------------------------------|
D|---------------------------------|
A|-5-------5---5-------5---5---5---|
D|---------------------------------|
   1 e + a 2 e + a 3 e + a 4 e + a 

2:21
G|-----------------------------------------------------------------|
D|---------2-------------------------------------------------------|
A|---------------------------------3-------3-----3-3---3-3-3-------|
D|-2-------------2-2---2---2---------------------------------------|
   1 e + a 2 e + a 3 e + a 4 e + a 1 e + a 2 e + a 3 e + a 4 e + a 

G|-----------------------------------------------------------------|
D|-----------------------------------------------------------------|
A|-0-------0---0-0-0---0---0---0-----------------------------------|
D|---------------------------------5-----5-5-----5-5---5-5-5---4---|
   1 e + a 2 e + a 3 e + a 4 e + a 1 e + a 2 e + a 3 e + a 4 e + a 

2:34
G|-----------------------------------------------------------------|
D|---------2-------------------------------------------------------|
A|---------------------------------3-------3-----3-3---3-3-3---3---|
D|-2-----------2-2-2---2---2---------------------------------------|
   1 e + a 2 e + a 3 e + a 4 e + a 1 e + a 2 e + a 3 e + a 4 e + a 

G|-----------------------------------------------------------------|
D|-----------------------------------------------------------------|
A|-5-------5---5-5-5---5---5---5---3-------3---3-3-3-3-3-3-3---3---|
D|-----------------------------------------------------------------|
   1 e + a 2 e + a 3 e + a 4 e + a 1 e + a 2 e + a 3 e + a 4 e + a 

G|---------------------------------|
D|---------------------------------|
A|-5-5-5-5-5-5-5-----5-5---5-7-9---|
D|---------------------------------|
   1 e + a 2 e + a 3 e + a 4 e + a 

2:50
G|-----------------------------------------------------------------|
D|-----------------------------------------------------------------|
A|-----------------------------------------------------------------|
D|-2-------2-----2-2-r-2-------4---5-------5-----5-5-r-5---7-5-4-5-|
   1 e + a 2 e + a 3 e + a 4 e + a 1 e + a 2 e + a 3 e + a 4 e + a 

G|-----------------------------------------------------7---7-9-7---|
D|---------------------------------------------------7---7---------|
A|-------------------------------------------------5---------------|
D|-7-------7-----7-7-r-7---7h9p7---5---5---5-----5-----------------|
   1 e + a 2 e + a 3 e + a 4 e + a 1 e + a 2 e + a 3 e + a 4 e + a 

G|-----------------------------------------------------------------|
D|-----------------------------------------------------------------|
A|-----------------------------------------------------------------|
D|-2-------2-----2-2-r-2-------4---5-------5-----5-5-r-5---7-5-4-5-|
   1 e + a 2 e + a 3 e + a 4 e + a 1 e + a 2 e + a 3 e + a 4 e + a 

G|-----------------------------------------------------------------|
D|-----------------------------------------------------------------|
A|-0-------0-----0-0-r-0---0-2-----3---------------5---5---5---5---|
D|-----------------------------------------------------------------|
   1 e + a 2 e + a 3 e + a 4 e + a 1 e + a 2 e + a 3 e + a 4 e + a 

G|-----------------------------------------------------------------|
D|-----------------------------------------------------------------|
A|-0-------0-----0-0-r-0---0-2-----3-------3---3---5---5---5-5-5---|
D|-----------------------------------------------------------------|
   1 e + a 2 e + a 3 e + a 4 e + a 1 e + a 2 e + a 3 e + a 4 e + a 

G|-----------------------------------------------------------------|
D|-----------------------------------------------------------------|
A|-----------------------------------------------------------------|
D|-2---------------------------------------------------------------|
   1 e + a 2 e + a 3 e + a 4 e + a 1 e + a 2 e + a 3 e + a 4 e + a 

rest

3:54
G|-----------------------------------------------------------------|
D|-----------------------------------------------------------------|
A|-7---7-7-7---7-7-5---5---5---5---0-------0-----------------------|
D|-------------------------------------------------5-------4---4-4-|
   1 e + a 2 e + a 3 e + a 4 e + a 1 e + a 2 e + a 3 e + a 4 e + a 

G|-----------------------------------------------------------------|
D|-----------------------------------------------------------------|
A|-----------------5---5---5---5---3---3---3---3-3-3-3-3-3-3-3-3-3-|
D|-2-------2---2-2-------------------------------------------------|
   1 e + a 2 e + a 3 e + a 4 e + a 1 e + a 2 e + a 3 e + a 4 e + a 

G|-----------------------------------------14----------12------11--|
D|-------------------------------------14------14------------------|
A|-7---7---7---7---9-------10------0---------------10------9-------|
D|-----------------------------------------------------------------|
   1 e + a 2 e + a 3 e + a 4 e + a 1 e + a 2 e + a 3 e + a 4 e + a 

G|-----------------------------------------------------------------|
D|-----------------------------------------------------------------|
A|-----------------5---5---5---5---3-------3---3-3---3-3-3-3-3-3-3-|
D|-2---------------------------------------------------------------|
   1 e + a 2 e + a 3 e + a 4 e + a 1 e + a 2 e + a 3 e + a 4 e + a 

G|-----------------------------------------------------------------|
D|-----------------------------------------------------------------|
A|-7-------7---7---5-------5---5---3-------------------------------|
D|-----------------------------------------------------------------|
   1 e + a 2 e + a 3 e + a 4 e + a 1 e + a 2 e + a 3 e + a 4 e + a 

4:26
G|-----------------------------------------------------------------|
D|-----------------------------------------------------------------|
A|-7---7---7---7-7-5-------5---5-5-0-------0---0-------------------|
D|-------------------------------------------------5-------4---4-4-|
   1 e + a 2 e + a 3 e + a 4 e + a 1 e + a 2 e + a 3 e + a 4 e + a 

G|-----------------------------------------------------------------|
D|-----------------------------------------------------------------|
A|-----------------5-------5---5-5-3-----3-3---3-3---3-3-3-3-3-3-3-|
D|-2-------2-------------------------------------------------------|
   1 e + a 2 e + a 3 e + a 4 e + a 1 e + a 2 e + a 3 e + a 4 e + a 

G|-----------------------------------------------------------------|
D|-----------------------------------------------------------------|
A|-7---7---7---7-7-5---5---5---5-5-0-------0-----------------------|
D|-------------------------------------------------5-------4-------|
   1 e + a 2 e + a 3 e + a 4 e + a 1 e + a 2 e + a 3 e + a 4 e + a 

G|-----------------------------------------------------------------|
D|-----------------------------------------------------------------|
A|-----------------5-------5---5-5-3-----3-3---3-3---3-3---3-3-3-3-|
D|-2-------2---2-2-------------------------------------------------|
   1 e + a 2 e + a 3 e + a 4 e + a 1 e + a 2 e + a 3 e + a 4 e + a 

4:52
G|-----------------------------------------------------------------|
D|-----------------------------------------------------------------|
A|-7-------7---7-7-5-------5---5-5-3-----3-3-3-3-----3-3-3-3---3-3-|
D|-----------------------------------------------------------------|
   1 e + a 2 e + a 3 e + a 4 e + a 1 e + a 2 e + a 3 e + a 4 e + a 

G|-----------------------------------------------------------------|
D|---------------------------------------------10------10----------|
A|-7-------7---7---5-------5---5---3---/-10----------10------------|
D|---------------------------------------------------------5-4-5-7-|
   1 e + a 2 e + a 3 e + a 4 e + a 1 e + a 2 e + a 3 e + a 4 e + a 

G|-----------------------------------------------------------------|
D|-----------------------------------------------------------------|
A|-7-------7-------5-------5---5---3-----3-----3-----3-3---3-3-3-3-|
D|-----------------------------------------------------------------|
   1 e + a 2 e + a 3 e + a 4 e + a 1 e + a 2 e + a 3 e + a 4 e + a 

G|-----------------------------------------------------------------|
D|-----------------------------------------------------------------|
A|-7---------------5-------5-------3-------------------------------|
D|-----------------------------------------------------------------|
   1 e + a 2 e + a 3 e + a 4 e + a 1 e + a 2 e + a 3 e + a 4 e + a 

God Hates Us


0:43 Intro
G|-----------------------------------------------------------------|
D|-----------------------------------------------------------------|
A|-----------------------------------------------------------------|
D|-0-------------------------------0-------------------------------|
   1 + 2 + 3 + 4 + 1 + 2 + 3 + 4 + 1 + 2 + 3 + 4 + 1 + 2 + 3 + 4 +

Rest

0:55 Verse
G|----------------------------------|
D|----------------------------------|
A|----------------------------------|
D|-1-----1-----1---13----13----13---| 
   Tri   pl    et  tri   pl    et

G|---------------------------------------------------------------------|
D|o-------------------------------------------------------------------o|
A|o-------------------------------------------------------------------o|x3
D|--12-------0---0---0---0---0---0---12-----------10----------13-------|
    1  e + a 2 e + a 3 e + a 4 e + a 1  e + a 2 e + a 3 e + a 4 e + a 

G|----------------------------------|
D|----------------------------------|
A|----------------------------------|
D|-1-----1-----1---13----13----13---| 
   Tri   pl    et  tri   pl    et

G|---------------------------------------------------------------------|
D|o-------------------------------------------------------------------o|
A|o-------------------------------------------------------------------o|x3
D|--12-------0---0---0---0---0---0---12-----------10----------13-------|
    1  e + a 2 e + a 3 e + a 4 e + a 1  e + a 2 e + a 3 e + a 4 e + a 

G|----------------------------------|
D|----------------------------------|
A|----------------------------------|
D|-1-----1-----1---13----13----13---| 
   Tri   pl    et  tri   pl    et

1:11 Interlude
G|-------------------------------------------------------------------|
D|o-----------------------------------------------------------------o|
A|o-------5-5-3-6---------8-8-8-6-5-------5-5-3-6-------------------o|
D|--0-----------------0---------------0---------------1---1---1---1--|
    1 + 2 + 3 + 4 + 1 + 2 + 3 + 4 + 1 + 2 + 3 + 4 + 1 + 2 + 3 + 4 +

1:24 Pre Chorus
G|------------------------------------------------------------------|
D|------------------------------------------------------------------|
A|------------------------------------------------------------------|
D|-0-------------------------------------------------------3--6--9--|
   1 + 2 + 3 + 4 + 1 + 2 + 3 + 4 + 1 + 2 + 3 + 4 + 1 + 2 + Triplet

G|-----------------------------------------------------------------|
D|-----------------------------------------------------------------|
A|-----------------5-----------------------5-------5-5-5-5-5-5-5-5-|
D|-0-0-0-0-----0-0---------0-0-0-0-----0-0-----0-0-----------------|
   1 e + a 2 e + a 3 e + a 4 e + a 1 e + a 2 e + a 3 e + a 4 e + a 

G|-----------------------------------------------------------------|
D|-----------------------------------------------------------------|
A|-----------------5-----------------------5-----------------------|
D|-0-0-0-0-----0-0---------0-0-0-0-----0-0-----0-0-3-----6-----9---|
   1 e + a 2 e + a 3 e + a 4 e + a 1 e + a 2 e + a Tri   pl    et 

1:38 Chorus
G|------------------------------------------------------------------|
D|o----------------------------------------------------------------o|
A|o----------------------------------------------------------------o|x4
D|--0-----6-----3-/9-------6---------------3--6--3/9-------6--------|
    Tri   pl    et 3 e + a 4 e + a 1 e + a Triplet 3 e + a 4 e + a

1:52 Interlude
G|-------------------------------------------------------------------|
D|o-----------------------------------------------------------------o|
A|o-------5-5-3-6---------8-8-8-6-5-------5-5-3-6-------------------o|
D|--0-----------------0---------------0---------------1---1---1---1--|
    1 + 2 + 3 + 4 + 1 + 2 + 3 + 4 + 1 + 2 + 3 + 4 + 1 + 2 + 3 + 4 +

G|---------------------------------------------------------------------|
D|---------------------------------------------------------------------|
A|---------------------------------------------------------------------|
D|-0-----------------------------------------------1--1--1-13--13--13--|
   1 + 2 + 3 + 4 + 1 + 2 + 3 + 4 + 1 + 2 + 3 + 4 + Triplet Tri pl  et

Verse 2:12
G|---------------------------------------------------------------------|
D|o-------------------------------------------------------------------o|
A|o-------------------------------------------------------------------o|x8
D|--12-------0---0---0---0---0---0---12-----------10----------13-------|
    1  e + a 2 e + a 3 e + a 4 e + a 1  e + a 2 e + a 3 e + a 4 e + a 

Pre Chorus 2:27
G|------------------------------------------------------------------|
D|------------------------------------------------------------------|
A|------------------------------------------------------------------|
D|-0-------------------------------------------------------3--6--9--|
   1 + 2 + 3 + 4 + 1 + 2 + 3 + 4 + 1 + 2 + 3 + 4 + 1 + 2 + Triplet

G|-----------------------------------------------------------------|
D|-----------------------------------------------------------------|
A|-----------------5-----------------------5-------5-5-5-5-5-5-5-5-|
D|-0-0-0-0-----0-0---------0-0-0-0-----0-0-----0-0-----------------|
   1 e + a 2 e + a 3 e + a 4 e + a 1 e + a 2 e + a 3 e + a 4 e + a 

G|-----------------------------------------------------------------|
D|-----------------------------------------------------------------|
A|-----------------5-----------------------5-----------------------|
D|-0-0-0-0-----0-0---------0-0-0-0-----0-0-----0-0-3-----6-----9---|
   1 e + a 2 e + a 3 e + a 4 e + a 1 e + a 2 e + a Tri   pl    et 

2:40 Chorus
G|------------------------------------------------------------------|
D|o----------------------------------------------------------------o|
A|o----------------------------------------------------------------o|x4
D|--0-----6-----3-/9-------6---------------3--6--3/9-------6--------|
    Tri   pl    et 3 e + a 4 e + a 1 e + a Triplet 3 e + a 4 e + a

Interlude
G|-------------------------------------------------------------------|
D|o-----------------------------------------------------------------o|
A|o-------5-5-3-6---------8-8-8-6-5-------5-5-3-6-------------------o|
D|--0-----------------0---------------0---------------1---1---1---1--|
    1 + 2 + 3 + 4 + 1 + 2 + 3 + 4 + 1 + 2 + 3 + 4 + 1 + 2 + 3 + 4 +

3:08 Breakdown
G|------------------------------------------------------------------|
D|o-----------------------------------------------------------------|
A|o-----------------------------------------------------------------|
D|--0-0-0-0-----------0-0-0---------0-0-0-0-----------0-0-0---------|
    1 + 2 + 3 + 4 + 1 + 2 + 3 + 4 + 1 + 2 + 3 + 4 + 1 + 2 + 3 + 4 +

G|------------------------------------------------------------------|
D|-----------------------------------------------------------------o|
A|-----------------------------------------------------------------o|
D|-0--0--0-----------0-0-0---------0-0-0-0-----------0-0-0----------|
   triplet 3 + 4 + 1 + 2 + 3 + 4 + 1 + 2 + 3 + 4 + 1 + 2 + 3 + 4 +

3:39 Solo
G|------------------------------------------------------------------|
D|o----------------------------------------------------------------o|
A|o----------------------------------------------------------------o|x8
D|--0-----6-----3-/9-------6---------------3--6--3/9-------6--------|
    Tri   pl    et 3 e + a 4 e + a 1 e + a Triplet 3 e + a 4 e + a

4:06 Outro
G|-------------------------------------------------------------------|
D|o-----------------------------------------------------------------o|
A|o-------5-5-3-6---------8-8-8-6-5-------5-5-3-6-------------------o|x4
D|--0-----------------0---------------0---------------1---1---1---1--|
    1 + 2 + 3 + 4 + 1 + 2 + 3 + 4 + 1 + 2 + 3 + 4 + 1 + 2 + 3 + 4 +

G|--------------------------------|
D|--------------------------------|
A|--------------------------------|
D|-0------------------------------|       
   1 + 2 + 3 + 4 + 1 + 2 + 3 + 4 +

Victim

Intro
G|-------------------------------------------------------------------|
D|o-------------------------------5---------------------------------o|
A|o-3-------------------------------3-------------------------------o|x4
D|-------------------------------------------------------------------|
    1 e + a 2 e + a 3 e + a 4 e + a 1 e + a 2 e + a 3 e + a 4 e + a 

0:28
G|-----------------------------------------------------------------|
D|-----------------------------------------------------------------|
A|-6-------------6-6-r-6-------6-6-6-------------6-6-r-6-------6-\-|
D|-----------------------------------------------------------------|
   1 e + a 2 e + a 3 e + a 4 e + a 1 e + a 2 e + a 3 e + a 4 e + a 

G|-----------------------------------------------------------------|
D|-----------------------------------------------------------------|
A|-3-------------3-3-r-3-3-3---3---3-------------3-3-r-3-------3-5-|
D|-------------------------------5---------------------------------|
   1 e + a 2 e + a 3 e + a 4 e + a 1 e + a 2 e + a 3 e + a 4 e + a 

G|-----------------------------------------------------------------|
D|-----------------------------------------------------------------|
A|-6-------------6-6-r-6-------6-6/8---6---------6-6-r-6-----------|
D|-----------------------------------------------------------------|
   1 e + a 2 e + a 3 e + a 4 e + a 1 e + a 2 e + a 3 e + a 4 e + a 

G|-------------------------------------------------------------------|
D|o-------------------------------5---------------------------------o|
A|o-3-------------------------------3-------------------------------o|
D|-------------------------------------------------------------------|
    1 e + a 2 e + a 3 e + a 4 e + a 1 e + a 2 e + a 3 e + a 4 e + a 

1:06 Verse
G|-------------------------------------------------------------------|
D|o-----------------------------------------------------------------o|
A|o-3-------------3-3-r-3---3---------------------------------------o|
D|----------------------------------6-------------6-6-r-6---6--------|
    1 e + a 2 e + a 3 e + a 4 e + a 1 e + a 2 e + a 3 e + a 4 e + a 

G|-----------------------------------------------------------------|
D|-----------------------------------------------------------------|
A|-----------------------------------------------------------------|
D|-6/8-----------8-8-r-8---8---8---8\6-------------6---6---6-------|
   1 e + a 2 e + a 3 e + a 4 e + a 1 e + a 2 e + a 3 e + a 4 e + a 

G|-----------------------------------------------------------------|
D|-----------------------------------------------------------------|
A|-------------------------------------------------------------1---|
D|-6/8-----------8-8-r-8-----------8\6-----------6-6-r-6-----------|
   1 e + a 2 e + a 3 e + a 4 e + a 1 e + a 2 e + a 3 e + a 4 e + a 

G|-----------------------------------------------------------------|
D|---------------------5---5---------------------6---------6-5-----|
A|-3-------3-----3-3-r---------3-------------------------------6---|
D|---------------------------------6-------6-------6-r-6-----------|
   1 e + a 2 e + a 3 e + a 4 e + a 1 e + a 2 e + a 3 e + a 4 e + a 

G|-----------------------------------------------------------------|
D|---------5-------------------------------------------------------|
A|-3-------------3-5-r-3---3---------------------------------------|
D|-----------------------------3-5-6-----------6-6-6-r-6---6---6---|
   1 e + a 2 e + a 3 e + a 4 e + a 1 e + a 2 e + a 3 e + a 4 e + a 

G|-----------------------------------------------------------------|
D|-----------------------------------------------------------------|
A|-----------------------------------------------------------------|
D|-6/8-----------8-8-r-8---8-------8\6-----------6-6-r-6---6-------|
   1 e + a 2 e + a 3 e + a 4 e + a 1 e + a 2 e + a 3 e + a 4 e + a 

G|-----------------------------------------------------------------|
D|-----------------------------------------------------------------|
A|-----------------------------------------------------------------|
D|-6/8-----------8-8-r-8---8-------8\6-------------6---6---6---6-8-|
   1 e + a 2 e + a 3 e + a 4 e + a 1 e + a 2 e + a 3 e + a 4 e + a 

2:05 Chorus
G|-------------------------5-------------------------------5-------|
D|---------5-----------5-----5---5-6-------6-----------6-----6---6-|
A|-3-3---3---3-3-3---3---3-----3-----3---3---3-3-3---3---3-----3---|
D|-----------------------------------------------------------------|
   1 e + a 2 e + a 3 e + a 4 e + a 1 e + a 2 e + a 3 e + a 4 e + a 

G|-----------------------------------------------------------------|
D|-----------------------------------------------------------------|
A|-1-1---1-1-1-1-1---1-1-1-1-1-1-1---------------------------------|
D|---------------------------------1-----1---1-5-----5-5---5---5---|
   1 e + a 2 e + a 3 e + a 4 e + a 1 e + a 2 e + a 3 e + a 4 e + a 

G|-------------------------5-------------------------------5-------|
D|---------5-----------5-----5---5-6-------6-----------6-----6---6-|
A|-3-3---3---3-3-3---3---3-----3-----3---3---3-3-3---3---3-----3---|
D|-----------------------------------------------------------------|
   1 e + a 2 e + a 3 e + a 4 e + a 1 e + a 2 e + a 3 e + a 4 e + a 

G|-----------------------------------------------------------------|
D|-----------------------------------------------------------------|
A|-1-1---1-1-1-1-1---1-1-1-1-1-1-1---------------------------------|
D|---------------------------------1-----1---1-5-------------------|
   1 e + a 2 e + a 3 e + a 4 e + a 1 e + a 2 e + a 3 e + a 4 e + a 

G|---------------------------------|
D|---------------------------------|
A|-3-------------------------------|
D|---------------------------------|
   1 e + a 2 e + a 3 e + a 4 e + a

Verse 2:38
G|-----------------------------------------------------------------|
D|-----------------------------------------------------------------|
A|-3-------3-----3-3-r-3---3---3-----------------------------------|
D|---------------------------------6-------------6-6-r-6---6---6---|
   1 e + a 2 e + a 3 e + a 4 e + a 1 e + a 2 e + a 3 e + a 4 e + a 

G|-----------------------------------------------------------------|
D|-----------------------------------------------------------------|
A|-3-------3-----3-3-r-3---3---------------------------------------|
D|-----------------------------5---6-------6-----6-6-r-6---6-------|
   1 e + a 2 e + a 3 e + a 4 e + a 1 e + a 2 e + a 3 e + a 4 e + a 

G|-----------------------------------------------------------------|
D|-----------------------------------------------------------------|
A|-----------------------------------------------------------------|
D|-6/8-----8-----8-8-r-8---8---8---8\6-----------6-6-r-6---6-------|
   1 e + a 2 e + a 3 e + a 4 e + a 1 e + a 2 e + a 3 e + a 4 e + a 

G|-----------------------------------------------------------------|
D|-----------------------------------------------------------------|
A|-----------------------------------------------------------------|
D|-6/8-----------8-8-r-8---8-------8\6-------------6---6-------6-8-|
   1 e + a 2 e + a 3 e + a 4 e + a 1 e + a 2 e + a 3 e + a 4 e + a 

3:07 Chorus
G|-------------------------5-------------------------------5-------|
D|---------5-----------5-----5---5-6-------6-----------6-----6---6-|
A|-3-3---3---3-3-3---3---3-----3-----3---3---3-3-3---3---3-----3---|
D|-----------------------------------------------------------------|
   1 e + a 2 e + a 3 e + a 4 e + a 1 e + a 2 e + a 3 e + a 4 e + a 

G|-----------------------------------------------------------------|
D|-----------------------------------------------------------------|
A|-1-1---1-1-1-1-1---1-1-1-1-1-1-1---------------------------------|
D|---------------------------------1-----1---1-5-----5-5---5---5---|
   1 e + a 2 e + a 3 e + a 4 e + a 1 e + a 2 e + a 3 e + a 4 e + a 

G|-------------------------5-------------------------------5-------|
D|---------5-----------5-----5---5-6-------6-----------6-----6---6-|
A|-3-3---3---3-3-3---3---3-----3-----3---3---3-3-3---3---3-----3---|
D|-----------------------------------------------------------------|
   1 e + a 2 e + a 3 e + a 4 e + a 1 e + a 2 e + a 3 e + a 4 e + a 

G|-----------------------------------------------------------------|
D|-----------------------------------------------------------------|
A|-1-1---1-1-1-1-1---1-1-1-1-1-1-1---------------------------------|
D|---------------------------------1-----1---1-5-------------------|
   1 e + a 2 e + a 3 e + a 4 e + a 1 e + a 2 e + a 3 e + a 4 e + a 

3:37 Guitar Solo 1
G|-----------------------------------------------------------------|
D|---------------------------------------------------6-------------|
A|-3---3---1-3---3-----3-5-6-5-3-----------------------------------|
D|---------------------------------8---6-----6---6---------6-005-00|
   1 e + a 2 e + a 3 e + a 4 e + a 1 e + a 2 e + a 3 e + a 4 e + a 

G|-----------------------------------------------------------------|
D|-----------------------------------------------------------------|
A|---------------------------------3---3---1-3-----3---3-3---1-3-6-|
D|-3---3-----3---3---3-3---3---3-----------------------------------|
   1 e + a 2 e + a 3 e + a 4 e + a 1 e + a 2 e + a 3 e + a 4 e + a 

Interlude 3:52
G|------------------------------------------------------------------|
D|o-----------------------------------------------------------------|
A|o-3---3---3-3-3---3-3-3-3---3-3-----------------------------------|
D|----------------------------------6---6---6-6-6---6-6-6-6---6-6---|
    1 e + a 2 e + a 3 e + a 4 e + a 1 e + a 2 e + a 3 e + a 4 e + a 

G|------------------------------------------------------------------|
D|-----------------------------------------------------------------o|
A|-6---6---6-6-6---6-6-6-6---6-6-----------------------------------o|
D|---------------------------------5---5---5-5-5---5-5-5-5-5-5-5-5--|
   1 e + a 2 e + a 3 e + a 4 e + a 1 e + a 2 e + a 3 e + a 4 e + a 

Bridge 4:22
G|-----------------------------------------------------------------|
D|-----------------------------------------------------------------|
A|-6-----6-6-------6---6---6-8-6-5-1-----1-1-----1-1---1---1-1-0-1-|
D|-----------------------------------------------------------------|
   1 e + a 2 e + a 3 e + a 4 e + a 1 e + a 2 e + a 3 e + a 4 e + a 

G|-----------------------------------------------------------------|
D|-----------------------------------------------------------6-5---|
A|-3-----3-3-----3-3---3---3-5-3-1-------------------------------6-|
D|---------------------------------6-----6-6-----6-6---6-----------|
   1 e + a 2 e + a 3 e + a 4 e + a 1 e + a 2 e + a 3 e + a 4 e + a 

4:36
G|------------------------------------------------------------------|
D|--------------------------------------------------------------6-8-|
A|-6-----6-6-6---6-6---6---6---6-8--------------------------5-8-----|
D|---------------------------------8-----8-8---8---8-8-8-10---------|
   1 e + a 2 e + a 3 e + a 4 e + a 1 e + a 2 e + a 3 e + a  4 e + a 

G|--------------------------5---------------------------------------|
D|----------------------5-----5-------------------------------------|
A|-3------3-3-----3-3-----3-----3-----------------------------------|
D|----------------------------------6-----6-6-----6-6---6---6---6---|
    1 e + a 2 e + a 3 e + a 4 e + a 1 e + a 2 e + a 3 e + a 4 e + a 

G|-----------------------------------------------------------------|
D|-----------------------------------------------------------------|
A|-3-------------------------------3-------------------------------|
D|-----------------------------------------------------------------|
   1 e + a 2 e + a 3 e + a 4 e + a 1 e + a 2 e + a 3 e + a 4 e + a 

G|-----------------------------------------------------------------|
D|-----------------------------------------------------------------|
A|-3-------------------------------3---------------3-3-3-3-3-3-3-3-|
D|-----------------------------------------------------------------|
   1 e + a 2 e + a 3 e + a 4 e + a 1 e + a 2 e + a 3 e + a 4 e + a 

Guitar Solo 2 5:06
G|-------------------------------------------------3-----3---------|
D|-1---1---1-1-1---1-1-1-1---1-1-1---------------------------------|
A|---------------------------------1---1---1-1-1-----1-1-----1-1-1-|
D|-----------------------------------------------------------------|
   1 e + a 2 e + a 3 e + a 4 e + a 1 e + a 2 e + a 3 e + a 4 e + a 

G|-----------------------------------------------------------------|
D|-----------------------------------------6---------------6-------|
A|-3---3---3-3-3---3-3-3-3---3-3-3---------------------------------|
D|---------------------------------6---6-----6-6---6-6-6-6---6-6-6-|
   1 e + a 2 e + a 3 e + a 4 e + a 1 e + a 2 e + a 3 e + a 4 e + a 

G|-----------------------------------------------------------------|
D|-1---1---1-1-1---1-1-1-1---1-1-1---------------------------------|
A|---------------------------------1---1---1-1-1---1-1-1-1---1-1-1-|
D|-----------------------------------------------------------------|
   1 e + a 2 e + a 3 e + a 4 e + a 1 e + a 2 e + a 3 e + a 4 e + a 

G|-----------------------------------------------------------------|
D|-----------------------------------------------------------------|
A|-3---3---3-3-3---3-3-3-3---3-3-3---------------------------------|
D|---------------------------------6---6---6-6-6---6-6-6-6-6-6-6-6-|
   1 e + a 2 e + a 3 e + a 4 e + a 1 e + a 2 e + a 3 e + a 4 e + a 

Chorus
G|-------------------------5-------------------------------5-------|
D|---------5-----------5-----5---5-6-------6-----------6-----6---6-|
A|-3-3---3---3-3-3---3---3-----3-----3---3---3-3-3---3---3-----3---|
D|-----------------------------------------------------------------|
   1 e + a 2 e + a 3 e + a 4 e + a 1 e + a 2 e + a 3 e + a 4 e + a 

G|-----------------------------------------------------------------|
D|-----------------------------------------------------------------|
A|-1-1---1-1-1-1-1---1-1-1-1-1-1-1---------------------------------|
D|---------------------------------1-----1-----5-----5-5---5---5---|
   1 e + a 2 e + a 3 e + a 4 e + a 1 e + a 2 e + a 3 e + a 4 e + a 

G|-------------------------5-------------------------------5-------|
D|---------5-----------5-----5---5-6-------6-----------6-----6---6-|
A|-3-3---3---3-3-3---3---3-----3-----3---3---3-3-3---3---3-----3---|
D|-----------------------------------------------------------------|
   1 e + a 2 e + a 3 e + a 4 e + a 1 e + a 2 e + a 3 e + a 4 e + a 

G|-----------------------------------------------------------------|
D|-----------------------------------------------------------------|
A|-1-1---1-1-1-1-1---1-1-1-1-1-1-1---------------------------------|
D|---------------------------------1-----1---1-5-------------------|
   1 e + a 2 e + a 3 e + a 4 e + a 1 e + a 2 e + a 3 e + a 4 e + a 

G|-----------------------------------------------------------------|
D|-----------------------------------------------------------------|
A|-----------------------------------------------------------------|
D|-1-----1---1-5-----------5---5---1-1-1-1-----5-------------------|
   1 e + a 2 e + a 3 e + a 4 e + a 1 e + a 2 e + a 3 e + a 4 e + a 

G|-----------------------------------------------------------------|
D|-------------------------------5-------------------------------5-|
A|-3-------------------------------3-------------------------------|
D|-----------------------------------------------------------------|
   1 e + a 2 e + a 3 e + a 4 e + a 1 e + a 2 e + a 3 e + a 4 e + a
G|-----------------------------------------------------------------|
D|-------------------------------5---------------------------------|
A|-3-------------------------------3-------------------------------|
D|-----------------------------------------------------------------|
   1 e + a 2 e + a 3 e + a 4 e + a 1 e + a 2 e + a 3 e + a 4 e + a 

Tonight The World Dies

0:14
G|-------------------------0---------------------------------------|
D|-0h2-----------------0-2---2-0-----------------------------------|
A|-------------------------------0---------------------------------|
D|--------------------------------/8---2-------------2-4-2-6-7-4-2-|
   1 e + a 2 e + a 3 e + a 4 e + a 1 e + a 2 e + a 3 e + a 4 e + a 

0:21
G|---------------------------------------------------------3-2-----|
D|-0h2-------------2---2-2-0-2-------------------------2-------5-2-|
A|-----------------------------2---1-------1-------1-2---2---------|
D|-------------------------------2---------------------------------|
   1 e + a 2 e + a 3 e + a 4 e + a 1 e + a 2 e + a 3 e + a 4 e + a 

0:28
G|-----------------------------------------------------------------|
D|-----------------------------------------------------------------|
A|-3-------3-------3---3-3-5--3------------------------------------|
D|-------------------------------5-2-------2-----4-2---2-2-2---2-/-|
   1 e + a 2 e + a 3 e + a 4 e + a 1 e + a 2 e + a 3 e + a 4 e + a 

0:35
G|-----------------------------------------------------------------|
D|-----------------------------------------------------------------|
A|-3-------3-----3-3-3---3-5--3--------------------------------2---|
D|-------------------------------5-2-------------2-----2-2-5-------|
   1 e + a 2 e + a 3 e + a 4 e + a 1 e + a 2 e + a 3 e + a 4 e + a 

0:42
G|-----------------------------------------------------------------|
D|-----------------------------------------------------------------|
A|-3-------3-----3-3-3---3-5--3------------------------------------|
D|-------------------------------5-2-------2---------2-2-2-4---5---|
   1 e + a 2 e + a 3 e + a 4 e + a 1 e + a 2 e + a 3 e + a 4 e + a 

0:49
G|---------------------2-----4-2-----------------------------------|
D|-------------------2---2-------2---------------------------------|
A|-0-------0-----0-0-------0---------------------------------------|
D|---------------------------------5-------5-------5---5-5-5-4-----|
   1 e + a 2 e + a 3 e + a 4 e + a 1 e + a 2 e + a 3 e + a 4 e + a 

0:56
G|---------------------------------------------------------3-2-0---|
D|-0h2-----------2---2-2-------5---------------------0-2-----------|
A|-------------------------5-7-----1-------1-----------------------|
D|-----------------------------------------------------------------|
   1 e + a 2 e + a 3 e + a 4 e + a 1 e + a 2 e + a 3 e + a 4 e + a 

1:04
G|-------------------------0---0-2-3-----------------9-----7-------|
D|-0h2-----------2---2-0-2---2---------------------8~--8-----8-4---|
A|-----------------------------------------------------------------|
D|-----------------------------------------------------------------|
   1 e + a 2 e + a 3 e + a 4 e + a 1 e + a 2 e + a 3 e + a 4 e + a 

1:11
G|-----------------------------------------------------------------|
D|-----------------------------------------------------------------|
A|-3-------------3---3-3---5--3--------------------------------1/--|
D|-------------------------------5-2---------------2-------2-------|
   1 e + a 2 e + a 3 e + a 4 e + a 1 e + a 2 e + a 3 e + a 4 e + a 

1:17
G|-----------------------------------------------------------------|
D|------------------------------------------------/5---5-2---------|
A|-3-------3-----3---3-3---5--3--------------------------------2---|
D|-------------------------------5-2-------------------------------|
   1 e + a 2 e + a 3 e + a 4 e + a 1 e + a 2 e + a 3 e + a 4 e + a 

1:25
G|-----------------------------------------------------------------|
D|-----------------------------------------2-----------------------|
A|-3-------3-----3-----3---5--3------------------------------------|
D|-------------------------------5-2---------------2-------4---5---|
   1 e + a 2 e + a 3 e + a 4 e + a 1 e + a 2 e + a 3 e + a 4 e + a 

1:32
G|-----------------------------------------------------------------|
D|-----------------------------------------------------------------|
A|-0-------0-----0-----0-0---2-0-----------------------------------|
D|---------------------------------5-------5-----5---5-5---5-4-5-4-|
   1 e + a 2 e + a 3 e + a 4 e + a 1 e + a 2 e + a 3 e + a 4 e + a 

1:39
G|-----------------------------------------------------------------|
D|-----------------------------------------------------------------|
A|-----------------------------2---3-------3-----3---3-3-3-3-5-3-2-|
D|-2-------2-----2---2-2---5-2-------------------------------------|
   1 e + a 2 e + a 3 e + a 4 e + a 1 e + a 2 e + a 3 e + a 4 e + a 

1:46
G|-----------------------------------------------------------------|
D|-----------------------------------------------------------------|
A|-----------------------------2---3-------3-----3---3-3-3-3-5-3-2-|
D|-2-------2-----2---2-2-2-5-2-------------------------------------|
   1 e + a 2 e + a 3 e + a 4 e + a 1 e + a 2 e + a 3 e + a 4 e + a 

1:53
G|-----------------------------------------------------------------|
D|-----------------------------------------------------------------|
A|-0-------0-----0---0-0---0-2-----3-------3-----3---3-3---3-3-3---|
D|-----------------------------------------------------------------|
   1 e + a 2 e + a 3 e + a 4 e + a 1 e + a 2 e + a 3 e + a 4 e + a 

2:00
G|---------------------------------------------------------2---0---|
D|---------------------------------------------------2---2---2---2-|
A|---------------------------2---2-1-------1-------1---------------|
D|-2-------------2---2-2---2---2-----------------------------------|
   1 e + a 2 e + a 3 e + a 4 e + a 1 e + a 2 e + a 3 e + a 4 e + a 

2:07
G|-----------------------------------------------------------------|
D|---------------2---2-2---5-2-0-----------------------------------|
A|-------------------------------2-1-------1-------1-------2-1-----|
D|-2-----------------------------------------------------------5---|
   1 e + a 2 e + a 3 e + a 4 e + a 1 e + a 2 e + a 3 e + a 4 e + a 

2:14
G|-----------------------------------------------------------------|
D|-----------------------------------------------------------------|
A|-3-------3-----3---3-3---5--3--------------------------------2---|
D|-------------------------------5-2-------2-------2-------2-4-----|
   1 e + a 2 e + a 3 e + a 4 e + a 1 e + a 2 e + a 3 e + a 4 e + a 

2:22
G|-----------------------------------------------------------------|
D|-------------------------------------------------2-2-4-4-4h5p4---|
A|-3-------3-----3---3-3---5--3------------------------------------|
D|-------------------------------5-2-------2-----2-----------------|
   1 e + a 2 e + a 3 e + a 4 e + a 1 e + a 2 e + a 3 e + a 4 e + a 

2:29
G|-----------------------------------------------------------------|
D|-----------------------------------------------------------------|
A|-3-------3-----3---3-3-3-5--3------------------------------------|
D|-------------------------------5-2-----------------------2---5---|
   1 e + a 2 e + a 3 e + a 4 e + a 1 e + a 2 e + a 3 e + a 4 e + a 

2:36
G|-----------------------------------------------------------------|
D|-----------------------------------------------------------------|
A|-0-------0-------------0-0-2-0-----------------------------------|
D|---------------------------------5-------5-----5---5-5---5-5-4---|
   1 e + a 2 e + a 3 e + a 4 e + a 1 e + a 2 e + a 3 e + a 4 e + a 

2:43
G|-----------------------------------------------------------------|
D|-------2---------------------------------------------------------|
A|-----------------------------0h2h3-------3-----3---3-3---3-5-3-2-|
D|-2-------2-----2---2-5-2-5-2-------------------------------------|
   1 e + a 2 e + a 3 e + a 4 e + a 1 e + a 2 e + a 3 e + a 4 e + a 

2:50
G|-----------------------------------------------------------------|
D|-----------------------------------------------------------------|
A|-----------------------------2---3-------3-----3---3-3---3-5-3-2-|
D|-2-------2-----2---2-2---5-2-------------------------------------|
   1 e + a 2 e + a 3 e + a 4 e + a 1 e + a 2 e + a 3 e + a 4 e + a 

2:57
G|-----------------------------------------------------------------|
D|-----------------------------------------------------------------|
A|-0-------0-----0-0---0---0-2-----3-------3-----3---3-3---3-5-3---|
D|---------------------------------------------------------------5-|
   1 e + a 2 e + a 3 e + a 4 e + a 1 e + a 2 e + a 3 e + a 4 e + a 

3:04
G|-----------------------------------------------------------------|
D|-----------------------------------------------------------------|
A|-0-------0-----0---0-0---0-2-----3-------3-------3-3-3---3-4-5-6-|
D|-----------------------------------------------------------------|
   1 e + a 2 e + a 3 e + a 4 e + a 1 e + a 2 e + a 3 e + a 4 e + a 

3:11
G|-----------------------------------------------4-----4---4---4---|
D|-2---2-2-2-----2-----2-------------------------------------------|
A|-------------3-----3-----3-5-7-\-2-------2---2---2-2---2---2---2-|
D|-----------------------------------------------------------------|
   1 e + a 2 e + a 3 e + a 4 e + a 1 e + a 2 e + a 3 e + a 4 e + a 

3:19
G|---------------5-----5-7-5---------------------------------------|
D|---------------------------5-------------5-5---------5-4---------|
A|-3---3-3-3---3-----3---------3-3-5-----5-----5-----5-----5-------|
D|-----------------------------------------------------------------|
   1 e + a 2 e + a 3 e + a 4 e + a 1 e + a 2 e + a 3 e + a 4 e + a 

3:26
G|-----------------------------------------------------4---4-------|
D|---------------------2-----5-4-----------------------------------|
A|-------------------2---2-5-----5-2-----2-2---2-2---2---2---2-0-2-|
D|-2---------------------------------------------------------------|
   1 e + a 2 e + a 3 e + a 4 e + a 1 e + a 2 e + a 3 e + a 4 e + a 

3:33
G|-----------------------------------------------------------------|
D|-----------------------------------------------------------------|
A|-3-3-3-3-3-3-3-3-3-3-----3-3-3-3-5---5---5---5---5-5-5---5-7-7---|
D|-----------------------------------------------------------------|
   1 e + a 2 e + a 3 e + a 4 e + a 1 e + a 2 e + a 3 e + a 4 e + a 

3:40
G|-----------------------------------------------------------------|
D|-----------------------------------------------------------------|
A|-----------------------------2---3-------3-----3---3-3---3-5-3-2-|
D|-2---2-2-2---2-2---2-2---5-2-------------------------------------|
   1 e + a 2 e + a 3 e + a 4 e + a 1 e + a 2 e + a 3 e + a 4 e + a 

3:47
G|-----------------------------------------------------------------|
D|-----------------------------------------------------------------|
A|-----------------------------2---3-------3-----3---3-3---3-5-3-2-|
D|-2-------2-----2---2-2---5-2-------------------------------------|
   1 e + a 2 e + a 3 e + a 4 e + a 1 e + a 2 e + a 3 e + a 4 e + a 

3:54
G|-----2-----------------------------------------------------------|
D|-----------------------------------------------------------------|
A|-0-------0-----0-0-0-----0-2-----3---3---3-----3-3-3-----3-3-2---|
D|-----------------------------------------------------------------|
   1 e + a 2 e + a 3 e + a 4 e + a 1 e + a 2 e + a 3 e + a 4 e + a 

4:01
G|-----------------------------------------------------------------|
D|-----------------------------------------------------------------|
A|-0---0---0-----0-0-0-0-0-0-2---2-3-------3-----3-3-3-3-3-3-3-3-3-|
D|-----------------------------------------------------------------|
   1 e + a 2 e + a 3 e + a 4 e + a 1 e + a 2 e + a 3 e + a 4 e + a 

4:08
G|-------------------------------2-3-------3-------3-9-----7-------|
D|-2-------------------0-2-5-2-5-------------------------8---8-7---|
A|-----------------------------------------------------------------|
D|-----------------------------------------------------------------|
   1 e + a 2 e + a 3 e + a 4 e + a 1 e + a 2 e + a 3 e + a 4 e + a 

4:16
G|-----------------------------------------------------------------|
D|-0h2-----------2---2-2---0-2-0-----------------------------------|
A|-------------------------------2-1-------------------------------|
D|-------------------------------------------------8\5\2---5---2---|
   1 e + a 2 e + a 3 e + a 4 e + a 1 e + a 2 e + a 3 e + a 4 e + a 

4:23
G|-----------------------------------------------------------------|
D|-----------------------------------------------------------------|
A|-5h7---------------------\-\-\-\---------------------------------|
D|-----------------------------------------------------------------|
   1 e + a 2 e + a 3 e + a 4 e + a 1 e + a 2 e + a 3 e + a 4 e + a 

Fiction


0:15
G|-----------------------------------------------------------------|
D|-----------------------------------------------------------------|
A|-3---------------3--3--333-------3---------------3--3--333-------|
D|-----------------------------------------------------------------|
   1 + 2 + 3 + 4 + 1 + 2 + 3 + 4 + 1 + 2 + 3 + 4 + 1 + 2 + 3 + 4 + 

G|------------------------------------------------------------------|
D|o-----------------------------------------------------------------|
A|o-3-------------------------------3-------------------------------|
D|------------------------------------------------------------------|
    1 + 2 + 3 + 4 + 1 + 2 + 3 + 4 + 1 + 2 + 3 + 4 + 1 + 2 + 3 + 4 + 

G|----------------------------------|
D|---------------------------------o|
A|---------------------------------o|
D|-3--------------------------------|
   1 + 2 + 3 + 4 + 1 + 2 + 3 + 4 + 

0:48 Verse
G|-----------------------------------------------------------------|
D|-----------------------------------------------------------------|
A|-3---------------------------------------------------------------|
D|-----------------------------------------------------------------|
   1 + 2 + 3 + 4 + 1 + 2 + 3 + 4 + 1 + 2 + 3 + 4 + 1 + 2 + 3 + 4 + 

G|---------------------------------|
D|---------------------------------|
A|---------------------------------|
D|-3-------------------------------|
   1 + 2 + 3 + 4 + 1 + 2 + 3 + 4 + 

G|-----------------------------------------------------------------|
D|-----------------------------------------------------------------|
A|-3-------------------------------3-------------------------------|
D|-----------------------------------------------------------------|
   1 + 2 + 3 + 4 + 1 + 2 + 3 + 4 + 1 + 2 + 3 + 4 + 1 + 2 + 3 + 4 + 

G|---------------------------------|
D|---------------------------------|
A|---------------------------------|
D|-3-------------------------------|
   1 + 2 + 3 + 4 + 1 + 2 + 3 + 4 + 

1:12 Interlude
G|-----------------------------------------------------------------|
D|-----------------------------------------------------------------|
A|-3---------------3--3--333-------3---------------3--3--333-------|
D|-----------------------------------------------------------------|
   1 + 2 + 3 + 4 + 1 + 2 + 3 + 4 + 1 + 2 + 3 + 4 + 1 + 2 + 3 + 4 + 

G|---------------------------------|
D|---------------------------------|
A|---------------------------------|
D|-3-------------------------------|
   1 + 2 + 3 + 4 + 1 + 2 + 3 + 4 + 

1:23 Verse
G|------------------------------------------------------------------|
D|o-----------------------------------------------------------------|
A|o-3------------------------------3--------------------------------|
D|------------------------------------------------------------------|
    1 + 2 + 3 + 4 + 1 + 2 + 3 + 4 + 1 + 2 + 3 + 4 + 1 + 2 + 3 + 4 + 

G|----------------------------------|
D|---------------------------------o|
A|---------------------------------o|
D|-3--------------------------------|
   1 + 2 + 3 + 4 + 1 + 2 + 3 + 4 + 

1:47 Chorus x3
G|--------------------------------------------------|
D|o------------------------------------------------o|
A|o-3-------2---3----------------------------------o|
D|------------------2---5---6---------------6---5---|
    1 + 2 + 3 + 4 + 5 + 6 + 1 + 2 + 3 + 4 + 5 + 6 +  

2:05 Interlude
G|-----------------------------------------------------------------|
D|-----------------------------------------------------------------|
A|-3---------------3--3--333-------3---------------3--3--333-------|
D|-----------------------------------------------------------------|
   1 + 2 + 3 + 4 + 1 + 2 + 3 + 4 + 1 + 2 + 3 + 4 + 1 + 2 + 3 + 4 + 

G|---------------------------------|
D|---------------------------------|
A|---------------------------------|
D|-3-------------------------------|
   1 + 2 + 3 + 4 + 1 + 2 + 3 + 4 + 

2:17 Verse
G|------------------------------------------------------------------|
D|o-----------------------------------------------------------------|
A|o-3------------------------------3--------------------------------|
D|------------------------------------------------------------------|
    1 + 2 + 3 + 4 + 1 + 2 + 3 + 4 + 1 + 2 + 3 + 4 + 1 + 2 + 3 + 4 + 

G|----------------------------------|
D|---------------------------------o|
A|---------------------------------o|
D|-3--------------------------------|
   1 + 2 + 3 + 4 + 1 + 2 + 3 + 4 + 

2:41 Chorus x3
G|--------------------------------------------------|
D|o------------------------------------------------o|
A|o-3-------2---3----------------------------------o|
D|------------------2---5---6---------------6---5---|
    1 + 2 + 3 + 4 + 5 + 6 + 1 + 2 + 3 + 4 + 5 + 6 +  

2:59 Bridge
G|-----------------------------------------------------------------|
D|-----------------------------------------------------------------|
A|-3---------------2-----------------------------------------------|
D|---------------------------------6---------------5---------------|
   1 + 2 + 3 + 4 + 1 + 2 + 3 + 4 + 1 + 2 + 3 + 4 + 1 + 2 + 3 + 4 + 

G|-----------------------------------------------------------------|
D|-----------------------------------------------------------------|
A|-----------------------------------------------------------------|
D|-3---------------1---------------0---------------5---------------|
   1 + 2 + 3 + 4 + 1 + 2 + 3 + 4 + 1 + 2 + 3 + 4 + 1 + 2 + 3 + 4 + 
 
G|-----------------------------------------------------------------|
D|-----------------------------------------------------------------|
A|-3---------------2---------------0-------------------------------|
D|-------------------------------------------------5---------------|
   1 + 2 + 3 + 4 + 1 + 2 + 3 + 4 + 1 + 2 + 3 + 4 + 1 + 2 + 3 + 4 + 

G|-----------------------------------------------------------------|
D|-----------------------------------------------------------------|
A|-----------------------------------------------------------------|
D|-3---------------2---------------0---------------5---------------|
   1 + 2 + 3 + 4 + 1 + 2 + 3 + 4 + 1 + 2 + 3 + 4 + 1 + 2 + 3 + 4 + 

Rest

4:03
G|------------------------------------------------------------------|
D|o-----------------------------------------------------------------|
A|o-3-----------------------------------------------3-------2-------|
D|------------------2---------------3-------------------------------|
    1 + 2 + 3 + 4 + 1 + 2 + 3 + 4 + 1 + 2 + 3 + 4 + 1 + 2 + 3 + 4 + 

G|------------------------------------------------------------------|
D|-----------------------------------------------------------------o|
A|-0---------------------------------------------------------------o|
D|-----------------5---------------3---------------5----------------|
   1 + 2 + 3 + 4 + 1 + 2 + 3 + 4 + 1 + 2 + 3 + 4 + 1 + 2 + 3 + 4 + 

G|-----------------------------------------------------------------|
D|-----------------------------------------------------------------|
A|-3---------------------------------------------------------------|
D|-----------------------------------------------------------------|
   1 + 2 + 3 + 4 + 1 + 2 + 3 + 4 + 1 + 2 + 3 + 4 + 1 + 2 + 3 + 4 + 

Save Me

G|---------------------------------------------------|
D|o-------------------------------------------------o|
A|o-------------------------------------------------o|x3
D|--0-------0-0-0-------0-0-0-----------0-0-0-0-0-0--|
    1 2 3 4 5 6 1 2 3 4 5 6 1 2 3 4 5 6 1 2 3 4 5 6 

G|-------------------------------------------------|
D|-------------------------------------------------|
A|-------------------------------------------------|
D|-0-------0-0-0-------0-0-0-----------------------|
   1 2 3 4 5 6 1 2 3 4 5 6 1 2 3 4 5 6 1 2 3 4 5 6 

0:15
G|-------------------------------------------------|
D|-------------------------------------------------|
A|-------------------------------------------------|
D|-0-------00000-------00000-----------000000000000|
   1 2 3 4 5 6 1 2 3 4 5 6 1 2 3 4 5 6 1 2 3 4 5 6 

G|-------------------------------------------------|
D|-------------------------------------------------|
A|-0-------00000-------00000-----------000000000000|
D|-------------------------------------------------|
   1 2 3 4 5 6 1 2 3 4 5 6 1 2 3 4 5 6 1 2 3 4 5 6 

G|-------------------------------------------------|
D|-------------------------------------------------|
A|-7-------77777-------77777-----------777777777777|
D|-------------------------------------------------|
   1 2 3 4 5 6 1 2 3 4 5 6 1 2 3 4 5 6 1 2 3 4 5 6 

G|-------------------------------------------------|
D|-------------------------------------------------|
A|-2-------22222-------22222-----------222222222222|
D|-------------------------------------------------|
   1 2 3 4 5 6 1 2 3 4 5 6 1 2 3 4 5 6 1 2 3 4 5 6 

0:30
G|---------------------------------------------------|
D|o-------------------------------------------------o|
A|o-5-------55555-------55555-----------555555555555o|
D|---------------------------------------------------|
    1 2 3 4 5 6 1 2 3 4 5 6 1 2 3 4 5 6 1 2 3 4 5 6 
 
G|---------------------------------------------------|
D|o-------------------------------------------------o|
A|o-0-------00000-------00000-----------000000000000o|
D|---------------------------------------------------|
    1 2 3 4 5 6 1 2 3 4 5 6 1 2 3 4 5 6 1 2 3 4 5 6 

0:45 x6
G|---------------------------------------------------|
D|o-------------------------------------------------o|
A|o-------------------------------------------------o|
D|--0-------00000-------00000-----------000000000000-|
    1 2 3 4 5 6 1 2 3 4 5 6 1 2 3 4 5 6 1 2 3 4 5 6 

1:07
G|--------------------------------------------------|
D|o-------------------------------------------------| 
A|o-------------------------------------------------|
D|--0---0-0-0-0-0---0-0-0-0-6---6-6-6-6-7---7-7-7-7-|
    1 2 3 4 5 6 1 2 3 4 5 6 1 2 3 4 5 6 1 2 3 4 5 6 

G|--------------------------------------------------|
D|-------------------------------------------------o| 
A|-------------------------------------------------o|
D|-0---0-0-0-0-0---0-0-0-0-6---6---6---7---7---7----|
   1 2 3 4 5 6 1 2 3 4 5 6 1 2 3 4 5 6 1 2 3 4 5 6 

1:23
G|--------------------------------------------------|
D|o-------------------------------------------------| 
A|o-------------------------------------------------|
D|--0-----0---0-3-----3---3-5-----5---5-2-----2-2-2-|
    1 2 3 4 5 6 1 2 3 4 5 6 1 2 3 4 5 6 1 2 3 4 5 6 

G|--------------------------------------------------|
D|-------------------------------------------------o| 
A|-5-----5---5-------------------------------------o|
D|-------------8---8---7---5-----6-----7-----7-7-7--|
   1 2 3 4 5 6 1 2 3 4 5 6 1 2 3 4 5 6 1 2 3 4 5 6 

1:38 x4
G|---------------------------------------------------|
D|o-------------------------------------------------o| 
A|o-------------------------------------------------o|
D|--0---0-0-0-0-2---2-2-2-2-3---3-3-3-3-5-5-5-5-5-5--|
    1 2 3 4 5 6 1 2 3 4 5 6 1 2 3 4 5 6 1 2 3 4 5 6 

1:53
G|-------------------------------------------------|
D|-------------------------------------------------|
A|-------------------------------------------------|
D|-0-------00000-------00000-----------000000000000|
   1 2 3 4 5 6 1 2 3 4 5 6 1 2 3 4 5 6 1 2 3 4 5 6 

G|-------------------------------------------------|
D|-------------------------------------------------|
A|-------------------------------------------------|
D|-0-------00000-------00000-----------------------|
   1 2 3 4 5 6 1 2 3 4 5 6 1 2 3 4 5 6 1 2 3 4 5 6 

2:00 Verse
G|-------------------------------------------------|
D|-------------------------------------------------|
A|-5---5-5-----5---555-----5---5-5-----5---555-----|
D|-------------------------------------------------|
   1 2 3 4 5 6 1 2 3 4 5 6 1 2 3 4 5 6 1 2 3 4 5 6 

G|-------------------------------------------------|
D|-------------------------------------------------|
A|-0---0-0-----0---000-----0---0-0-----0---000-----|
D|-------------------------------------------------|
   1 2 3 4 5 6 1 2 3 4 5 6 1 2 3 4 5 6 1 2 3 4 5 6 

G|-------------------------------------------------|
D|-------------------------------------------------|
A|-7---7-7-----7---777-----7---7-7-----7---777-----|
D|-------------------------------------------------|
   1 2 3 4 5 6 1 2 3 4 5 6 1 2 3 4 5 6 1 2 3 4 5 6

G|-------------------------------------------------|
D|-------------------------------------------------|
A|-2---2-2-----2---222-----2---2-2-----2---222-----|
D|-------------------------------------------------|
   1 2 3 4 5 6 1 2 3 4 5 6 1 2 3 4 5 6 1 2 3 4 5 6

G|---------------------------------------------------|
D|o-------------------------------------------------o|
A|o-5---5-5-----5---555-----------------------------o|
D|--------------------------0---0-0-----0---000------|
    1 2 3 4 5 6 1 2 3 4 5 6 1 2 3 4 5 6 1 2 3 4 5 6 

G|-------------------------------------------------|
D|-------------------------------------------------|
A|-0---0-0-----0---000-----0---0-0-----0---0000000-|
D|-------------------------------------------------|
   1 2 3 4 5 6 1 2 3 4 5 6 1 2 3 4 5 6 1 2 3 4 5 6 

G|-------------------------------------------------|
D|-------------------------------------------------|
A|-0---0-0-----0---000-----0---0-0-----0---0---0---|
D|-------------------------------------------------|
   1 2 3 4 5 6 1 2 3 4 5 6 1 2 3 4 5 6 1 2 3 4 5 6 

2:31 Pre Chorus
G|---------------------------------------------------|
D|o-------------------------------------------------o| 
A|o-------------------------------------------------o|
D|--0---0-0-0-0-0---0-0-0-0-6---6-6-6-6-7---7-7-7-7--|
    1 2 3 4 5 6 1 2 3 4 5 6 1 2 3 4 5 6 1 2 3 4 5 6 

2:38
G|--------------------------------------------------|
D|--------------------------------------------------|
A|-----5---4---1---4---1----------------------------|
D|-0-0---0---0---0---0-----0-0-8-0-7-0-6-0-7-0-7----|
   1 2 3 4 5 6 1 2 3 4 5 6 1 2 3 4 5 6 1 2 3 4 5 6 

G|--------------------------------------------------|
D|--------------------------------------------------|
A|-----5---4---1---4---1---1-1-1-1-----0-0-0-0------|
D|-0-0---0---0---0---0------------------------------|
   1 2 3 4 5 6 1 2 3 4 5 6 1 2 3 4 5 6 1 2 3 4 5 6 

2:46 Chorus
G|-------------------------------------------------|
D|-------------------------------------------------|
A|-------------------------------------------------|
D|-3---3-3-3-3-3---3-3-3-3-3-----3-3-3-3-3-5---3-/-|
   1 2 3 4 5 6 1 2 3 4 5 6 1 2 3 4 5 6 1 2 3 4 5 6 

G|-------------------------------------------------|
D|-------------------------7---7---7---------------|
A|-------------7---7-7-7-7-------------7---7---7---|
D|-7-----7-7-7-------------------------------------|
   1 2 3 4 5 6 1 2 3 4 5 6 1 2 3 4 5 6 1 2 3 4 5 6 

G|-------------------------------------------------|
D|-------------------------------------------------|
A|-5---5---5---5---5---5---5---5---5---5-4-5-7-5-4-|
D|-------------------------------------------------|
   1 2 3 4 5 6 1 2 3 4 5 6 1 2 3 4 5 6 1 2 3 4 5 6 

G|-------------------------------------------------|
D|-------------------------7---5---------------5---|
A|-3---3-3-3-3-3---3---3-----------8---7---8-------|
D|-------------------------------------------------|
   1 2 3 4 5 6 1 2 3 4 5 6 1 2 3 4 5 6 1 2 3 4 5 6 

3:02
G|-------------------------------------------------|
D|-------------------------------------------------|
A|-------------------------------------------------|
D|-3---3-3-3-3-3---3-3-3-3-3-----3-3-3-3---5---3-/-|
   1 2 3 4 5 6 1 2 3 4 5 6 1 2 3 4 5 6 1 2 3 4 5 6 

G|-------------------------------------------------|
D|-------------------------7---7---7---------------|
A|-------------7---7-7-7-7-------------7---7---7---|
D|-7-----7-7-7-------------------------------------|
   1 2 3 4 5 6 1 2 3 4 5 6 1 2 3 4 5 6 1 2 3 4 5 6 

G|-------------------------------------------------|
D|-------------------------------------------------|
A|-5-----5-5-5-5-----5-5-5-5---5---5---5-4-5-7-5-4-|
D|-------------------------------------------------|
   1 2 3 4 5 6 1 2 3 4 5 6 1 2 3 4 5 6 1 2 3 4 5 6 

G|-------------------------------------------------|
D|-------------------------------------------------|
A|-3---3-3-3-3-3---3-3-3-3-3-----3-----3---3---3---|
D|-------------------------------------------------|
   1 2 3 4 5 6 1 2 3 4 5 6 1 2 3 4 5 6 1 2 3 4 5 6 

3:16 Interlude
G|-------------------------------------------------|
D|-------------------------------------------------|
A|-------------------------------------------------|
D|-0-0---------0-0---------0-0---------000000000000|
   1 2 3 4 5 6 1 2 3 4 5 6 1 2 3 4 5 6 1 2 3 4 5 6 

G|-------------------------------------------------|
D|-------------------------------------------------|
A|-------------------------------------------------|
D|-0-0---------0-0---------0-0---------------------|
   1 2 3 4 5 6 1 2 3 4 5 6 1 2 3 4 5 6 1 2 3 4 5 6 

3:24 Verse
G|-------------------------------------------------|
D|-------------------------------------------------|
A|-5---5-5-----5---555-----5---5-5-----5---555-----|
D|-------------------------------------------------|
   1 2 3 4 5 6 1 2 3 4 5 6 1 2 3 4 5 6 1 2 3 4 5 6 

G|-------------------------------------------------|
D|-------------------------------------------------|
A|-0---0-0-----0---000-----0---0-0-----0---000-----|
D|-------------------------------------------------|
   1 2 3 4 5 6 1 2 3 4 5 6 1 2 3 4 5 6 1 2 3 4 5 6 

G|-------------------------------------------------|
D|-------------------------------------------------|
A|-7---7-7-----7---777-----7---7-7-----7---777-----|
D|-------------------------------------------------|
   1 2 3 4 5 6 1 2 3 4 5 6 1 2 3 4 5 6 1 2 3 4 5 6

G|-------------------------------------------------|
D|-------------------------------------------------|
A|-2---2-2-----2---222-----2---2-2-----2---222-----|
D|-------------------------------------------------|
   1 2 3 4 5 6 1 2 3 4 5 6 1 2 3 4 5 6 1 2 3 4 5 6

G|---------------------------------------------------|
D|o-------------------------------------------------o|
A|o-5---5-5-----5---555-----------------------------o|
D|--------------------------0---0-0-----0---000------|
    1 2 3 4 5 6 1 2 3 4 5 6 1 2 3 4 5 6 1 2 3 4 5 6 

G|-------------------------------------------------|
D|-------------------------------------------------|
A|-0---0-0-----0---000-----0---0-0-----0---0000000-|
D|-------------------------------------------------|
   1 2 3 4 5 6 1 2 3 4 5 6 1 2 3 4 5 6 1 2 3 4 5 6 

G|-------------------------------------------------|
D|-------------------------------------------------|
A|-0---0-0-----0---000-----0---0-0-----0---0---0---|
D|-------------------------------------------------|
   1 2 3 4 5 6 1 2 3 4 5 6 1 2 3 4 5 6 1 2 3 4 5 6 

3:55 Pre Chorus
G|---------------------------------------------------|
D|o-------------------------------------------------o| 
A|o-------------------------------------------------o|
D|--0---0-0-0-0-0---0-0-0-0-6---6-6-6-6-7---7-7-7-7--|
    1 2 3 4 5 6 1 2 3 4 5 6 1 2 3 4 5 6 1 2 3 4 5 6 

G|--------------------------------------------------|
D|--------------------------------------------------|
A|-----5---4---1---4---1----------------------------|
D|-0-0---0---0---0---0-----0-0-8-0-7-0-6-0-7-0-7----|
   1 2 3 4 5 6 1 2 3 4 5 6 1 2 3 4 5 6 1 2 3 4 5 6 

G|--------------------------------------------------|
D|--------------------------------------------------|
A|-----5---4---1---4---1---1-1-1-1-----0-0-0-0------|
D|-0-0---0---0---0---0------------------------------|
   1 2 3 4 5 6 1 2 3 4 5 6 1 2 3 4 5 6 1 2 3 4 5 6 

4:10 Chorus
G|-------------------------------------------------|
D|-------------------------------------------------|
A|-------------------------------------------------|
D|-3---3-3-3-3-3---3-3-3-3-3---3-3-3-3-3---5---3-/-|
   1 2 3 4 5 6 1 2 3 4 5 6 1 2 3 4 5 6 1 2 3 4 5 6 

G|-------------------------------------------------|
D|-------------------------7---7---7---------------|
A|-------------7---7-7-7-7-------------7---7---7---|
D|-7-----7-7-7-------------------------------------|
   1 2 3 4 5 6 1 2 3 4 5 6 1 2 3 4 5 6 1 2 3 4 5 6 

G|-------------------------------------------------|
D|-------------------------------------------------|
A|-5---5---5-5-5---5---5-5-5---5---5-5-5-4-5-7-5-4-|
D|-------------------------------------------------|
   1 2 3 4 5 6 1 2 3 4 5 6 1 2 3 4 5 6 1 2 3 4 5 6 

G|-------------------------------------------------|
D|-------------------------7---5---------------5---|
A|-3---3-3-3-3-3---3---3-----------8---7---8-------|
D|-------------------------------------------------|
   1 2 3 4 5 6 1 2 3 4 5 6 1 2 3 4 5 6 1 2 3 4 5 6 

3:02
G|-------------------------------------------------|
D|-------------------------------------------------|
A|-------------------------------------------------|
D|-3---3-3-3-3-3---3-3-3-3-3---3-3-3-3-3---5---3-/-|
   1 2 3 4 5 6 1 2 3 4 5 6 1 2 3 4 5 6 1 2 3 4 5 6 

G|-------------------------------------------------|
D|-------------------------7---7---7---------------|
A|-------------7---7-7-7-7-------------7---7---7---|
D|-7-----7-7-7-------------------------------------|
   1 2 3 4 5 6 1 2 3 4 5 6 1 2 3 4 5 6 1 2 3 4 5 6 

G|-------------------------------------------------|
D|-------------------------------------------------|
A|-5-----5-5-5-5-----5-5-5-5---5---5---5-4-5-7-5-4-|
D|-------------------------------------------------|
   1 2 3 4 5 6 1 2 3 4 5 6 1 2 3 4 5 6 1 2 3 4 5 6 

G|-------------------------------------------------|
D|-------------------------7---5-------------------|
A|-3---3-3-3-3-3---3-3-3-3---------8---7---5---3---|
D|-------------------------------------------------|
   1 2 3 4 5 6 1 2 3 4 5 6 1 2 3 4 5 6 1 2 3 4 5 6 

G|-------------------------------------------------|
D|-------------------------7---5-------------------|
A|-1---1-1-1-1-1---1-1-1-1---------8---7---5---3---|
D|-------------------------------------------------|
   1 2 3 4 5 6 1 2 3 4 5 6 1 2 3 4 5 6 1 2 3 4 5 6 

G|-------------------------------------------------|
D|-------------------------------------------------|
A|-5-----------------------------------------------|
D|-------------------------------------------------|
   1 2 3 4 5 6 1 2 3 4 5 6 1 2 3 4 5 6 1 2 3 4 5 6 

4:48
G|-----------------------------------------------------------------|
D|-----------------------------------------------------------------|
A|-----------------------------------------------------------------|
D|-0---0---0-0-0-0-0---0---0-0-0-0-0---0---0-0-0-0-0---0---0-0-0-0-|
   1 + 2 + 3 + 4 + 1 + 2 + 3 + 4 + 1 + 2 + 3 + 4 + 1 + 2 + 3 + 4 +

G|-----------------------------------------------------------------|
D|-----------------------------------------------------------------|
A|-1---1---1-1-1-1-1---1---1-1-1-1-1---1---1-1-1-1-1---1---1-1-1-1-|
D|-----------------------------------------------------------------|
   1 + 2 + 3 + 4 + 1 + 2 + 3 + 4 + 1 + 2 + 3 + 4 + 1 + 2 + 3 + 4 +

G|-----------------------------------------------------------------|
D|-----------------------------------------------------------------|
A|-----------------------------------------------------------------|
D|-0---------------------------------------------------------------|
   1 + 2 + 3 + 4 + 1 + 2 + 3 + 4 + 1 + 2 + 3 + 4 + 1 + 2 + 3 + 4 +

G|-----------------------------------------------------------------|
D|-----------------------------------------------------------------|
A|-----------------------------------------------------------------|
D|-8-------------------------------------------------------12-\----|
   1 + 2 + 3 + 4 + 1 + 2 + 3 + 4 + 1 + 2 + 3 + 4 + 1 + 2 + 3 + 4 +

5:08
G|-----------------------------------------------------------------|
D|-----------------------------------------------------------------|
A|-----------------------------------------------------------------|
D|-000000000-0-0-0-000000000-0-0-0-000000000-0-0-0-000000000-0-0-0-|
   1 + 2 + 3 + 4 + 1 + 2 + 3 + 4 + 1 + 2 + 3 + 4 + 1 + 2 + 3 + 4 +

G|-----------------------------------------------------------------|
D|-----------------------------------------------------------------|
A|-----------------------------------------------------------------|
D|-888888888-8-8-8-888888888-8-8-8-888888888-8-8-8-888888888-8-8-8-|
   1 + 2 + 3 + 4 + 1 + 2 + 3 + 4 + 1 + 2 + 3 + 4 + 1 + 2 + 3 + 4 +

5:19
G|-----------------------------------------------------------------|
D|-----------------------------------------------------------------|
A|-----------------------------------------------------------------|
D|-0-0-0-0-0-0-0-0-2-2-2-2-3-3-3-3-5-5-5-5-5-5-5-5-3-3-3-3-2-2-2-2-|
   1 + 2 + 3 + 4 + 1 + 2 + 3 + 4 + 1 + 2 + 3 + 4 + 1 + 2 + 3 + 4 +

G|-----------------------------------------------------------------|
D|-----------------------------------------------------------------|
A|---------5-5-5-5-1-1-1-1-0-0-0-0---------------------------------|
D|-0-0-0-0-------------------------5-5-5-5-5-5-5-5-3---3---2--2--2-|
   1 + 2 + 3 + 4 + 1 + 2 + 3 + 4 + 1 + 2 + 3 + 4 + 1 + 2 + 3 + 4 +

G|-----------------------------------------------------------------|
D|-----------------------------------------------------------------|
A|-555555555555555544444444444444443333333333333333222222222222222-|
D|-----------------------------------------------------------------|
   1 + 2 + 3 + 4 + 1 + 2 + 3 + 4 + 1 + 2 + 3 + 4 + 1 + 2 + 3 + 4 +

G|---------------------------------|
D|---------------------------------|
A|-11111111111111110---------------|
D|-------------------------3---2---|
   1 + 2 + 3 + 4 + 1 + 2 + 3 + 4 +

5:37
G|-----------------------------------------------------------------|
D|-----------------------------------------------------------------| 
A|-----------------------------------------------------------------|
D|---0-0---0-0---0-0---------------0-0---0-0---0-0-----------------|
   1 + 2 + 3 + 4 + 1 + 2 + 3 + 4 + 1 + 2 + 3 + 4 + 1 + 2 + 3 + 4 +

G|-----------------------------------------------------------------|
D|-----------------------------------------------------------------| 
A|-----------------------------------------------------------------|
D|-0-0---0-0---0-0-----------------0-0---0-0---0-0---3-2-0-3-5-2-0-|
   1 + 2 + 3 + 4 + 1 + 2 + 3 + 4 + 1 + 2 + 3 + 4 + 1 + 2 + 3 + 4 +

5:46
G|-----------------------------------------------------------------|
D|-----------------------------------------------------------------| 
A|-----------------------------------------------------------------|
D|-0-0-0---0-0---0-0---0-0---0-0-----5-5---5-5---5-5---5-5---5-5---|
   1 + 2 + 3 + 4 + 1 + 2 + 3 + 4 + 1 + 2 + 3 + 4 + 1 + 2 + 3 + 4 +

G|-----------------------------------------------------------------|
D|-----------------------------------------------------------------| 
A|-----------------0---0-0---0-0-----------------------------0-5-3-|
D|---3-3---3-3---3-------------------0-0---0-0---0-5-6-5-0-6-------|
   1 + 2 + 3 + 4 + 1 + 2 + 3 + 4 + 1 + 2 + 3 + 4 + 1 + 2 + 3 + 4 +

G|-----------------------------------------------------------------|
D|-----------------------------------------------------------------| 
A|-----------------------------------------------------------------|
D|-0-0-0---0-0---0-0---0-0---0-0-----5-5---5-5---5-5---5-5---5-5---|
   1 + 2 + 3 + 4 + 1 + 2 + 3 + 4 + 1 + 2 + 3 + 4 + 1 + 2 + 3 + 4 +

G|-----------------------------------------------------------------|
D|-----------------------------------------------------------------| 
A|-----------------0---0-0---0-0---5-----0-----1-----------0-------|
D|---3-3---3-3---3-----------------------------------5---5---5-3-2-|
   1 + 2 + 3 + 4 + 1 + 2 + 3 + 4 + 1 + 2 + 3 + 4 + 1 + 2 + 3 + 4 +

6:07                    
G|-------------------------------------------------|
D|-------------------------------------------------|
A|-------------7-----------8-----------10----------|
D|-0-----------------------------------------------|
   1 + 2 + 3 + 1 + 2 + 3 + 1 + 2 + 3 + 1 + 2 + 3 + 

G|---------------------------------------------------|
D|o-------------------------------------------------o|
A|o-5-----------7-----------8-----------10----------o|x7
D|---------------------------------------------------|
    1 + 2 + 3 + 1 + 2 + 3 + 1 + 2 + 3 + 1 + 2 + 3 + 

6:37
G|----------------------------------------------------|
D|------------7h9---7------------------------10-------|
A|---------7------------7-----------8--7h8--------8---|
D|-7------------------------7-------------------------|
   1 + 2 + 3  + 1 + 2 + 3 + 1 + 2 + 3  + 1 + 2  + 3 + 

G|-----------------------------------------------10p9-|
D|------------7h9---7-----------------------10p9------|
A|---------7------------7-----------8---8-------------|
D|-7------------------------7-------------------------|
   1 + 2 + 3  + 1 + 2 + 3 + 1 + 2 + 3 + 1 + 2  + 3  + 

G|---------------------------------------------------|
D|------------7h9---7-----------------------10-------|
A|---------7------------7-----------8---8--------8---|
D|-7------------------------7------------------------|
   1 + 2 + 3  + 1 + 2 + 3 + 1 + 2 + 3 + 1 + 2  + 3 + 

G|----------------------------------------------------------|
D|---------------12-----------------------------------------|
A|---------10--------10----------------8---10h12-10h12-12---|
D|-7----------------------12---7----------------------------|
   1 + 2 + 3  + 1  + 2  + 3  + 1 + 2 + 3 + 1  +  2  +  3  + 

6:52
G|-------------------------------------------------|
D|-------------------------------------------------|
A|-5-------5---5-------7---7-----------0-----------|
D|-------------------------------------------------|
   1 + 2 + 3 + 1 + 2 + 3 + 1 + 2 + 3 + 1 + 2 + 3 + 

G|--------------------------------------------------|
D|o-------------------------------------------------|
A|o-5-----------5-----------1-----------1-----------|
D|--------------------------------------------------|
    1 + 2 + 3 + 1 + 2 + 3 + 1 + 2 + 3 + 1 + 2 + 3 + 

G|--------------------------------------------------|
D|-------------------------------------------------o|
A|-2-----------2-----------3-----------4-----------o|
D|--------------------------------------------------|
   1 + 2 + 3 + 1 + 2 + 3 + 1 + 2 + 3 + 1 + 2 + 3 + 

G|-------------------------------------------------|
D|-------------7-8-7-5-7---------------------------|
A|-5---------------------7-1-----------1-----------|
D|-------------------------------------------------|
   1 + 2 + 3 + 1 + 2 + 3 + 1 + 2 + 3 + 1 + 2 + 3 + 

G|-------------------------------------------------|
D|-------------------------------------------------|
A|-2-----------2-----------3-----------4-----------|
D|-------------------------------------------------|
   1 + 2 + 3 + 1 + 2 + 3 + 1 + 2 + 3 + 1 + 2 + 3 + 

G|-------------------------------------------------|
D|-------------------------------------------------|
A|-5----------/8---7---0----1----------1-----------|
D|-------------------------------------------------|
   1 + 2 + 3 + 1 + 2 + 3 + 1 + 2 + 3 + 1 + 2 + 3 + 

G|-------------------------------------------------|
D|-------------------------------------------------|
A|-2-----------2-----------3-----------4-----------|
D|-------------------------------------------------|
   1 + 2 + 3 + 1 + 2 + 3 + 1 + 2 + 3 + 1 + 2 + 3 + 

7:26
G|-------------------------------------------------|
D|-------------------------------------------------|
A|-------------------------------------------------|
D|-0-------00000-------00000-----------000000000000|
   1 2 3 4 5 6 1 2 3 4 5 6 1 2 3 4 5 6 1 2 3 4 5 6 

G|-------------------------------------------------|
D|-------------------------------------------------|
A|-------------------------------------------------|
D|-0-------00000-------00000-----------------------|
   1 2 3 4 5 6 1 2 3 4 5 6 1 2 3 4 5 6 1 2 3 4 5 6 

7:34
G|-------------------------------------------------|
D|-------------------------------------------------|
A|-------------------------1-----1-----1---1---1---|
D|-0-----0-----0---0---0---------------------------|
   1 + 2 + 3 + 1 + 2 + 3 + 1 + 2 + 3 + 1 + 2 + 3 + 

G|-------------------------------------------------|
D|-------------------------------------------------|
A|-------------------------3-----3-----4---4---4---|
D|-5-----5-----5---5---5---------------------------|
   1 + 2 + 3 + 1 + 2 + 3 + 1 + 2 + 3 + 1 + 2 + 3 + 

G|-------------------------------------------------|
D|-------------------------------------------------|
A|-------------------------1-----1-----1---1-------|
D|-0-----0-----0---0---0-----------------------2-3-|
   1 + 2 + 3 + 1 + 2 + 3 + 1 + 2 + 3 + 1 + 2 + 3 + 

G|-------------------------------------------------|
D|-------------------------------------------------|
A|-------------------------3-----------4-----------|
D|-5-----5-----5---5---5---------------------------|
   1 + 2 + 3 + 1 + 2 + 3 + 1 + 2 + 3 + 1 + 2 + 3 + 

7:50
G|--------------------------------------------------|
D|o-------------------------------------------------|
A|o-5-----5-----5-----5-----1-----1-----1-----1-----|
D|--------------------------------------------------|
    1 + 2 + 3 + 1 + 2 + 3 + 1 + 2 + 3 + 1 + 2 + 3 + 

G|--------------------------------------------------|
D|-------------------------------------------------o|
A|-2-----2-----2-----2-----3-----3-----4-----4-----o|
D|--------------------------------------------------|
   1 + 2 + 3 + 1 + 2 + 3 + 1 + 2 + 3 + 1 + 2 + 3 + 

8:04 Chorus
G|--------------------------------------------------|
D|--------------------------------------------------|
A|-8-----8---8-8-----8---8-8-----8---8-8---10---8---|
D|--------------------------------------------------|
   1 + 2 + 3 + 1 + 2 + 3 + 1 + 2 + 3 + 1 + 2  + 3 + 

G|-------------------------------------------------|
D|-------------------------7---7---7---------------|
A|-0-----0---0-7-----7---7-------------7---7---7---|
D|-------------------------------------------------|
   1 + 2 + 3 + 1 + 2 + 3 + 1 + 2 + 3 + 1 + 2 + 3 + 

G|-------------------------------------------------|
D|-------------------------------------------------|
A|-5-----5---5-5-----5---5-5-----5-----5-4-5-7-5-4-|
D|-------------------------------------------------|
   1 + 2 + 3 + 1 + 2 + 3 + 1 + 2 + 3 + 1 + 2 + 3 + 

G|-------------------------------------------------|
D|-------------------------8--7--5-------------5---|
A|-3-----3---3-3-----3---3----------8--7---8-------|
D|-------------------------------------------------|
   1 + 2 + 3 + 1 + 2 + 3 + 1 + 2 + 3 + 1 + 2 + 3 + 

8:20
G|-------------------------------------------------|
D|-------------------------------------------------|
A|-------------------------------------------------|
D|-3-----3---3-3-----3---3-3-----3-----3---5---3---|
   1 + 2 + 3 + 1 + 2 + 3 + 1 + 2 + 3 + 1 + 2 + 3 + 

G|-------------------------------------------------|
D|-------------------------7---7---7---------------|
A|-0-----0---0-7-----7---7-------------7---7---7---|
D|-------------------------------------------------|
   1 + 2 + 3 + 1 + 2 + 3 + 1 + 2 + 3 + 1 + 2 + 3 + 

G|-------------------------------------------------|
D|-------------------------------------------------|
A|-5-----5---5-5-----5---5-5-----5-----5-4-5-7-5-4-|
D|-------------------------------------------------|
   1 + 2 + 3 + 1 + 2 + 3 + 1 + 2 + 3 + 1 + 2 + 3 + 

G|-------------------------------------------------|
D|-------------------------8---7---5---------------|
A|-3-----3---3-3-----3---3-------------8---7---5---|
D|-------------------------------------------------|
   1 + 2 + 3 + 1 + 2 + 3 + 1 + 2 + 3 + 1 + 2 + 3 + 

G|-------------------------------------------------|
D|-------------------------------------------------|
A|-1-----1---1-1-----1---1-1-----------------------|
D|-------------------------------------------------|
   1 + 2 + 3 + 1 + 2 + 3 + 1 + 2 + 3 + 1 + 2 + 3 + 

8:39
G|-------------------------------------------------|
D|-------------------------------------------------|
A|-------------------------------------------------|
D|-0-------00000-------00000-----------000000000000|
   1 2 3 4 5 6 1 2 3 4 5 6 1 2 3 4 5 6 1 2 3 4 5 6 

G|-------------------------------------------------|
D|-------------------------------------------------|
A|-0-------00000-------00000-----------000000000000|
D|-------------------------------------------------|
   1 2 3 4 5 6 1 2 3 4 5 6 1 2 3 4 5 6 1 2 3 4 5 6 

G|-------------------------------------------------|
D|-------------------------------------------------|
A|-7-------77777-------77777-----------777777777777|
D|-------------------------------------------------|
   1 2 3 4 5 6 1 2 3 4 5 6 1 2 3 4 5 6 1 2 3 4 5 6 

G|-------------------------------------------------|
D|-------------------------------------------------|
A|-2-------22222-------22222-----------222222222222|
D|-------------------------------------------------|
   1 2 3 4 5 6 1 2 3 4 5 6 1 2 3 4 5 6 1 2 3 4 5 6 

8:54
G|---------------------------------------------------|
D|o-------------------------------------------------o|
A|o-5-------55555-------55555-----------555555555555o|
D|---------------------------------------------------|
    1 2 3 4 5 6 1 2 3 4 5 6 1 2 3 4 5 6 1 2 3 4 5 6 
 
G|---------------------------------------------------|
D|o-------------------------------------------------o|
A|o-0-------00000-------00000-----------000000000000o|
D|---------------------------------------------------|
    1 2 3 4 5 6 1 2 3 4 5 6 1 2 3 4 5 6 1 2 3 4 5 6 

9:09
G|-------------------------------------------------|---|
D|-------------------------------------------------|---| 
A|-------------------------------------------------|-0-|
D|-3-3-3-3-----3-3-3-3-----0-0-0-0-----0-0-0-0-----|---|
   1 2 3 4 5 6 1 2 3 4 5 6 1 2 3 4 5 6 1 2 3 4 5 6 

Rest

9:42
G|-----------------------------------------------------------------|
D|-----------------------------------------------------------------| 
A|-1-----1-----1-------------------3-----3-----3-------------------|
D|-----------------------------------------------------------------|
   1 + 2 + 3 + 4 + 1 + 2 + 3 + 4 + 1 + 2 + 3 + 4 + 1 + 2 + 3 + 4 +

G|-----------------------------------------------------------------|
D|-----------------------------------------------------------------| 
A|-5-----5-----5-------------------5-----5-----5-------------------|
D|-----------------------------------------------------------------|
   1 + 2 + 3 + 4 + 1 + 2 + 3 + 4 + 1 + 2 + 3 + 4 + 1 + 2 + 3 + 4 +

G|-----------------------------------------------------------------|
D|-----------------------------------------------------------------| 
A|-1-----1-----1-------------------3-----3-----3-------------------|
D|-----------------------------------------------------------------|
   1 + 2 + 3 + 4 + 1 + 2 + 3 + 4 + 1 + 2 + 3 + 4 + 1 + 2 + 3 + 4 +

G|-----------------------------------------------------------------|
D|-----------------------------------------------------------------| 
A|-5-----5-----5-------------------5-----5-----5-------5---5---5---|
D|-----------------------------------------------------------------|
   1 + 2 + 3 + 4 + 1 + 2 + 3 + 4 + 1 + 2 + 3 + 4 + 1 + 2 + 3 + 4 +

10:03
G|-----------------------------------------------------------------|
D|-----------------------------------------------------------------| 
A|-1-----1-----1-------1---1---1---3-----3-----3-------3---3---3---|
D|-----------------------------------------------------------------|
   1 + 2 + 3 + 4 + 1 + 2 + 3 + 4 + 1 + 2 + 3 + 4 + 1 + 2 + 3 + 4 +

G|-----------------------------------------------------------------|
D|-----------------------------------------------------------------| 
A|-5-----5-----5-------5---5---5---5-----5-----5-------5---5---3---|
D|-----------------------------------------------------------------|
   1 + 2 + 3 + 4 + 1 + 2 + 3 + 4 + 1 + 2 + 3 + 4 + 1 + 2 + 3 + 4 +

G|-----------------------------------------------------------------|
D|-----------------------------------------------------------------| 
A|-1-----1-----1-------1---1---1---3-----3-----3-------3---3---3---|
D|-----------------------------------------------------------------|
   1 + 2 + 3 + 4 + 1 + 2 + 3 + 4 + 1 + 2 + 3 + 4 + 1 + 2 + 3 + 4 +

G|--------------------------------/7----/7----/7-----7-----9-7-----|
D|-------------------------------------------------------------8-7-| 
A|-5-----5-----5---5-----------------------------------------------|
D|-----------------------------------------------------------------|
   1 + 2 + 3 + 4 + 1 + 2 + 3 + 4 + 1 + 2 + 3 + 4 + 1 + 2 + 3 + 4 +

10:23
G|-----------------------------------------------------------------|
D|-----------------------------------------------------------------| 
A|-1-----1-----1-------1---1---0---3-----3-----3-------3---3---0---|
D|-----------------------------------------------------------------|
   1 + 2 + 3 + 4 + 1 + 2 + 3 + 4 + 1 + 2 + 3 + 4 + 1 + 2 + 3 + 4 +

G|--------------------------------/7-------7-5---------------------|
D|---------------------------------------------7-5-3-2-0---0-------| 
A|-5-----5-----5---5-------------------------------------3---3-1-0-|
D|-----------------------------------------------------------------|
   1 + 2 + 3 + 4 + 1 + 2 + 3 + 4 + 1 + 2 + 3 + 4 + 1 + 2 + 3 + 4 +

G|-----------------------------------------------------------------|
D|-----------------------------------------------------------------| 
A|-1-----1-----1-------1---1---1---3-----3-----3---3---3---3---3---|
D|-----------------------------------------------------------------|
   1 + 2 + 3 + 4 + 1 + 2 + 3 + 4 + 1 + 2 + 3 + 4 + 1 + 2 + 3 + 4 +

G|-----------------------------------------------------------------|
D|-----------------------------------------------------------------| 
A|-5---------------------------------------------------------------|
D|-----------------------------------------------------------------|
   1 + 2 + 3 + 4 + 1 + 2 + 3 + 4 + 1 + 2 + 3 + 4 + 1 + 2 + 3 + 4 +

10:43
G|---------------------------------------------------|
D|o-------------------------------------------------o|
A|o-------------------------------------------------o|
D|--0-------00000-------00000-----------000000000000-|
    1 2 3 4 5 6 1 2 3 4 5 6 1 2 3 4 5 6 1 2 3 4 5 6 

4:00 Am (Welcome To The Family EP) *Itunes deluxe track 12=nightmare video, so i added this to it*

0:21
G|-----------------------------------------------------------------|
D|-----------------------------------------------------------------|
A|-5---5---5---5---5---5---5---5---5---5---5---5---5---5---5---5---|
D|-----------------------------------------------------------------|
   1 e + a 2 e + a 3 e + a 4 e + a 1 e + a 2 e + a 3 e + a 4 e + a

G|-----------------------------------------------------------------|
D|-5---5---5---5---5---5---5---5---5---5---5---5---5---5---5---5---|
A|-----------------------------------------------------------------|
D|-----------------------------------------------------------------|
   1 e + a 2 e + a 3 e + a 4 e + a 1 e + a 2 e + a 3 e + a 4 e + a

G|-----------------------------------------------------------------|
D|-------------------------------------------------5---------------|
A|-5---5---5---5---5---5---5---5---4---0---4---7-------7---4---7---|
D|-----------------------------------------------------------------|
   1 e + a 2 e + a 3 e + a 4 e + a 1 e + a 2 e + a 3 e + a 4 e + a


0:31 Verse
G|-----------------------------------------------------------------|
D|-----------------------------------------------------------------|
A|-5---5---5---5---5---5---5---5---5---5---5---5---5---5---5---5---|
D|-----------------------------------------------------------------|
   1 e + a 2 e + a 3 e + a 4 e + a 1 e + a 2 e + a 3 e + a 4 e + a

G|-----------------------------------------------------------------|
D|-----------------------------------------------------------------|
A|-----------------------------------------------------------------|
D|-5---5---5---5---5---5---5---6---5---5---5---5---5---5---5---6---|
   1 e + a 2 e + a 3 e + a 4 e + a 1 e + a 2 e + a 3 e + a 4 e + a

G|-----------------------------------------------------------------|
D|-----------------------------------------------------------------|
A|-5---5---5---5---5---5---5---5-----------------------------------|
D|---------------------------------7---7---7---7---7---7---7---7---|
   1 e + a 2 e + a 3 e + a 4 e + a 1 e + a 2 e + a 3 e + a 4 e + a

G|-----------------------------------------------------------------|
D|-----------------------------------------------------------------|
A|-5---5---5---5---5---5---5---5---5---5---5---5---5---5---5---5---|
D|-----------------------------------------------------------------|
   1 e + a 2 e + a 3 e + a 4 e + a 1 e + a 2 e + a 3 e + a 4 e + a

G|-----------------------------------------------------------------|
D|-5---5---5---5---5---5---5---6---5---5---5---5---5---5---5---6---|
A|-----------------------------------------------------------------|
D|-----------------------------------------------------------------|
   1 e + a 2 e + a 3 e + a 4 e + a 1 e + a 2 e + a 3 e + a 4 e + a

G|-----------------------------------------------------------------|
D|-----------------------------------------------------------------|
A|-5---5---5---5---5---5---5---5-----------------------------------|
D|---------------------------------7---7---7---7---7---7---7---7---|
   1 e + a 2 e + a 3 e + a 4 e + a 1 e + a 2 e + a 3 e + a 4 e + a

0:51 Pre Chorus
G|-----------------------------------------------------------------|
D|-----------------------------------------------------------------|
A|-------------------------5-------------------------------5-------|
D|-0---0-/-5---0---0-/-5-------0-------0-/-5---0---0-/-5-------0---|
   1 e + a 2 e + a 3 e + a 4 e + a 1 e + a 2 e + a 3 e + a 4 e + a

G|-----------------------------------------------------------------|
D|-----------------------------------------------------------------|
A|-------------------------------------8---7---6-------6-----------|
D|-----0-/-5---0---0---5---7---8---------------------------3---2---|
   1 e + a 2 e + a 3 e + a 4 e + a 1 e + a 2 e + a 3 e + a 4 e + a

0:57 Chorus
G|-----------------------------------------------------------------|
D|-----------------------------------------------------------------|
A|---------------------------------3---3-3---3-3-------3---3---3---|
D|-0---0-0---0-0-------0---0---0-----------------------------------|
   1 e + a 2 e + a 3 e + a 4 e + a 1 e + a 2 e + a 3 e + a 4 e + a

G|-----------------------------------------------------------------|
D|-----------------------------------------------------------------|
A|-2---2-2---2-2-------2---2---2---1---1-1---1-1---0-0-0---0-0-0---|
D|-----------------------------------------------------------------|
   1 e + a 2 e + a 3 e + a 4 e + a 1 e + a 2 e + a 3 e + a 4 e + a

G|-----------------------------------------------------------------|
D|-----------------------------------------------------------------|
A|-5---5-5---5-5-------5---5---5---3---3-3---3-3-------3---3---3-/-|
D|-----------------------------------------------------------------|
   1 e + a 2 e + a 3 e + a 4 e + a 1 e + a 2 e + a 3 e + a 4 e + a

G|-------------------------------------------------------------------------|
D|-------------------------------------------------------------------------|
A|-10---10-10---10-10-------10---10---10---1---1-1---1-1---0---0---0---0---|
D|-------------------------------------------------------------------------|
   1  e +  a  2 e  +  a 3 e +  a 4  e +  a 1 e + a 2 e + a 3 e + a 4 e + a

1:11
G|------------------------------------------------------------------|
D|o-------------------------3-------------------------------7-------|
A|o---------------------3-------3-----------------------7-------7---|
D|--3---3---3---3---3---------------7---7---7---7---7---------------|
    1 e + a 2 e + a 3 e + a 4 e + a 1 e + a 2 e + a 3 e + a 4 e + a

G|-------------------------------------------------------------------|
D|-----------------8-------8-------8---10---8---7---8---7-----------o|
A|---------------------8-------8----------------------------8---7---o|
D|-8---8---8---8-----------------------------------------------------|
   1 e + a 2 e + a 3 e + a 4 e + a 1 e +  a 2 e + a 3 e + a 4 e + a

G|-----------------------------------------------------------------|
D|-----------------------------------------------------------------|
A|-----------------------------------------------------------------|
D|-3---3---3---3---3-------3-------2---2---2---2---2-------2-------|
   1 e + a 2 e + a 3 e + a 4 e + a 1 e + a 2 e + a 3 e + a 4 e + a

G|-----------------------------------------------------------------|
D|-----------------------------------------------------------------|
A|-----------------------------------------------------------------|
D|-1---------------------------------------------------------------|
   1 e + a 2 e + a 3 e + a 4 e + a 1 e + a 2 e + a 3 e + a 4 e + a

1:30 Interlude
G|-----------------------------------------------------------------|
D|-----------------------------------------------------------------|
A|-5---5---5---5---5---5---5---5---5---5---5---5---5---5---5---5---|
D|-----------------------------------------------------------------|
   1 e + a 2 e + a 3 e + a 4 e + a 1 e + a 2 e + a 3 e + a 4 e + a

G|-----------------------------------------------------------------|
D|-5---5---5---5---5---5---5---5---5---5---5---5---5---5---5---5---|
A|-----------------------------------------------------------------|
D|-----------------------------------------------------------------|
   1 e + a 2 e + a 3 e + a 4 e + a 1 e + a 2 e + a 3 e + a 4 e + a

G|-----------------------------------------------------------------|
D|-------------------------------------------------5---------------|
A|-5---5---5---5---5---5---5---5---4---0---4---7-------7---4---7---|
D|-----------------------------------------------------------------|
   1 e + a 2 e + a 3 e + a 4 e + a 1 e + a 2 e + a 3 e + a 4 e + a

1:41 Verse
G|-----------------------------------------------------------------|
D|-----------------------------------------------------------------|
A|-5---5---5---5---5---5---5---5---5---5---5---5---5---5---5---5---|
D|-----------------------------------------------------------------|
   1 e + a 2 e + a 3 e + a 4 e + a 1 e + a 2 e + a 3 e + a 4 e + a

G|-----------------------------------------------------------------|
D|-5---5---5---5---5---5---5---6---5---5---5---5---5---5---5---6---|
A|-----------------------------------------------------------------|
D|-----------------------------------------------------------------|
   1 e + a 2 e + a 3 e + a 4 e + a 1 e + a 2 e + a 3 e + a 4 e + a

G|-----------------------------------------------------------------|
D|-----------------------------------------------------------------|
A|-5---5---5---5---5---5---5---5-----------------------------------|
D|---------------------------------7---7---7---7---7---7---7---7---|
   1 e + a 2 e + a 3 e + a 4 e + a 1 e + a 2 e + a 3 e + a 4 e + a

G|-----------------------------------------------------------------|
D|-----------------------------------------------------------------|
A|-5---5---5---5---5---5---5---5---5---5---5---5---5---5---5---5---|
D|-----------------------------------------------------------------|
   1 e + a 2 e + a 3 e + a 4 e + a 1 e + a 2 e + a 3 e + a 4 e + a

G|-----------------------------------------------------------------|
D|-----------------------------------------------------------------|
A|-----------------------------------------------------------------|
D|-5---5---5---5---5---5---5---6---5---5---5---5---5---5---5---6---|
   1 e + a 2 e + a 3 e + a 4 e + a 1 e + a 2 e + a 3 e + a 4 e + a

G|-----------------------------------------------------------------|
D|-----------------------------------------------------------------|
A|-5---5---5---5---5---5---5---5-----------------------------------|
D|---------------------------------7---7---7---7---7---7---7---7---|
   1 e + a 2 e + a 3 e + a 4 e + a 1 e + a 2 e + a 3 e + a 4 e + a


2:01 Pre Chorus
G|-----------------------------------------------------------------|
D|-----------------------------------------------------------------|
A|-------------------------5-------------------------------5-------|
D|-0---0-/-5---0---0-/-5-------0-------0-/-5---0---0-/-5-------0---|
   1 e + a 2 e + a 3 e + a 4 e + a 1 e + a 2 e + a 3 e + a 4 e + a

G|-----------------------------------------------------------------|
D|-----------------------------------------------------------------|
A|-------------------------------------8---7---6-------6-----------|
D|-----0-/-5---0---0---5---7---8---------------------------3---2---|
   1 e + a 2 e + a 3 e + a 4 e + a 1 e + a 2 e + a 3 e + a 4 e + a

2:07 Chorus
G|-----------------------------------------------------------------|
D|-----------------------------------------------------------------|
A|---------------------------------3---3-3---3-3-------3---3---3---|
D|-0---0-0---0-0-------0---0---0-----------------------------------|
   1 e + a 2 e + a 3 e + a 4 e + a 1 e + a 2 e + a 3 e + a 4 e + a

G|-----------------------------------------------------------------|
D|-----------------------------------------------------------------|
A|-2---2-2---2-2-------2---2---2---1---1-1---1-1---0-0-0---0-0-0---|
D|-----------------------------------------------------------------|
   1 e + a 2 e + a 3 e + a 4 e + a 1 e + a 2 e + a 3 e + a 4 e + a

G|-----------------------------------------------------------------|
D|-----------------------------------------------------------------|
A|-5---5-5---5-5-------5---5---5---3---3-3---3-3-------3---3---3-/-|
D|-----------------------------------------------------------------|
   1 e + a 2 e + a 3 e + a 4 e + a 1 e + a 2 e + a 3 e + a 4 e + a

G|-------------------------------------------------------------------------|
D|-------------------------------------------------------------------------|
A|-10---10-10---10-10-------10---10---10---1---1-1---1-1---0---0---0---0---|
D|-------------------------------------------------------------------------|
   1  e +  a  2 e  +  a 3 e +  a 4  e +  a 1 e + a 2 e + a 3 e + a 4 e + a

1:11
G|------------------------------------------------------------------|
D|o-------------------------3-------------------------------7-------|
A|o---------------------3-------3-----------------------7-------7---|
D|--3---3---3---3---3---------------7---7---7---7---7---------------|
    1 e + a 2 e + a 3 e + a 4 e + a 1 e + a 2 e + a 3 e + a 4 e + a

G|-------------------------------------------------------------------|
D|-----------------8-------8-------8---10---8---7---8---7-----------o|
A|---------------------8-------8----------------------------8---7---o|
D|-8---8---8---8-----------------------------------------------------|
   1 e + a 2 e + a 3 e + a 4 e + a 1 e +  a 2 e + a 3 e + a 4 e + a

G|-----------------------------------------------------------------|
D|-----------------------------------------------------------------|
A|-----------------------------------------------------------------|
D|-3---3---3---3---3-------3-------2---2---2---2---2-------2-------|
   1 e + a 2 e + a 3 e + a 4 e + a 1 e + a 2 e + a 3 e + a 4 e + a

G|-----------------------------------------------------------------|
D|-----------------------------------------------------------------|
A|-----------------------------------------------------------------|
D|-1---------------------------------------------------------------|
   1 e + a 2 e + a 3 e + a 4 e + a 1 e + a 2 e + a 3 e + a 4 e + a

2:39
G|-------------------------------------------------------|
D|o-----------------------------------------------------o|
A|o-----------------------------------------------------o|x4
D|--0-/-12---11---10---0-/-10---9---8---7-7-3-3-5-5-2-2--|
 
2:53 In Many ways..
G|-----------------------------------------------------------------|
D|-----------------------------------------------------------------|
A|-----------------------------------------------------------------|
D|-8---8-8---8-8-------8---8---8---7---7-7---7-7-------7---7---7---|
   1 e + a 2 e + a 3 e + a 4 e + a 1 e + a 2 e + a 3 e + a 4 e + a

G|-----------------------------------------------------------------|
D|-----------------------------------------------------------------|
A|-----------------------------------------------------------------|
D|-5---5-5---5-5-------5---5---5---3---3-3---3-3---2-2-2---2-2-2---|
   1 e + a 2 e + a 3 e + a 4 e + a 1 e + a 2 e + a 3 e + a 4 e + a

G|-----------------------------------------------------------------|
D|-----------------------------------------------------------------|
A|-----------------------------------------------------------------|
D|-8---8-8---8-8-------8---8---8---7---7-7---7-7-------7---7---7---|
   1 e + a 2 e + a 3 e + a 4 e + a 1 e + a 2 e + a 3 e + a 4 e + a

G|-----------------------------------------------------------------|
D|-----------------------------------------------------------------|
A|-------------------------------------------------3---3---3---3---|
D|-5---5-5---5-5-------5---5---5---3---3-3---3-3-------------------|
   1 e + a 2 e + a 3 e + a 4 e + a 1 e + a 2 e + a 3 e + a 4 e + a

3:07 Until our Second Chance..
G|-----------------------------------------------------------------|
D|-----------------------------------------------------------------|
A|-5-5-5-5-5-5-5-5-5-5-5-5-5-5-5-5-4-4-4-4-4-4-4-4-4-4-4-4-4-4-4-4-|
D|-----------------------------------------------------------------|
   1 e + a 2 e + a 3 e + a 4 e + a 1 e + a 2 e + a 3 e + a 4 e + a

G|-----------------------------------------------------------------|
D|-----------------------------------------------------------------|
A|-----------------------------------------------------------------|
D|-3-3-3-3-3-3-3-3-3-3-3-3-3-3-3-3-2-2-2-2-2-2-2-2-2---2---2---2---|
   1 e + a 2 e + a 3 e + a 4 e + a 1 e + a 2 e + a 3 e + a 4 e + a

3:13 Find out who we are..
G|-----------------------------------------------------------------|
D|-----------------------------------------------------------------|
A|-----------------------------------------------------------------|
D|-3---3---3-------3---3---3-------3---3---3-------3---3---3-------|
   1 e + a 2 e + a 3 e + a 4 e + a 1 e + a 2 e + a 3 e + a 4 e + a

G|-----------------------------------------------------------------|
D|-----------------------------------------------------------------|
A|-----------------------------------------------------------------|
D|-2---2---2-------2---2---2-------2---2---2-------2---2---2-------|
   1 e + a 2 e + a 3 e + a 4 e + a 1 e + a 2 e + a 3 e + a 4 e + a

G|-----------------------------------------------------------------|
D|-----------------------------------------------------------------|
A|-----------------------------------------------------------------|
D|-3-3-3-3-3-------3-3-3-3-3-------3-3-3-3-3-------3-3-3-3-3-------|
   1 e + a 2 e + a 3 e + a 4 e + a 1 e + a 2 e + a 3 e + a 4 e + a

G|-----------------------------------------------------------------|
D|-----------------------------------------------------------------|
A|-----------------------------------------------------------------|
D|-2-2-2-2-2-------2-2-2-2-2-------2-2-2-2-2-------2-2-2-2-2-------|
   1 e + a 2 e + a 3 e + a 4 e + a 1 e + a 2 e + a 3 e + a 4 e + a

G|-----------------------------------------------------------------|
D|-----------------------------------------------------------------|
A|---------------------------------0-------------------------------|
D|-1---------------------------------------------------------------|
   1 e + a 2 e + a 3 e + a 4 e + a 1 e + a 2 e + a 3 e + a 4 e + a

3:20
G|-----------------------------------------------------------------|
D|-----------------------------------------------------------------|
A|-5-5-5-5-5-----------------------3-3-3-3-3-----------------------|
D|-----------------------------------------------------------------|
   1 e + a 2 e + a 3 e + a 4 e + a 1 e + a 2 e + a 3 e + a 4 e + a

G|-----------------------------------------------------------------|
D|-----------------------------------------------------------------|
A|-2-2-2-2-2-----------------------1-1-1-1-1---0-0-0-0-0---0-0-0---|
D|-----------------------------------------------------------------|
   1 e + a 2 e + a 3 e + a 4 e + a 1 e + a 2 e + a 3 e + a 4 e + a

3:36 Solo 
G|-----------------------------------------------------------------|
D|-----------------------------------------------------------------|
A|---------------------------------3---3-3---3-3-------3---3---3---|
D|-0---0-0---0-0-------0---0---0-----------------------------------|
   1 e + a 2 e + a 3 e + a 4 e + a 1 e + a 2 e + a 3 e + a 4 e + a

G|-----------------------------------------------------------------|
D|-----------------------------------------------------------------|
A|-2---2-2---2-2-------2---2---2---1-1-1---1-1-1---0-0-0-0-0-0-0-0-|
D|-----------------------------------------------------------------|
   1 e + a 2 e + a 3 e + a 4 e + a 1 e + a 2 e + a 3 e + a 4 e + a

G|-----------------------------------------------------------------|
D|-----------------------------------------------------------------|
A|---------------------------------3---3-3---3-3-------3---3---3---|
D|-0---0-0---0-0-------0---0---0-----------------------------------|
   1 e + a 2 e + a 3 e + a 4 e + a 1 e + a 2 e + a 3 e + a 4 e + a

G|-----------------------------------------------------------------|
D|-----------------------------------------------------------------|
A|-2---2-2---2-2-------2---2---2---1---1-1---1-1---0---0---0---0---|
D|-----------------------------------------------------------------|
   1 e + a 2 e + a 3 e + a 4 e + a 1 e + a 2 e + a 3 e + a 4 e + a

3:50
G|-----------------------------------------------------------------|
D|-----------------------------------------------------------------|
A|-----------------------------------------------------------------|
D|-3---3-3---3-3-------3---3---3---7---7-7---7-7-------7---7---7---|
   1 e + a 2 e + a 3 e + a 4 e + a 1 e + a 2 e + a 3 e + a 4 e + a

G|-----------------------------------------------------------------|
D|-----------------------------------------------------------------|
A|-----------------------------------------------------------------|
D|-8---8-8---8-8-------8---8---8---8---8-8---8-8-------8---8---8---|
   1 e + a 2 e + a 3 e + a 4 e + a 1 e + a 2 e + a 3 e + a 4 e + a

G|-----------------------------------------------------------------|
D|-----------------------------------------------------------------|
A|-----------------------------------------------------------------|
D|-3---3-3---3-3-------3---3---3---7---7-7---7-7-------7---7---7---|
   1 e + a 2 e + a 3 e + a 4 e + a 1 e + a 2 e + a 3 e + a 4 e + a

G|-----------------------------------------------------------------|
D|-----------------------------------------------------------------|
A|-----------------------------------------------------------------|
D|-8---8-8---8-8-------8---8---8---8---8---8---8---8---8---8---8---|
   1 e + a 2 e + a 3 e + a 4 e + a 1 e + a 2 e + a 3 e + a 4 e + a

G|-----------------------------------------------------------------|
D|-----------------------------------------------------------------|
A|-----------------------------------------------------------------|
D|-3---3---3---3---3-------3-------2---2---2---2---2-------2-------|
   1 e + a 2 e + a 3 e + a 4 e + a 1 e + a 2 e + a 3 e + a 4 e + a

G|-----------------------------------------------------------------|
D|-----------------------------------------------------------------|
A|-----------------------------------------------------------------|
D|-1---------------------------------------------------------------|
   1 e + a 2 e + a 3 e + a 4 e + a 1 e + a 2 e + a 3 e + a 4 e + a

G|-----------------------------------------------------------------|
D|-----------------------------------------------------------------|
A|-5-5-5-5-5-----------------------1-1-1-1-1-------0---------------|
D|-------------------------------------------------------5-----3---|
   1 e + a 2 e + a 3 e + a 4 e + a 1 e + a 2 e + a Tri   pl    et

4:13 Chorus 
G|-----------------------------------------------------------------|
D|-----------------------------------------------------------------|
A|---------------------------------3---3-3---3-3-------3---3---3---|
D|-0---0-0---0-0-------0---0---0-----------------------------------|
   1 e + a 2 e + a 3 e + a 4 e + a 1 e + a 2 e + a 3 e + a 4 e + a

G|-----------------------------------------------------------------|
D|-----------------------------------------------------------------|
A|-2---2-2---2-2-------2---2---2---1---1-1---1-1---0-0-0---0-0-0---|
D|-----------------------------------------------------------------|
   1 e + a 2 e + a 3 e + a 4 e + a 1 e + a 2 e + a 3 e + a 4 e + a

G|-----------------------------------------------------------------|
D|-----------------------------------------------------------------|
A|-5---5-5---5-5-------5---5---5---3---3-3---3-3-------3---3---3-/-|
D|-----------------------------------------------------------------|
   1 e + a 2 e + a 3 e + a 4 e + a 1 e + a 2 e + a 3 e + a 4 e + a

G|-------------------------------------------------------------------------|
D|-------------------------------------------------------------------------|
A|-10---10-10---10-10-------10---10---10---1---1-1---1-1---0---0---0---0---|
D|-------------------------------------------------------------------------|
   1  e +  a  2 e  +  a 3 e +  a 4  e +  a 1 e + a 2 e + a 3 e + a 4 e + a

1:11
G|------------------------------------------------------------------|
D|o-------------------------3-----------------------7-------7-------|
A|o---------------------3-------3-----------------------7-------7---|
D|--3---3---3---3---3---------------7---7---7---7-------------------|
    1 e + a 2 e + a 3 e + a 4 e + a 1 e + a 2 e + a 3 e + a 4 e + a

G|-------------------------------------------------------------------|
D|-----------------8-------8-------8---10---8---7---8---7-----------o|
A|---------------------8-------8----------------------------8---7---o|
D|-8---8---8---8-----------------------------------------------------|
   1 e + a 2 e + a 3 e + a 4 e + a 1 e +  a 2 e + a 3 e + a 4 e + a

G|-----------------------------------------------------------------|
D|-----------------------------------------------------------------|
A|-----------------------------------------------------------------|
D|-3---3---3---3---3-------3-------2---2---2---2---2-------2-------|
   1 e + a 2 e + a 3 e + a 4 e + a 1 e + a 2 e + a 3 e + a 4 e + a

G|-----------------------------------------------------------------|
D|-----------------------------------------------------------------|
A|-----------------------------------------------------------------|
D|-1---------------------------------------------------------------|
   1 e + a 2 e + a 3 e + a 4 e + a 1 e + a 2 e + a 3 e + a 4 e + a


G|-----------------------------------------------------------------|
D|-3---------------------------------------------------------------|
A|---------------------------------3-------------------------------|
D|-----------------------------------------------------------------|
   1 e + a 2 e + a 3 e + a 4 e + a 1 e + a 2 e + a 3 e + a 4 e + a

G|-----------------------------------------------------------------|
D|-----------------------------------------------------------------|
A|-----------------------------------------------------------------|
D|-1---------------------------------------------------------------|
   1 e + a 2 e + a 3 e + a 4 e + a 1 e + a 2 e + a 3 e + a 4 e + a

G|-----------------------------------------------------------------|
D|---------7---3-----------------------------------5---------------|
A|-5---0---------------5---0---5---4---0---4---7-------7---4---7---|
D|-----------------------------------------------------------------|
   1 e + a 2 e + a 3 e + a 4 e + a 1 e + a 2 e + a 3 e + a 4 e + a

Lost It All (Non-Album Track)


Intro
G|------------------------------------------------------------------|
D|o-----------------------------------------------------------------|
A|o-----------------------------------------------------------------|
D|--0-0-0-0-0-----------0-----1-----0-0-0-0-0-----------3-------6---|
    1 e + a 2 e + a 3 e + a 4 e + a 1 e + a 2 e + a 3 e + a 4 e + a

G|------------------------------------------------------------------|-----------------|
D|-----------------------------------------------------------------o|-----------------|
A|-----------------------------------------------------------------o|-----------------|
D|-0-0-0-0-0-----------0-----1-----0-0-0-0-0-----------3-------3----|-----3-------3---|
   1 e + a 2 e + a 3 e + a 4 e + a 1 e + a 2 e + a 3 e + a 4 e + a    1 e + a 2 e + a

G|-----------------------------------------------------------------|
D|-----------------------------------------------------------------|
A|-----------------------------------------------------------------|
D|-0-----0-----0---0-----0-----0---0-------------------------------|
   Tri   pl    et  Tri   pl    et  1 e + a 2 e + a 3 e + a 4 e + a 

Verse 0:18
G|-------------------------------------------------------------------|
D|o-----------------------------------------------------------------o|
A|o--------------------------------------5h8----5-------------------o|x4
D|--0-----0-----0---0-----0-----0---0---------------6-----3-----6----|
    Tri   pl    et  Tri   pl    et  Tri   pl    et  Tri   pl    et  

Pre Chorus 0:31
G|--------------------------------------------------------9----------|
D|o-------------------------------------------------8-----------8---o|
A|o---------------------------------------------7-------------------o|
D|--2-2-2-2-2-2-2-2-2-2-2-2-2-2-2-2-2-----8--------------------------|
    1 e + a 2 e + a 3 e + a 4 e + a Tri   pl    et  Tri   pl    et  

Chorus 0:39
G|-----------------------------------------------------------------|
D|-----------------------------------------------------------------|
A|---------------------------------3---3-3---3-3-------3---3---3---|
D|-0---0-0---0-0-------0---0---0-----------------------------------|
   1 e + a 2 e + a 3 e + a 4 e + a 1 e + a 2 e + a 3 e + a 4 e + a

G|-----------------------------------------------------------------|
D|-----------------------------------------------------------------|
A|-2---2-2---2-2-------2---2---2---1---1-1---1-1---0-0-0---0-0-0---|
D|-----------------------------------------------------------------|
   1 e + a 2 e + a 3 e + a 4 e + a 1 e + a 2 e + a 3 e + a 4 e + a

G|-----------------------------------------------------------------|
D|-----------------------------------------------------------------|
A|-5---5-5---5-5-------5---5---5---3---3-3---3-3-------3---3---3---|
D|-----------------------------------------------------------------|
   1 e + a 2 e + a 3 e + a 4 e + a 1 e + a 2 e + a 3 e + a 4 e + a

G|-----------------------------------------------------------------|
D|-----------------------------------------------------------------|
A|-----------------------------------------------------------------|
D|-3---3-3---3-3-------3---3---3---5---5-5---5-5---5---3---3-3-3---|
   1 e + a 2 e + a 3 e + a 4 e + a 1 e + a 2 e + a 3 e + a 4 e + a

G|-----------------------------------------------------------------|
D|-----------------------------------------------------------------|
A|-----------------------------------------------------------------|
D|-0-----0-----0---0-----0-----0---0-------------------------------|
   Tri   pl    et  Tri   pl    et  1 e + a 2 e + a 3 e + a 4 e + a 

Verse 0:56
G|-------------------------------------------------------------------|
D|o-----------------------------------------------------------------o|
A|o--------------------------------------5h8----5-------------------o|x4
D|--0-----0-----0---0-----0-----0---0---------------6-----3-----6----|
    Tri   pl    et  Tri   pl    et  Tri   pl    et  Tri   pl    et  

Pre Chorus 1:10
G|--------------------------------------------------------9----------|
D|o-------------------------------------------------8-----------8---o|
A|o---------------------------------------------7-------------------o|
D|--2-2-2-2-2-2-2-2-2-2-2-2-2-2-2-2-2-----8--------------------------|
    1 e + a 2 e + a 3 e + a 4 e + a Tri   pl    et  Tri   pl    et  

Chorus 1:17
G|-----------------------------------------------------------------|
D|-----------------------------------------------------------------|
A|---------------------------------3---3-3---3-3-------3---3---3---|
D|-0---0-0---0-0-------0---0---0-----------------------------------|
   1 e + a 2 e + a 3 e + a 4 e + a 1 e + a 2 e + a 3 e + a 4 e + a

G|-----------------------------------------------------------------|
D|-----------------------------------------------------------------|
A|-2---2-2---2-2-------2---2---2---1---1-1---1-1---0-0-0---0-0-0---|
D|-----------------------------------------------------------------|
   1 e + a 2 e + a 3 e + a 4 e + a 1 e + a 2 e + a 3 e + a 4 e + a

G|-----------------------------------------------------------------|
D|-----------------------------------------------------------------|
A|-5---5-5---5-5-------5---5---5---3---3-3---3-3-------3---3---3---|
D|-----------------------------------------------------------------|
   1 e + a 2 e + a 3 e + a 4 e + a 1 e + a 2 e + a 3 e + a 4 e + a

G|-----------------------------------------------------------------|
D|-----------------------------------------------------------------|
A|-----------------------------------------------------------------|
D|-3---3-3---3-3-------3---3---3---5---5-5---5-5---5---3---3-3-3---|
   1 e + a 2 e + a 3 e + a 4 e + a 1 e + a 2 e + a 3 e + a 4 e + a

1:31
G|-----------------------------------------------------------------|
D|-----------------------------------------------------------------|
A|-1-----1---1-1-----1-1-0-1-3-1-0-------------3-----3-3-3-3-5-3-0-|
D|---------------------------------3---3-3---3---------------------|
   1 e + a 2 e + a 3 e + a 4 e + a 1 e + a 2 e + a 3 e + a 4 e + a

G|-----------------------------------------------------------------|
D|-----------------------3h5-3-------------------------------------|
A|-1-----1---1-1---1---1-------5-3-------------3-----3-3-3-8-7-8-0-|
D|---------------------------------3---3-3---3---------------------|
   1 e + a 2 e + a 3 e + a 4 e + a 1 e + a 2 e + a 3 e + a 4 e + a

G|-----------------------------------------------------------------|
D|---------------------------------------------------------5-7-5---|
A|-1-----1---1-1-----1-1-0-1-3-1-0-------------3-----3-3-5-------8-|
D|---------------------------------3---3-3---3---------------------|
   1 e + a 2 e + a 3 e + a 4 e + a 1 e + a 2 e + a 3 e + a 4 e + a

1:52
G|-----------------------------------------------------------------|
D|-----------------------------------------------------------------|
A|-1---1---1---1---1---1---1---1---3---3---3---3---3---3---3---3---|
D|-----------------------------------------------------------------|
   1 e + a 2 e + a 3 e + a 4 e + a 1 e + a 2 e + a 3 e + a 4 e + a 

G|-----------------------------------------------------------------|
D|-----------------------------------------------------------------|
A|-4---4-4---4-4---4---4-4---4-4---5---5-5---5-5---3---3-3---3-3---|
D|-----------------------------------------------------------------|
   1 e + a 2 e + a 3 e + a 4 e + a 1 e + a 2 e + a 3 e + a 4 e + a

G|-----------------------------------------------------------------|
D|-----------------------------------------------------------------|
A|-1---1-1---1-1---1---1-1---1-1---3---3-3---3-3---3-------3---3---|
D|-----------------------------------------------------------------|
   1 e + a 2 e + a 3 e + a 4 e + a 1 e + a 2 e + a 3 e + a 4 e + a

2:02
G|-----------------------------------------------------------------|
D|-----------------------------------------------------------------|
A|-----------------------------------------------------------------|
D|-0--------------------------------------5-----0---6-----0-----6--|
   1 e + a 2 e + a 3 e + a 4 e + a  Tri   pl    et  Tri   pl    et 

G|-----------------------------------------------------------------|
D|-----------------------------------------------------------------|
A|-----------------------------------------------------------------|
D|-12---\---------------------------------5-----0---6-----0-----6--|
   1 e + a 2 e + a 3 e + a 4 e + a  Tri   pl    et  Tri   pl    et 

Solo 2:09
G|-------------------------------------------------------------------|
D|o-----------------------------------------------------------------o|
A|o-----------------------------------------------------------------o|
D|--0---0-0-0-0-0---0-0-0-0-0---0-0--0-----5-----0---6-----0-----6---|
    1 e + a 2 e + a 3 e + a 4 e + a  Tri   pl    et  Tri   pl    et

G|--------------------------------------------------------9----------|
D|o-------------------------------------------------8-----------8---o|
A|o---------------------------------------------7-------------------o|
D|--2-2-2-2-2-2-2-2-2-2-2-2-2-2-2-2-2-----8--------------------------|
    1 e + a 2 e + a 3 e + a 4 e + a Tri   pl    et  Tri   pl    et  

G|-------------------------------------------------------------------|
D|o-----------------------------------------------------------------o|
A|o-----------------------------------------------------------------o|
D|--0---0-0-0-0-0---0-0-0-0-0---0-0--0-----5-----0---6-----0-----6---|
    1 e + a 2 e + a 3 e + a 4 e + a  Tri   pl    et  Tri   pl    et

2:30
G|------------------------------------------------------------------|
D|o-----------------------------------------------------------------|
A|o-1---1-1---1-1-------1---1---1---3---3-3---3-3-------3---3---3---|
D|------------------------------------------------------------------|
    1 e + a 2 e + a 3 e + a 4 e + a 1 e + a 2 e + a 3 e + a 4 e + a

G|------------------------------------------------------------------|
D|-----------------------------------------------------------------o|
A|-4---4-4---4-4-------4---4---4---5---5-5---5-5---3---3-3---3-3---o|
D|------------------------------------------------------------------|
   1 e + a 2 e + a 3 e + a 4 e + a 1 e + a 2 e + a 3 e + a 4 e + a

G|-----------------------------------------------------------------|
D|-----------------------------------------------------------------|
A|-1---1-1---1-1-------1---1---1---3---3-3-3-3-3-3-3---3---3-3-3---|
D|-----------------------------------------------------------------|
   1 e + a 2 e + a 3 e + a 4 e + a 1 e + a 2 e + a 3 e + a 4 e + a

G|-----------------------------------------------------------------|
D|-----------------------------------------------------------------|
A|-----------------------------------------------------------------|
D|-0-----0-----0---0-----0-----0---0-------------------------------|
   Tri   pl    et  Tri   pl    et  1 e + a 2 e + a 3 e + a 4 e + a 

Verse 2:51
G|-------------------------------------------------------------------|
D|o-----------------------------------------------------------------o|
A|o--------------------------------------5h8----5-------------------o|x4
D|--0-----0-----0---0-----0-----0---0---------------6-----3-----6----|
    Tri   pl    et  Tri   pl    et  Tri   pl    et  Tri   pl    et  

Pre Chorus 3:05
G|--------------------------------------------------------9----------|
D|o-------------------------------------------------8-----------8---o|
A|o---------------------------------------------7-------------------o|
D|--2-2-2-2-2-2-2-2-2-2-2-2-2-2-2-2-2-----8--------------------------|
    1 e + a 2 e + a 3 e + a 4 e + a Tri   pl    et  Tri   pl    et  

Chorus 3:12
G|-----------------------------------------------------------------|
D|-----------------------------------------------------------------|
A|---------------------------------3---3-3---3-3-------3---3---3---|
D|-0---0-0---0-0-------0---0---0-----------------------------------|
   1 e + a 2 e + a 3 e + a 4 e + a 1 e + a 2 e + a 3 e + a 4 e + a

G|-----------------------------------------------------------------|
D|-----------------------------------------------------------------|
A|-2---2-2---2-2-------2---2---2---1---1-1---1-1---0-0-0---0-0-0---|
D|-----------------------------------------------------------------|
   1 e + a 2 e + a 3 e + a 4 e + a 1 e + a 2 e + a 3 e + a 4 e + a

G|-----------------------------------------------------------------|
D|-----------------------------------------------------------------|
A|-5---5-5---5-5-------5---5---5---3---3-3---3-3-------3---3---3---|
D|-----------------------------------------------------------------|
   1 e + a 2 e + a 3 e + a 4 e + a 1 e + a 2 e + a 3 e + a 4 e + a

G|-----------------------------------------------------------------|
D|-----------------------------------------------------------------|
A|-----------------------------------------------------------------|
D|-3---3-3---3-3-------3---3---3---5---5-5---5-5---5---3---3-3-3---|
   1 e + a 2 e + a 3 e + a 4 e + a 1 e + a 2 e + a 3 e + a 4 e + a

G|---------------------------------|
D|---------------------------------|
A|---------------------------------|
D|-0-----0-----0---0-----0-----0---|
   Tri   pl    et  Tri   pl    et 

Outro 3:28 
G|-----------------------------------------------------------------|
D|-----------------------------------------------------------------|
A|-----------------------------------------------------------------|
D|-0-0-0-0-0-----------0-----1-----0-0-0-0-0-----------3-------6---|
   1 e + a 2 e + a 3 e + a 4 e + a 1 e + a 2 e + a 3 e + a 4 e + a

G|-----------------------------------------------------------------|
D|-----------------------------------------------------------------|
A|-----------------------------------------------------------------|
D|-0-0-0-0-0-----------0-----1-----0-0-0-0-0-----------3-------3---|
   1 e + a 2 e + a 3 e + a 4 e + a 1 e + a 2 e + a 3 e + a 4 e + a

G|------------------------------------------------------------------|
D|------------------------------------------------------------------|
A|------------------------------------------------------------------|
D|-----3-------3-----------0----------------------------------------|
   1 e + a 2 e + a 3 e + a 4 e + a 1 e + a 2 e + a 3 e + a 4 e + a

3:45
G|---------------------------------|
D|---------------------------------|
A|---------------------------------|
D|-0-----0-----0---0-----0-----0---|
   Tri   pl    et  Tri   pl    et 
comments
We did not receive enough feedback on this tab! Please rate:
print report bad tab
1 2 3 4 5
I want to post or [tab]
guest
You may want to rate the tab now too:
select rating
Please do not post tabs as comments. Select "correction" instead!