Oops, an error
Loading. Please wait.

Nightmare Tab

17,379 views 18 this week
no commentswrite comment
1 2 3 4 5
accurate
x 7
Autoscroll
+/-
esc
set tempo
stop
Contributor
Difficulty
Tuning
advanced
D G C F A D
WARNING: You are trying to view
                                    content from Ultimate-Guitar.com
                                    in an unauthorized application,
                                    which is prohibited.

                                    Please use an official Ultimate
                                    Guitar Tabs application for iPhone,
                                    iPad or Android to access legitimate
                                    chords, guitar, bass, and drum tabs
                                    from Ultimate-Guitar.com database.

                                    Type "ultimate guitar tabs" in Apple
                                    App Store's or Android Market's
                                    search to find the application.
ARTIST: AVENGED SEVENFOLD
ALBUM: NIGHTMARE
TUNING: DROPPED D (D,A,D,G,B,E)

I'm sorry this tab is SO LONG, but the album tabs for ANY band (let alone 
Synyster Gates' and Zacky Vengeance's sick riffs and dual solos) are gonna 
be REALLY LOOOONG.


============================================================================
Song #1: NIGHTMARE
Tuning: Dropped-D
Length: 6:16
============================================================================

INTRO

Guitar 1
E|-------------------------------------------------------|
B|--------/10~-10-9~-9-8~-8-6----------------8-10-11-----|
G|--/7~-7---------------------7---7------6-9-------------|
D|------------------------------7-----/7-----------------|
A|-------------------------------------------------------|
D|-------------------------------------------------------|
                                                         |
Guitar 2                                                 |
E|-------------------------------------------------------|
B|-------------------------------------------------------|
G|---------------------------------------------6--9------|
D|---0--0-/7~--7--6~-6-5~-5----------------5-8-----------|
A|--------------------------8-5---5\--/4-7---------------|
D|------------------------------7------------------------|
                                                         |
Guitar 3                                                 |
E|-------------------------------------------------------|
B|-------------------------------------------------------|
G|-------------------------------------------------------|
D|-------------------------------------------------------|
A|-|----9---|----------------|----9---|------------------|
D|--0000000000----------------0000000000-----------------|
    **********                **********
                        
    **********                **********

Guitar 1
E|-----------------------------------------------------------|
B|--------/10~-10-9~-9--8~-8--6-------------------8-10-11----|
G|--/7~-7-----------------------7----7-------6-9-------------|
D|--------------------------------7------/7------------------|
A|-----------------------------------------------------------|
D|-----------------------------------------------------------|
                                                             |
Guitar 2                                                     |
E|-----------------------------------------------------------|
B|-----------------------------------------------------------|
G|--------------------------------------------------6--9-----|
D|---0--0-/7~--7--6~-6--5~-5-------------------5--8----------|
A|----------------------------8-5----5\--/4--7---------------|
D|--------------------------------7--------------------------|
                                                             |
Guitar 3                                                     |
E|-----------------------------------------------------------|
B|-----------------------------------------------------------|
G|-----------------------------------------------------------|
D|-----------------------------------------------------------|
A|--|----9--|--|3|---|3|---|3|----|3|--|3|-----|3|-----|3|---|
D|--0000000000-0000--0000--0000---0000-0000----0000----000---|
    ********** ****  ****  ****   **** ****    ****    *** 
         
Guitar 1
E|----------------------------------------------------------|
B|--------/10~-10-9~-9-8~-8-6-------------------8--10-11----|
G|--/7~-7---------------------7---7-------6--9--------------|
D|------------------------------7-----/7--------------------|
A|----------------------------------------------------------|
D|----------------------------------------------------------|
                                                            |
Guitar 2                                                    |
E|----------------------------------------------------------|
B|----------------------------------------------------------|
G|-------------------------------------------------6--9-----|
D|---0--0-/7~--7--6~-6-5~-5------------------5--8-----------|
A|--------------------------8-5---5\--/4--7-----------------|
D|------------------------------7---------------------------|
                                                            |
Guitar 3                                                    |
E|----------------------------------------------------------|
B|----------------------------------------------------------|
G|----------------------------------------------------------|
D|---0~-----------------------------------------------------|
A|---0~--------------------------------|-------18-------|---|
D|---0~--------------------------------000000000000000000---|
                                       ******************

Guitar 1
E|----------------------------------------------------------|
B|--------/10~-10-9~-9-8~-8-6-------------------8--10-11----|
G|--/7~-7---------------------7---7-------6--9--------------|
D|------------------------------7-----/7--------------------|
A|----------------------------------------------------------|
D|----------------------------------------------------------|
                                                            |
Guitar 2                                                    |
E|----------------------------------------------------------|
B|----------------------------------------------------------|
G|-------------------------------------------------6--9-----|
D|---0--0-/7~--7--6~-6-5~-5------------------5--8-----------|
A|--------------------------8-5---5\--/4--7-----------------|
D|------------------------------7---------------------------|
                                                            |
Guitar 3                                                    |
E|----------------------------------------------------------|
B|----------------------------------------------------------|
G|----------------------------------------------------------|
D|---0~-----------------------------------------------------|
A|---0~--------------------------------|-------18-------|---|
D|---0~--------------------------------000000000000000000---|
                                       ******************

Guitar 1
E|--------------------------------------------------------------|
B|--11~-11-10-9-8~--/15--13~-------/17~-------------------------|
G|--------------------------------------------------------------|
D|--------------------------------------------------------------|
A|--------------------------------------------------------------|
D|--------------------------------------------------------------|
                                                                |
Guitar 2                                                        |
E|--------------------------------------------------------------|
B|--------------------------------------------------------------|
G|--7---7--6--5-4---/10--9~--------/12~-------------------------|
D|--------------------------------------------------------------|
A|--------------------------------------------------------------|
D|--------------------------------------------------------------|
                                                                |
Guitar 3                                                        |
E|--------------------------------------------------------------|
B|--------------------------------------------------------------|
G|--------------------------------------------------------------|
D|--3------------5-------5----------7---------------------------|
A|--1------------2-------3----------4---------------------------|
D|--------------------------------------------------------------|

PRE-VERSE "nightmaaaaaaaaaaaaaaaaaaare"

Synyster Gates plays diving  harmonics on his Floyd Rose, but since I don't 
own a Floyd Rose I can't tell you exactly what they are.

Guitar 2
E|-------------------------------------------------------------|
B|-------------------------------------------------------------|
G|-------------------------------------------------------------|
D|-------------------------------------------------------------|
A|-------------------------------------------------------------|
D|--------------------------------------------------------12\--|
                                                               |
Guitar 3                                                       |
E|-------------------------------------------------------------|
B|-------------------------------------------------------------|
G|-------------------------------------------------------------|
D|-------------------------------------------------------------|
A|-------------------------------------------------------------|
D|--0000000000000000000000000000000000000000000000000000000000-|
    **********************************************************


VERSE 1

Guitars 1+2
E|--------------------------------------------------------|
B|--------------------------------------------------------|
G|--------------------------------------------------------|
D|--------0-----------------0-----------------0-----------|
A|--3b----0-----------3b----0-----------3b----0-----------|
D|--3b----0----000000-3b----0----000000-3b----0----000000-|           
               ******            ******            ******

Guitars 1+2
E|------------------|
B|------------------|
G|------------------|
D|------------------|
A|------------------|
D|-6353630363536303-| 
   ****************

Guitars 1+2
E|--------------------------------------------------------|
B|--------------------------------------------------------|
G|--------------------------------------------------------|
D|--------0-----------------0-----------------0-----------|
A|--3b----0-----------3b----0-----------3b----0-----------|
D|--3b----0----000000-3b----0----000000-3b----0----000000-|           
               ******            ******            ******

Guitars 1+2
E|------------------|
B|------------------|
G|------------------|
D|------------------|
A|------------------|
D|-6353630363536303-| 
   ****************

Guitar 1
E|-------------------------------------------------|
B|-------------------------------------------------|
G|-------------------------------------------------|
D|---/7--6--5------------------------/7--6--5------|
A|-------------8-5-----------------------------8---|
D|-------------------------------------------------|
                                                   |
Guitar 2                                           |
E|-------------------------------------------------|
B|-------------------------------------------------|
G|-------------------------------------------------|
D|-3---------3-----3-----3-----3---3-----3-----3---|
A|-3---------3-----3-----3-----3---3-----3-----3---|
D|-3---0-0-0-3-0-0-3-0-0-3-0-0-3-0-3-0-0-3-0-0-3-0-|    
       * * *   * *   * *   * *   *   * *   * *   *

Guitars 1+2
E|------------------|
B|------------------|
G|------------------|
D|------------------|
A|------------------|
D|-6353630363536303-| 
   ****************

Guitar 1
E|-------------------------------------------------|
B|-------------------------------------------------|
G|-------------------------------------------------|
D|---/7--6--5------------------------/7--6--5------|
A|-------------8-5-----------------------------8---|
D|-------------------------------------------------|
                                                   |
Guitar 2                                           |
E|-------------------------------------------------|
B|-------------------------------------------------|
G|-------------------------------------------------|
D|-3---------3-----3-----3-----3---3-----3-----3---|
A|-3---------3-----3-----3-----3---3-----3-----3---|
D|-3---0-0-0-3-0-0-3-0-0-3-0-0-3-0-3-0-0-3-0-0-3-0-|    
       * * *   * *   * *   * *   *   * *   * *   *

Guitars 1+2
E|----------------------------------|
B|----------------------------------|
G|----------------------------------|
D|----------------------------------|
A|----------------------------------|
D|-63536303635363036353630363536303-| 
   ****************


CHORUS I

Guitars 1+2
E|---------------------------------------------|
B|---------------------------------------------|
G|------------5---------------------3----------|
D|-0----------5----------3----------3----------|
A|-0----------3----------3----------1----------|
D|-0---------------------3---------------------|

Guitars 1+2                    
E|---------------------------------------------|
B|---------------------------------------------|
G|------------5---------------------3----------|
D|-0----------5----------3----------3----------|
A|-0----------3----------3----------1----------|
D|-0---------------------3---------------------|
                      
Guitars 1+2
E|-----------------------|
B|-----------------------|
G|-2-2-2-2-2-2-2-2-2-----|
D|-2-2-2-2-2-2-2-2-2-----|
A|-0-0-0-0-0-0-0-0-0-----|
D|-----------------------|
     * * * * * * *


Guitar 1 plays hamonics again. same as above.

Guitar 2
E|-------------------------------------------------------------|
B|-------------------------------------------------------------|
G|-------------------------------------------------------------|
D|-------------------------------------------------------------|
A|-------------------------------------------------------------|
D|--------------------------------------------------------12\--|
                                                               |
Guitar 3                                                       |
E|-------------------------------------------------------------|
B|-------------------------------------------------------------|
G|-------------------------------------------------------------|
D|-------------------------------------------------------------|
A|-------------------------------------------------------------|
D|--0000000000000000000000000000000000000000000000000000000000-|
    **********************************************************

VERSE 2

Guitars 1+2
E|--------------------------------------------------------|
B|--------------------------------------------------------|
G|--------------------------------------------------------|
D|--------0-----------------0-----------------0-----------|
A|--3b----0-----------3b----0-----------3b----0-----------|
D|--3b----0----000000-3b----0----000000-3b----0----000000-|           
               ******            ******            ******

Guitars 1+2
E|------------------|
B|------------------|
G|------------------|
D|------------------|
A|------------------|
D|-6353630363536303-| 
   ****************

Guitars 1+2
E|--------------------------------------------------------|
B|--------------------------------------------------------|
G|--------------------------------------------------------|
D|--------0-----------------0-----------------0-----------|
A|--3b----0-----------3b----0-----------3b----0-----------|
D|--3b----0----000000-3b----0----000000-3b----0----000000-|           
               ******            ******            ******

Guitars 1+2
E|------------------|
B|------------------|
G|------------------|
D|------------------|
A|------------------|
D|-6353630363536303-| 
   ****************

Guitar 1
E|-------------------------------------------------|
B|-------------------------------------------------|
G|-------------------------------------------------|
D|---/7--6--5------------------------/7--6--5------|
A|-------------8-5-----------------------------8---|
D|-------------------------------------------------|
                                                   |
Guitar 2                                           |
E|-------------------------------------------------|
B|-------------------------------------------------|
G|-------------------------------------------------|
D|-3---------3-----3-----3-----3---3-----3-----3---|
A|-3---------3-----3-----3-----3---3-----3-----3---|
D|-3---0-0-0-3-0-0-3-0-0-3-0-0-3-0-3-0-0-3-0-0-3-0-|    
       * * *   * *   * *   * *   *   * *   * *   *

Guitars 1+2
E|------------------|
B|------------------|
G|------------------|
D|------------------|
A|------------------|
D|-6353630363536303-| 
   ****************

Guitar 1
E|-------------------------------------------------|
B|-------------------------------------------------|
G|-------------------------------------------------|
D|---/7--6--5------------------------/7--6--5------|
A|-------------8-5-----------------------------8---|
D|-------------------------------------------------|
                                                   |
Guitar 2                                           |
E|-------------------------------------------------|
B|-------------------------------------------------|
G|-------------------------------------------------|
D|-3---------3-----3-----3-----3---3-----3-----3---|
A|-3---------3-----3-----3-----3---3-----3-----3---|
D|-3---0-0-0-3-0-0-3-0-0-3-0-0-3-0-3-0-0-3-0-0-3-0-|    
       * * *   * *   * *   * *   *   * *   * *   *

Guitars 1+2
E|----------------------------------|
B|----------------------------------|
G|----------------------------------|
D|----------------------------------|
A|----------------------------------|
D|-63536303635363036353630363536303-| 
   ****************

CHORUS II

Guitars 1+2
E|---------------------------------------------|
B|---------------------------------------------|
G|------------5---------------------3----------|
D|-0----------5----------3----------3----------|
A|-0----------3----------3----------1----------|
D|-0---------------------3---------------------|

Guitars 1+2                    
E|---------------------------------------------|
B|---------------------------------------------|
G|------------5---------------------3----------|
D|-0----------5----------3----------3----------|
A|-0----------3----------3----------1----------|
D|-0---------------------3---------------------|
 
Guitars 1+2
E|---------------------------------------------|
B|---------------------------------------------|
G|------------5---------------------3----------|
D|-0----------5----------3----------3----------|
A|-0----------3----------3----------1----------|
D|-0---------------------3---------------------|

Guitars 1+2                    
E|---------------------------------------------|
B|---------------------------------------------|
G|------------5---------------------3----------|
D|-0----------5----------3----------3----------|
A|-0----------3----------3----------1----------|
D|-0---------------------3---------------------|
                     
Guitars 1+2
E|-----------------------|
B|-----------------------|
G|-2-2-2-2-2-2-2-2-2-----|
D|-2-2-2-2-2-2-2-2-2-----|
A|-0-0-0-0-0-0-0-0-0-----|
D|-----------------------|
     * * * * * * *

PRE-SOLO

Guitar 1
E|-------/17~-17-16~-16-15~-15-13------------------10-11-12-|
B|--------------------------------15~-----------------------|
G|--------------------------------------------9-12----------|
D|----------------------------------------/11---------------|
A|----------------------------------------------------------|
D|----------------------------------------------------------|
 |                                                          |
 |Guitar 2                                                  |
E|-------/13~-13-12~-12-11~-11-10------------------7--8--9--|
B|--------------------------------10~-----------------------|
G|--------------------------------------------6-9-----------|
D|----------------------------------------/8----------------|
A|----------------------------------------------------------|
D|----------------------------------------------------------|
 |                                                          |
 |Guitar 3                                                  |
E|----------------------------------------------------------|
B|----------------------------------------------------------|
G|----------------------------------------------------------|
D|---0~-----------------------------------------------------|
A|---0~-----------------------------------------------------|
D|---0~--------------------------------000000000000000000---|
                                       ******************

Guitar 1
E|--------/17~-17-16~-16-15~-15-13------------------------------|
B|-15-----------------------------15----15~------------11-12-13-|
G|-----------------------------------14-----------9-12----------|
D|--------------------------------------------/11---------------|
A|--------------------------------------------------------------|
D|--------------------------------------------------------------|
 |                                                              |
 |Guitar 2                                                      |
E|-13-----/13~-13-12~-12-11~-11-10------------------------------|
B|---------------------------------10----10~-----------8--9--10-|
G|------------------------------------10----------6-9-----------|
D|--------------------------------------------/8----------------|
A|--------------------------------------------------------------|
D|--------------------------------------------------------------|
 |                                                              |
 |  Guitar 3                                                    |
E|--------------------------------------------------------------|
B|--------------------------------------------------------------|
G|--------------------------------------------------------------|
D|---0~---------------------------------------------------------|
A|---0~---------------------------------------------------------|
D|---0~--------------------------------000000000000000000-------|
                                       ******************

Guitar 1
E|--------------------------------------------------------------|
B|-14~-14-13-12-11~--/18--17~----16-17-/20~---------------------|
G|--------------------------------------------------------------|
D|--------------------------------------------------------------|
A|--------------------------------------------------------------|
D|--------------------------------------------------------------|
                                                                |
Guitar 2                                                        |
E|--------------------------------------------------------------|
B|-11~-11-10-9--8~---/15--13~----12-13-/17~---------------------|
G|--------------------------------------------------------------|
D|--------------------------------------------------------------|
A|--------------------------------------------------------------|
D|--------------------------------------------------------------|
                                                                |
Guitar 3                                                        |
E|--------------------------------------------------------------|
B|--------------------------------------------------------------|
G|--------------------------------------------------------------|
D|--3------------5-------5----------7---------------------------|
A|--1------------2-------3----------4---------------------------|
D|--------------------------------------------------------------|


Solo:


Guitar 1
E|-/17~-----------------------12-14-15-16~---------------------11-13-14-15~|
B|-------------------14-15-16-------------------------13-14-15-------------|
G|----------14-15-16-------------------------13-14-15----------------------|
D|-------------------------------------------------------------------------|
A|-------------------------------------------------------------------------|
D|-------------------------------------------------------------------------|
 |                                                               __________/
 |Guitar 3                                                      /
E|-------------------------------------------------------------|
B|-------------------------------------------------------------|
G|-------------------------------------------------------------|
D|-------------------------------------------------------------|
A|-0---------------3---0-------0-----------3---0-----------3b--|
D|-0-----------0-0-3---0-------0-------0-0-3---0-------0-0-3b--|
               * *                     * *             * *
Guitar 1
E|-15b17r15--13~---17-13-------------17----------------|
B|-----------------------15-14----------18-15----------|
G|-----------------------------15-14----------14-------|
D|-----------------------------------------------15----|
A|--------------------------------------------------17-|
D|-----------------------------------------------------|
 |                                                      \_____
 |Guitar 3                                                    \
E|-------------------------------------------------------------|
B|-------------------------------------------------------------|
G|-------------------------------------------------------------|
D|-------------------------------------------------------------|
A|-0---------------3---0-------0-----------3---0-----------3b--|
D|-0-----------0-0-3---0-------0-------0-0-3---0-------0-0-3b--|
               * *                     * *             * *


Guitar 1
E|-------------------------------------15b17r15-------------------------|
B|----------------------------------------------15--18--17--18-/20-/22--|
G|--------2--3--2-----------14-15--14-----------------------------------|
D|-----3---------------15-----------------------------------------------|
A|-/5-------------/17---------------------------------------------------|
D|----------------------------------------------------------------------|
 |                                                                      |
 |Guitar 2                                                              |
E|--------------------------17-18--17-----------------------------------|
B|----------------/15--18-----------------------------------------------|
G|--------14-15-14------------------------------------------------------|
D|-----15---------------------------------------------------------------|
A|-/17------------------------------------------------------------------|
D|----------------------------------------------------------------------|
 |                                                                      |
 |Guitar 3                                                              |
E|----------------------------------------------------------------------|
B|----------------------------------------------------------------------|
G|----------------------------------------------------------------------|
D|--------------------------------------3---3---5---5---5---5---7---7---|
A|-0------3--0--0------3--0------3b-----1---1---2---2---3---3---4---4---|
D|-0--0-0-3--0--0--0-0-3--0--0-0-3b-------------------------------------|
      * *          * *       * *



Guitar 1
E|-------------------------------------|
B|-------------------------------------|
G|-7--/11-\6--/13-\4--/11-\2-5--2-1----|
D|----------------------------------3/-|
A|-------------------------------------|
D|-------------------------------------|
 |                                     |
 |Guitar 2                             |
E|-13-/17-\11-/19-\9--/17-\8-14-8-7-3/-|
B|-------------------------------------|
G|-------------------------------------|
D|-------------------------------------|
A|-------------------------------------|
D|-------------------------------------|
 |                                     \____________________________
 |Guitar 3                                                          \
E|------------------------------------------------------------------|
B|------------------------------------------------------------------|
G|------------------------------------------------------------------|
D|------------------------------------------------------------------|
A|-0------3--0--0------3-0------3b--0------3--0--0------3-0------3b-|
D|-0--0-0-3--0--0--0-0-3-0--0-0-3b--0--0-0-3--0--0--0-0-3-0--0-0-3b-|
      * *          * *      * *        * *          * *      * *
Rapidly stum each note as 16th note triplets for guitar 1 and 2

Guitar 1 
E|--------------------------------------10/17-13---------------------------|
B|-----------------------------------11----------15-14-------------15--14--|
G|--------------------------------10-------------------15-14---------------|
D|-----------------6--7--6--7--12----------------------------15------------|
A|-4-3-4-3-8-7-6-7----------------------------------------------17---------|
D|-------------------------------------------------------------------------|
 | * * * * * * * *                                                         |
 |Guitar 2                                                                 |
E|--------------------------------------13/20-17---------------------------|
B|-----------------------------------15----------18-17-------------18--17--|
G|--------------------------------14-------------------19-18---------------|
D|---------7-6-5-6-11-12-11-12-15----------------------------19------------|
A|-7-6-7-6------------------------------------------------------20---------|
D|-------------------------------------------------------------------------|
 | * * * * * * *                                                 __________/
 |Guitar 3                                                      /
E|-------------------------------------------------------------|
B|-------------------------------------------------------------|
G|-------------------------------------------------------------|
D|-------------------------------------------------------------|
A|-0---------------3---0-------0-----------3---0-----------3b--|
D|-0-----------0-0-3---0-------0-------0-0-3---0-------0-0-3b--|
               * *                     * *             * *

Guitar 1
E|--------------13-14-15-15--15-14-13----------20-----------15-16-17-18---17---|
B|-15--15-16-17-----------------------17-16-15-----15-16-18--------------------|
G|-----------------------------------------------------------------------------|
D|-----------------------------------------------------------------------------|
A|-----------------------------------------------------------------------------|
D|-----------------------------------------------------------------------------|
 |                                                                             |
 |Guitar 2                                                                     |
E|--------------16-17-18-18--18-17-16-----------------------12-13-14-15---14---|
B|-18--18-19-20-----------------------20-19-18-17--12-13-15--------------------|
G|-----------------------------------------------------------------------------|
D|-----------------------------------------------------------------------------|
A|-----------------------------------------------------------------------------|
D|-----------------------------------------------------------------------------|
 |                                                   __________________________/
 |Guitar 3                                          /
E|-------------------------------------------------|
B|-------------------------------------------------|
G|-------------------------------------------------|
D|-3-----3-----5-----5-----5-----5-----7-----7-----|
A|-1-----1-----2-----2-----3-----3-----4-----4-----|
D|-------------------------------------------------|

BRIDGE

Guitar 1 
E|-----------------------------------|
B|-----------------------------------|
G|-----------------------------------|
D|-/7~----7---6~---5~----------------|
A|----------------------8-5---/5~----|
D|--------------------------7--------|
                                     |
Guitar 2                             |
E|-----------------------------------|
B|-----------------------------------|
G|-----------------------------------|
D|-/10~---10--9~---8~---7------------|
A|------------------------8---/8~----|
D|--------------------------10-------|
 |                                    \____________________________
 |GUITAR 3                                                         \
E|-----------------------------------------------------------------|
B|-----------------------------------------------------------------|
G|-----------------------------------------------------------------|
D|-0---------0-----0-----0-----0---0-----0-----0---0-----0-----0---|
A|-0---------0-----0-----0-----0---0-----0-----0---0-----0-----0---|
D|-0---0-0-0-0-0-0-0-0-0-0-0-0-0-0-0-0-0-0-0-0-0-0-0-0-0-0-0-0-0-0-|
       * * *   * *   * *   * *   *   * *   * *   *   * *   * *   * 

Breakdown:

GUITAR 1+2
E|-----------------------------------------------------------------|
B|-----------------------------------------------------------------|
G|-----------------------------------------------------------------|
D|-0---------0-----0-----0-----0---0-----0-----0---0-----0-----0---|
A|-0---------0-----0-----0-----0---0-----0-----0---0-----0-----0---|
D|-0---0-0-0-0-0-0-0-0-0-0-0-0-0-0-0-0-0-0-0-0-0-0-0-0-0-0-0-0-0-0-|
       * * *   * *   * *   * *   *   * *   * *   *   * *   * *   * 

GUITAR 1+2
E|-----------------------------------------------------------------|
B|-----------------------------------------------------------------|
G|-----------------------------------------------------------------|
D|-0---------0-----0-----0-----0---0-----0-----0---0-----0-----0---|
A|-0---------0-----0-----0-----0---0-----0-----0---0-----0-----0---|
D|-0---0-0-0-0-0-0-0-0-0-0-0-0-0-0-0-0-0-0-0-0-0-0-0-0-0-0-0-0-0-0-|
       * * *   * *   * *   * *   *   * *   * *   *   * *   * *   * 
 
Guitar 1
E|-------------------------------------------------------------13-15-16-17-18-18--18-|
B|-------------------------------------14-15-14----------14-15-----------------------|
G|-------------14-15-14----------14-15----------15-14-15-----------------------------|
D|-------14-15----------15-14-15-----------------------------------------------------|
A|-13-15-----------------------------------------------------------------------------|
D|-----------------------------------------------------------------------------------|
 |                                                                                   |
 |Guitar 2                                                                           |
E|-----------------------------------------------------------------------------------|
B|-----------------------------------------------------------------------------------|
G|-------------------------14-15-14----------14-15-----------------------------------|
D|-------------------14-15----------15-14-15-----------------------------------------|
A|-------------13-15-----------------------------------------------------------------|
D|-----------------------------------------------------------------------------------|
 |                                  _________________________________________________/
 |GUITAR 3                         /
E|--------------------------------|
B|--------------------------------|
G|-3---3---3---3---3---3---3------|
D|-3---3---3---3---3---3---3------|
A|-1---1---1---1---1---1---1------|
D|---------------------------3~---|


Guitar 1 
E|-----------------------------------|
B|-----------------------------------|
G|-----------------------------------|
D|-/7~----7---6~---5~----------------|
A|----------------------8-5---/5~----|
D|--------------------------7--------|
                                     |
Guitar 2                             |
E|-----------------------------------|
B|-----------------------------------|
G|-----------------------------------|
D|-/10~---10--9~---8~---7------------|
A|------------------------8---/8~----|
D|--------------------------10-------|
                                      \____________________________
GUITAR 3                                                           \
E|-----------------------------------------------------------------|
B|-----------------------------------------------------------------|
G|-----------------------------------------------------------------|
D|-0---------0-----0-----0-----0---0-----0-----0---0-----0-----0---|
A|-0---------0-----0-----0-----0---0-----0-----0---0-----0-----0---|
D|-0---0-0-0-0-0-0-0-0-0-0-0-0-0-0-0-0-0-0-0-0-0-0-0-0-0-0-0-0-0-0-|
       * * *   * *   * *   * *   *   * *   * *   *   * *   * *   * 

GUITAR 1+2
E|-----------------------------------------------------------------|
B|-----------------------------------------------------------------|
G|-----------------------------------------------------------------|
D|-0---------0-----0-----0-----0---0-----0-----0---0-----0-----0---|
A|-0---------0-----0-----0-----0---0-----0-----0---0-----0-----0---|
D|-0---0-0-0-0-0-0-0-0-0-0-0-0-0-0-0-0-0-0-0-0-0-0-0-0-0-0-0-0-0-0-|
       * * *   * *   * *   * *   *   * *   * *   *   * *   * *   * 

GUITAR 1+2
E|-----------------------------------------------------------------|
B|-----------------------------------------------------------------|
G|-----------------------------------------------------------------|
D|-0---------0-----0-----0-----0---0-----0-----0---0-----0-----0---|
A|-0---------0-----0-----0-----0---0-----0-----0---0-----0-----0---|
D|-0---0-0-0-0-0-0-0-0-0-0-0-0-0-0-0-0-0-0-0-0-0-0-0-0-0-0-0-0-0-0-|
       * * *   * *   * *   * *   *   * *   * *   *   * *   * *   * 

Interlude:

Guitars 1+2
E|---------------------------------------------------------------------|
B|---------------------------------------------------------------------|
G|-3---3-3-3---3-3-3---3---3---3-3-5---5---5-5-5---5-5-5---5---5---5-5-|
D|-3---3-3-3---3-3-3---3---3---3-3-5---5---5-5-5---5-5-5---5---5---5-5-|
A|-1---1-1-1---1-1-1---1---1---1-1-3---3---3-3-3---3-3-3---3---3---3-3-|
D|---------------------------------------------------------------------|
                                 
Guitars 1+2
E|---------------------------------------------------------------------|
B|---------------------------------------------------------------------|
G|-3---3-3-3---3-3-3---3---3---3-3-5---5---5-5-5---5-5-5---5---5---5-5-|
D|-3---3-3-3---3-3-3---3---3---3-3-5---5---5-5-5---5-5-5---5---5---5-5-|
A|-1---1-1-1---1-1-1---1---1---1-1-3---3---3-3-3---3-3-3---3---3---3-3-|
D|---------------------------------------------------------------------|
                                 
Guitars 1+2
E|---------------------------------------------------------------------|
B|---------------------------------------------------------------------|
G|-3---3-3-3---3-3-3---3---3---3-3-5---5---5-5-5---5-5-5---5---5---5-5-|
D|-3---3-3-3---3-3-3---3---3---3-3-5---5---5-5-5---5-5-5---5---5---5-5-|
A|-1---1-1-1---1-1-1---1---1---1-1-3---3---3-3-3---3-3-3---3---3---3-3-|
D|---------------------------------------------------------------------|
                                 
Guitar 1+2
E|---------------------------------------------------------|
B|---------------------------------------------------------|
G|---------------------------------------------------------|
D|-3-----3---3-5-----5---5-5-----5---5-7-------------------|
A|-1-----1---1-2-----2---2-3-----3---3-4-------------------|
D|---------------------------------------------------------|



PRE-CHORUS

Guitar 1 plays diving harmonics. Same as above.

Guitar 2
E|-------------------------------------------------------------|
B|-------------------------------------------------------------|
G|-------------------------------------------------------------|
D|-------------------------------------------------------------|
A|-------------------------------------------------------------|
D|--------------------------------------------------------12\--|
 |                                                             |
 |Guitar 3                                                     |
E|-------------------------------------------------------------|
B|-------------------------------------------------------------|
G|-------------------------------------------------------------|
D|-------------------------------------------------------------|
A|-------------------------------------------------------------|
D|--0000000000000000000000000000000000000000000000000000000000-|
    **********************************************************



CHORUS

Guitars 1+2
E|---------------------------------------------|
B|---------------------------------------------|
G|------------5---------------------3----------|
D|-0----------5----------3----------3----------|
A|-0----------3----------3----------1----------|
D|-0---------------------3---------------------|

Guitars 1+2                    
E|---------------------------------------------|
B|---------------------------------------------|
G|------------5---------------------3----------|
D|-0----------5----------3----------3----------|
A|-0----------3----------3----------1----------|
D|-0---------------------3---------------------|
 
Guitars 1+2
E|---------------------------------------------|
B|---------------------------------------------|
G|------------5---------------------3----------|
D|-0----------5----------3----------3----------|
A|-0----------3----------3----------1----------|
D|-0---------------------3---------------------|

Guitars 1+2                    
E|---------------------------------------------|
B|---------------------------------------------|
G|------------5---------------------3----------|
D|-0----------5----------3----------3----------|
A|-0----------3----------3----------1----------|
D|-0---------------------3---------------------|
                     
Guitars 1+2
E|-----------------------|
B|-----------------------|
G|-2-2-2-2-2-2-2-2-2-----|
D|-2-2-2-2-2-2-2-2-2-----|
A|-0-0-0-0-0-0-0-0-0-----|
D|-----------------------|
     * * * * * * *







============================================================================
Song #2: Welcome to the Family
Tuning: Dropped D
Length: 4:07
============================================================================

INTRO:


Guitar 1
E|---------------------------------------------------------------------------------|
B|---------------------------------------------------------------------------------|
G|---------------------------------------------------------------------------------|
D|---------------------------------------------------------------------------------|
A|-0----0--0--0-------------0--0--0--------------0---0---0-0---0-------------------|
D|-0----0--0--0--3/8--7~----0--0--0--3/7--7~-----0---0---0-0---0-3h5p3-2h3p2-2h3p2-|
        *  *  *             *  *  *              *   *   * *   *




VERSE 1


Guitars 1+2
E|---------------------------------------------------------------------------------|
B|---------------------------------------------------------------------------------|
G|---------------------------------------------------------------------------------|
D|---------------------------------------------------------------------------------|
A|-0----0--0--0-------------0--0--0--------------0---0---0-0---0-------------------|
D|-0----0--0--0--3/8--7~----0--0--0--3/7--7~-----0---0---0-0---0-3h5p3-2h3p2-2h3p2-|
        *  *  *             *  *  *              *   *   * *   *

E|-------------------------------------------------------------------------|
B|-------------------------------------------------------------------------|
G|-------------------------------------------------------------------------|
D|-------------------------------------------------------------------------|
A|-0----0--0--0-------------0--0--0--------------0---0---0-0-3----2---/7---|
D|-0----0--0--0--3/8--7~----0--0--0--3/7--7~-----0---0---0-0-3----2---/7---|
        *  *  *             *  *  *              *   *   * *

Guitars 1+2
E|---------------------------------------------------------------------------------|
B|---------------------------------------------------------------------------------|
G|---------------------------------------------------------------------------------|
D|---------------------------------------------------------------------------------|
A|-0----0--0--0-------------0--0--0--------------0---0---0-0---0-------------------|
D|-0----0--0--0--3/8--7~----0--0--0--3/7--7~-----0---0---0-0---0-3h5p3-2h3p2-2h3p2-|
        *  *  *             *  *  *              *   *   * *

Guitars 1+2
E|-------------------------------------------------------------------------|
B|-------------------------------------------------------------------------|
G|-------------------------------------------------------------------------|
D|-------------------------------------------------------------------------|
A|-0----0--0--0-------------0--0--0--------------0---0---0-0-3----2---/7---|
D|-0----0--0--0--3/8--7~----0--0--0--3/7--7~-----0---0---0-0-3----2---/7---|
        *  *  *             *  *  *              *   *   * *

Pre-Chorus I

Guitar 1
E|----------------------------------------------------------------------|
B|----------------------------------------------------------------------|
G|----------------------------------------------------------------------|
D|-8---8----8-8---7---7-7---7-7-7---------------------------------------|
A|-8---8----8-8---7---7-7---7-7-7---------------------------------------|
D|-8---8----8-8---7---7-7---7-7-7-3-5-3-3-3-5-3-3-3-5-3h5p3-2h3p2-2h3p2-|
                                  * * * * * * * * * *                   |
                                                                        |
Guitar 2                                                                |
E|----------------------------------------------------------------------|
B|----------------------------------------------------------------------|
G|----------------------------------------------------------------------|
D|-8---8----8-8---7---7-7---7-7-7---------------------------------------|
A|-8---8----8-8---7---7-7---7-7-7---------------------------------------|
D|-8---8----8-8---7---7-7---7-7-7-7-8-7-6-7-8-7-6-7-8-3h5p3-2h3p2-2h3p2-|
                                  * * * * * * * * * *                   /
                                                      _________________/
Guitar 3                                             /
E|--------------------------------------------------|
B|--------------------------------------------------|
G|-7--7---7-7\6-6--/7-7--/9-9---7\------------------|
D|--------------------------------------------------|
A|-5--5---5-5\4-4--/5-5--/7-7---5\------------------|
D|--------------------------------------------------|


Guitar 1
E|----------------------------------------------------------------------|
B|----------------------------------------------------------------------|
G|----------------------------------------------------------------------|
D|-8---8----8-8---7---7-7---7-7-7---------------------------------------|
A|-8---8----8-8---7---7-7---7-7-7---------------------------------------|
D|-8---8----8-8---7---7-7---7-7-7-3-5-3-3-3-5-3-3-3-5-3h5p3-2h3p2-2h3p2-|
                                  * * * * * * * * * *                   |
                                                                        |
Guitar 2                                                                |
E|----------------------------------------------------------------------|
B|----------------------------------------------------------------------|
G|----------------------------------------------------------------------|
D|-8---8----8-8---7---7-7---7-7-7---------------------------------------|
A|-8---8----8-8---7---7-7---7-7-7---------------------------------------|
D|-8---8----8-8---7---7-7---7-7-7-7-8-7-6-7-8-7-6-7-8-3h5p3-2h3p2-2h3p2-|
                                  * * * * * * * * * *                   /
                                                       ________________/
Guitar 3                                              /
E|---------------------------------------------------|
B|---------------------------------------------------|
G|-7--7---7-7\6-6--/7-7--/9-9---10\------------------|
D|---------------------------------------------------|
A|-5--5---5-5\4-4--/5-5--/7-7----8\------------------|
D|---------------------------------------------------|

Guitars 1+2
E|-------------------------------------------------------------------------|
B|-------------------------------------------------------------------------|
G|-------------------------------------------------------------------------|
D|-8---8----8-8-8-8-8-8-8---8-8-\7-7---7-7-7-7-7-7-7---7-7-7-7-----5-----3-|
A|-8---8----8-8-8-8-8-8-8---8-8-\7-7---7-7-7-7-7-7-7---7-7-7-7-----5-----3-|
D|-8---8----8-8-8-8-8-8-8---8-8-\7-7---7-7-7-7-7-7-7---7-7-7-7-----5-----3-|
                                                                           |
Guitar 3                                                                   |
E|-------------------------------------------------------------------------|
B|-------------------------------------------------------------------------|
G|-7---7----7-7-7-7-7-7-7/9/1010\6-6---6-6-6-6-6-6-6---6-6-6-6-----------5-|
D|-------------------------------------------------------------------------|
A|-5---5----5-5-5-5-5-5-5/7/8-8-\4-4---4-4-4-4-4-4-4---4-4-4-4-----------3-|
D|-------------------------------------------------------------------------|


CHORUS I


Guitar 1
E|--------------------------------------------------------8-----------------|
B|---------------/11~---11--10-8------------8----------------------8--------|
G|-/7~---/7-9-10------------------10~---10-----10---9--10----9--10----9--10-|
D|--------------------------------------------------------------------------|
A|--------------------------------------------------------------------------|
D|--------------------------------------------------------------------------|
                                                                            |
Guitar 2                                                                    |
E|--------------------------------------------------------12-------12-------|
B|-/6~---/6-8-10-/15~---15--13-11-----------11------------------------------|
G|--------------------------------14~---14-----14---12-14----12-14----12-14-|
D|--------------------------------------------------------------------------|
A|--------------------------------------------------------------------------|
D|--------------------------------------------------------------------------|
                                                                           /
                                                                     _____/
Guitar 3                                                            /
E|-----------------------------------------------------------------|
B|-----------------------------------------------------------------|
G|-----------------------------------------------------------------|
D|-0---0---0-0-0/8---8-8---8-8-8-3---3-3---3-3-3-3-2-2-2-2-2-2-2-2-|
A|-0---0---0-0-0/8---8-8---8-8-8-3---3-3---3-3-3-3-3-3-3-3-3-3-3-3-|
D|-0---0---0-0-0/8---8-8---8-8-8-3---3-3---3-3-3-3-2-2-2-2-2-2-2-2-|




Guitar 1
E|---------------------------------------------------------9-----9--12-9-----10~---|
B|---------------/11~---11--10-8------------8-----------10----10----------10-------|
G|-7~---/7--9-10------------------10~---10-----10\---9-----------------------------|
D|---------------------------------------------------------------------------------|
A|---------------------------------------------------------------------------------|
D|---------------------------------------------------------------------------------|
                                                                                   |
Guitar 2                                                                           |
E|---------------------------------------------------------12----12-17-12----13~---|
B|------/10-8-10-/15~---15--13-11-----------11----------14----14----------14-------|
G|-10~----------------------------14~---14-----14\---14----------------------------|
D|---------------------------------------------------------------------------------|
A|---------------------------------------------------------------------------------|
D|---------------------------------------------------------------------------------|
                                                                             ______/
Guitar 3                                                                    /
E|-------------------------------------------------------------------------|
B|-------------------------------------------------------------------------|
G|-------------------------------------------------------------------------|
D|-0---0---0-0-0/8---8-8---8-8-8-3---3-3---3-3-3-3/11-11-11-11-11-11-11-11-|
A|-0---0---0-0-0/8---8-8---8-8-8-3---3-3---3-3-3-3/12-12-12-12-12-12-12-12-|
D|-0---0---0-0-0/8---8-8---8-8-8-3---3-3---3-3-3-3/11-11-11-11-11-11-11-11-|




Guitar 1
E|----------------------------------------------------------8-----------------|
B|-----------------/11~---11--10-8------------8-------------------8-----------|
G|-(7~\)---/7-9-10------------------10~---10-----10---9--10----10----10-9--10-|
D|----------------------------------------------------------------------------|
A|----------------------------------------------------------------------------|
D|----------------------------------------------------------------------------|
                                                                              |
Guitar 2                                                                      |
E|----------------------------------------------------------12-------12-------|
B|-(6~\)---/6-8-10-/15~---15--13-11-----------11------------------------------|
G|----------------------------------14~---14-----14---12-14----12-14----12-14-|
D|----------------------------------------------------------------------------|
A|----------------------------------------------------------------------------|
D|----------------------------------------------------------------------------|
                                                                     ________/
Guitar 3                                                            /
E|-----------------------------------------------------------------|
B|-----------------------------------------------------------------|
G|-----------------------------------------------------------------|
D|-0---0---0-0-0/8---8-8---8-8-8-3---3-3---3-3-3-3-2-2-2-2-2-2-2-2-|
A|-0---0---0-0-0/8---8-8---8-8-8-3---3-3---3-3-3-3-3-3-3-3-3-3-3-3-|
D|-0---0---0-0-0/8---8-8---8-8-8-3---3-3---3-3-3-3-2-2-2-2-2-2-2-2-|




Guitar 1
E|-----------------------------------17-12-------------------------13-18-17~---|
B|---------------/11~---11--10-8-----------14-------------------15-------------|
G|-7~---/7--9-10------------------10----------14-------------15----------------|
D|-----------------------------------------------14-------15-------------------|
A|--------------------------------------------------14-17----------------------|
D|-----------------------------------------------------------------------------|
                                                                               |
Guitar 2                                                                       |
E|-----------------------------------12-9--------------------------10-15-13~---|
B|------/10-8-10-/15~---15--13-11----------10-------------------11-------------|
G|-10~----------------------------14----------9--------------12----------------|
D|-----------------------------------------------11-------12-------------------|
A|--------------------------------------------------12-13----------------------|
D|-----------------------------------------------------------------------------|
                                                        ______________________/
Guitar 3                                               /
E|----------------------------------------------------|
B|----------------------------------------------------|
G|----------------------------------------------------|
D|-0---0---0-0-0/8---8-8---8-8-8-8-7----5----3--------|
A|-0---0---0-0-0/8---8-8---8-8-8-8-7----5----3--------|
D|-0---0---0-0-0/8---8-8---8-8-8-8-7----5----3--------|



VERSE II


Guitars 1+2
E|---------------------------------------------------------------------------------|
B|---------------------------------------------------------------------------------|
G|---------------------------------------------------------------------------------|
D|---------------------------------------------------------------------------------|
A|-0----0--0--0-------------0--0--0--------------0---0---0-0---0-------------------|
D|-0----0--0--0--3/8--7~----0--0--0--3/7--7~-----0---0---0-0---0-3h5p3-2h3p2-2h3p2-|
        *  *  *             *  *  *              *   *   * *   *


E|-------------------------------------------------------------------------|
B|-------------------------------------------------------------------------|
G|-------------------------------------------------------------------------|
D|-------------------------------------------------------------------------|
A|-0----0--0--0-------------0--0--0--------------0---0---0-0-3----2---/7---|
D|-0----0--0--0--3/8--7~----0--0--0--3/7--7~-----0---0---0-0-3----2---/7---|
        *  *  *             *  *  *              *   *   * *

Guitars 1+2
E|---------------------------------------------------------------------------------|
B|---------------------------------------------------------------------------------|
G|---------------------------------------------------------------------------------|
D|---------------------------------------------------------------------------------|
A|-0----0--0--0-------------0--0--0--------------0---0---0-0---0-------------------|
D|-0----0--0--0--3/8--7~----0--0--0--3/7--7~-----0---0---0-0---0-3h5p3-2h3p2-2h3p2-|
        *  *  *             *  *  *              *   *   * *   *


E|-------------------------------------------------------------------------|
B|-------------------------------------------------------------------------|
G|-------------------------------------------------------------------------|
D|-------------------------------------------------------------------------|
A|-0----0--0--0-------------0--0--0--------------0---0---0-0-3----2---/7---|
D|-0----0--0--0--3/8--7~----0--0--0--3/7--7~-----0---0---0-0-3----2---/7---|
        *  *  *             *  *  *              *   *   * *


Guitar 1
E|----------------------------------------------------------------------|
B|----------------------------------------------------------------------|
G|----------------------------------------------------------------------|
D|-8---8----8-8---7---7-7---7-7-7---------------------------------------|
A|-8---8----8-8---7---7-7---7-7-7---------------------------------------|
D|-8---8----8-8---7---7-7---7-7-7-3-5-3-3-3-5-3-3-3-5-3h5p3-2h3p2-2h3p2-|
                                  * * * * * * * * * *

Guitar 2
E|----------------------------------------------------------------------|
B|----------------------------------------------------------------------|
G|----------------------------------------------------------------------|
D|-8---8----8-8---7---7-7---7-7-7---------------------------------------|
A|-8---8----8-8---7---7-7---7-7-7---------------------------------------|
D|-8---8----8-8---7---7-7---7-7-7-7-8-7-6-7-8-7-6-7-8-3h5p3-2h3p2-2h3p2-|
                                  * * * * * * * * * *

Guitar 3
E|--------------------------------------------------|
B|--------------------------------------------------|
G|-7--7---7-7\6-6--/7-7--/9-9---7\------------------|
D|--------------------------------------------------|
A|-5--5---5-5\4-4--/5-5--/7-7---5\------------------|
D|--------------------------------------------------|




Guitar 1
E|----------------------------------------------------------------------|
B|----------------------------------------------------------------------|
G|----------------------------------------------------------------------|
D|-8---8----8-8---7---7-7---7-7-7---------------------------------------|
A|-8---8----8-8---7---7-7---7-7-7---------------------------------------|
D|-8---8----8-8---7---7-7---7-7-7-3-5-3-3-3-5-3-3-3-5-3h5p3-2h3p2-2h3p2-|
                                  * * * * * * * * * *

Guitar 2
E|----------------------------------------------------------------------|
B|----------------------------------------------------------------------|
G|----------------------------------------------------------------------|
D|-8---8----8-8---7---7-7---7-7-7---------------------------------------|
A|-8---8----8-8---7---7-7---7-7-7---------------------------------------|
D|-8---8----8-8---7---7-7---7-7-7-7-8-7-6-7-8-7-6-7-8-3h5p3-2h3p2-2h3p2-|
                                  * * * * * * * * * *

Guitar 3
E|---------------------------------------------------|
B|---------------------------------------------------|
G|-7--7---7-7\6-6--/7-7--/9-9---10\------------------|
D|---------------------------------------------------|
A|-5--5---5-5\4-4--/5-5--/7-7----8\------------------|
D|---------------------------------------------------|




Guitars 1 & 2
E|-------------------------------------------------------------------------|
B|-------------------------------------------------------------------------|
G|----------------^-----^-------------------^-----^------------------------|
D|-8---8----8-8-8-8-8-8-8---8-8\7-7---7-7-7-7-7-7-7---7-7-7-7-----5-----3--|
A|-8---8----8-8-8-8-8-8-8---8-8\7-7---7-7-7-7-7-7-7---7-7-7-7-----5-----3--|
D|-8---8----8-8-8-8-8-8-8---8-8\7-7---7-7-7-7-7-7-7---7-7-7-7-----5-----3--|

E|-------------------------------------------------------------------------|
B|--------------------------------------------------------------\----------|
G|-7--7----7-7-7-7-7-7-7/9--/10-10\-6--6---6-6-6-6---6-6---6-6-6-6--------5|
D|-------------------------------------------------------------------------|
A|-5--5----5-5-5-5-5-5-5/7---/8--8\-4--4---4-4-4-4---4-4---4-4-4-4--------3|
D|-------------------------------------------------------------------------|


CHORUS II


Guitar 1
E|--------------------------------------------------------8-----------------|
B|---------------/11~---11--10-8------------8----------------------8--------|
G|-/7~---/7-9-10------------------10~---10-----10---9--10----9--10----9--10-|
D|--------------------------------------------------------------------------|
A|--------------------------------------------------------------------------|
D|--------------------------------------------------------------------------|
                                                                            |
Guitar 2                                                                    |
E|--------------------------------------------------------12-------12-------|
B|-/6~---/6-8-10-/15~---15--13-11-----------11------------------------------|
G|--------------------------------14~---14-----14---12-14----12-14----12-14-|
D|--------------------------------------------------------------------------|
A|--------------------------------------------------------------------------|
D|--------------------------------------------------------------------------|
                                                                           /
                                                                     _____/
Guitar 3                                                            /
E|-----------------------------------------------------------------|
B|-----------------------------------------------------------------|
G|-----------------------------------------------------------------|
D|-0---0---0-0-0/8---8-8---8-8-8-3---3-3---3-3-3-3-2-2-2-2-2-2-2-2-|
A|-0---0---0-0-0/8---8-8---8-8-8-3---3-3---3-3-3-3-3-3-3-3-3-3-3-3-|
D|-0---0---0-0-0/8---8-8---8-8-8-3---3-3---3-3-3-3-2-2-2-2-2-2-2-2-|




Guitar 1
E|---------------------------------------------------------9-----9--12-9-----10~---|
B|---------------/11~---11--10-8------------8-----------10----10----------10-------|
G|-7~---/7--9-10------------------10~---10-----10\---9-----------------------------|
D|---------------------------------------------------------------------------------|
A|---------------------------------------------------------------------------------|
D|---------------------------------------------------------------------------------|
                                                                                   |
Guitar 2                                                                           |
E|---------------------------------------------------------12----12-17-12----13~---|
B|------/10-8-10-/15~---15--13-11-----------11----------14----14----------14-------|
G|-10~----------------------------14~---14-----14\---14----------------------------|
D|---------------------------------------------------------------------------------|
A|---------------------------------------------------------------------------------|
D|---------------------------------------------------------------------------------|
                                                                             ______/
Guitar 3                                                                    /
E|-------------------------------------------------------------------------|
B|-------------------------------------------------------------------------|
G|-------------------------------------------------------------------------|
D|-0---0---0-0-0/8---8-8---8-8-8-3---3-3---3-3-3-3/11-11-11-11-11-11-11-11-|
A|-0---0---0-0-0/8---8-8---8-8-8-3---3-3---3-3-3-3/12-12-12-12-12-12-12-12-|
D|-0---0---0-0-0/8---8-8---8-8-8-3---3-3---3-3-3-3/11-11-11-11-11-11-11-11-|




Guitar 1
E|----------------------------------------------------------8-----------------|
B|-----------------/11~---11--10-8------------8-------------------8-----------|
G|-(7~\)---/7-9-10------------------10~---10-----10---9--10----10----10-9--10-|
D|----------------------------------------------------------------------------|
A|----------------------------------------------------------------------------|
D|----------------------------------------------------------------------------|
                                                                              |
Guitar 2                                                                      |
E|----------------------------------------------------------12-------12-------|
B|-(6~\)---/6-8-10-/15~---15--13-11-----------11------------------------------|
G|----------------------------------14~---14-----14---12-14----12-14----12-14-|
D|----------------------------------------------------------------------------|
A|----------------------------------------------------------------------------|
D|----------------------------------------------------------------------------|
                                                                     ________/
Guitar 3                                                            /
E|-----------------------------------------------------------------|
B|-----------------------------------------------------------------|
G|-----------------------------------------------------------------|
D|-0---0---0-0-0/8---8-8---8-8-8-3---3-3---3-3-3-3-2-2-2-2-2-2-2-2-|
A|-0---0---0-0-0/8---8-8---8-8-8-3---3-3---3-3-3-3-3-3-3-3-3-3-3-3-|
D|-0---0---0-0-0/8---8-8---8-8-8-3---3-3---3-3-3-3-2-2-2-2-2-2-2-2-|




Guitar 1
E|-----------------------------------17-12-------------------------13-18-17~---|
B|---------------/11~---11--10-8-----------14-------------------15-------------|
G|-7~---/7--9-10------------------10----------14-------------15----------------|
D|-----------------------------------------------14-------15-------------------|
A|--------------------------------------------------14-17----------------------|
D|-----------------------------------------------------------------------------|
                                                                               |
Guitar 2                                                                       |
E|-----------------------------------12-9--------------------------10-15-13~---|
B|------/10-8-10-/15~---15--13-11----------10-------------------11-------------|
G|-10~----------------------------14----------9--------------12----------------|
D|-----------------------------------------------11-------12-------------------|
A|--------------------------------------------------12-13----------------------|
D|-----------------------------------------------------------------------------|
                                                        ______________________/
Guitar 3                                               /
E|----------------------------------------------------|
B|----------------------------------------------------|
G|----------------------------------------------------|
D|-0---0---0-0-0/8---8-8---8-8-8-8-7----5----3--------|
A|-0---0---0-0-0/8---8-8---8-8-8-8-7----5----3--------|
D|-0---0---0-0-0/8---8-8---8-8-8-8-7----5----3--------|



BREAKDOWN


Guitar 1
E|----------------------------------------------------|
B|-15----15-15----15-15--15-15----15-15---15\---------|
G|-17b------17b------17b----17b------17b--17b19\------|
D|----------------------------------------------------|
A|----------------------------------------------------|
D|----------------------------------------------------|


Guitar 2
E|-13----13-----13---13-13----13----13\----------|
B|-16b~~~~~~`~`~~~~`~---16b~~~~~~`~`~~\----------|
G|-----------------------------------------------|
D|-----------------------------------------------|
A|-----------------------------------------------|
D|-----------------------------------------------|


Guitar 3
E|------------------------------------------------|
B|------------------------------------------------|
G|------------------------------------------------|
D|------------------------------------------------|
A|------------------------------------------------|
D|00000--00000----00000--00000----00000----0000---|
  *****  *****    *****  *****    *****    ****


Guitar 1
E|----------------------------------------------------|
B|-15----15-15----15-15--15-15----15-15\--------------|
G|-17b------17b------17b----17b------17b19\-----------|
D|----------------------------------------------------|
A|----------------------------------------------------|
D|----------------------------------------------------|


Guitar 2
E|-13----13-------13-------13-----13-----|
B|-16b------16b------16b~~~~~~`~`~-------|
G|---------------------------------------|
D|---------------------------------------|
A|---------------------------------------|
D|---------------------------------------|


Guitar 3
E|--------------------------------------------------|
B|--------------------------------------------------|
G|--------------------------------------------------|
D|--------------------------------------------------|
A|--------------------------------------------------|
D|-00000--0-000----0000000088007700550033005500-----|
   *****  * ***    ****************************

SOLO (normally I’d line everything up but with the solo, it’s 
damn near impossible, so I separated each part with a line)


Guitar 1
E|--------------------------------------------------------|
B|--------------------------------------------------------|
G|--/7---7---7-7-7p6-6-6-6-7---9----/10~------------------|
D|--------------------------------------------------------|
A|--------------------------------------------------------|
D|--------------------------------------------------------|

Guitar 2
E|--------------------------------------------------------|
B|--/6---6---6-6-6p5-5-5-5-6---8----/10~------------------|
G|--------------------------------------------------------|
D|--------------------------------------------------------|
A|--------------------------------------------------------|
D|--------------------------------------------------------|

Guitar 3
E|-------------------------------------------------------------------|
B|-------------------------------------------------------------------|
G|-10--10--10--10\9-9---9-9---9-9-9----------------------------------|
D|--8---8---8---8\7-7---7-7---7-7-7----------------------------------|
A|--8---8---8---8\7-7---7-7---7-7-7-0-0-0-0-0-0-0-0-0-0--------------|
D|--8---8---8---8\7-7---7-7---7-7-7-0-0-0-0-0-0-0-0-0-0-333-222-111--|
                                    * * * * * * * * * * *** *** ***
Guitar 4
E|-15-13-------------16-15-13----------15-13-------|
B|-------15-13----13----------15-------------15-15-|
G|-------------15----------------14-14-------------|
D|-------------------------------------------------|
A|-------------------------------------------------|
D|-------------------------------------------------|
                                                    
E|-------------------------------------------------------|
B|-13----15-13-------------------------------------------|
G|----14-------14-13-------13-13-------------------------|
D|-------------------17-15-------17-15-------------------|
A|-------------------------------------17-17-15----17~---|
D|----------------------------------------------19-------|


Guitar 1
E|-------------------------------------------------------|
B|-------------------------------------------------------|
G|--/7---7---7-7-7p6-6-6-6-7---9-----7~------------------|
D|-------------------------------------------------------|
A|-------------------------------------------------------|
D|-------------------------------------------------------|

Guitar 2
E|-------------------------------------------------------|
B|--/6---6---6-6-6p5-5-5-5-6---8-----6~------------------|
G|-------------------------------------------------------|
D|-------------------------------------------------------|
A|-------------------------------------------------------|
D|-------------------------------------------------------|

Guitar 3
E|-------------------------------------------------------------------|
B|-------------------------------------------------------------------|
G|-10--10--10--10\9-9---9-9---9-9-9----------------------------------|
D|--8---8---8---8\7-7---7-7---7-7-7----------------------------------|
A|--8---8---8---8\7-7---7-7---7-7-7-0-0-0-0-0-0-0-0-0-0--------------|
D|--8---8---8---8\7-7---7-7---7-7-7-0-0-0-0-0-0-0-0-0-0-333-222-111--|
                                    * * * * * * * * * * *** *** ***
Guitar 4
E|--------------------------------------------------------------------------------------------|
B|-----------------------------------------------------------------------------12-13-13b15~---|
G|-13-12-10----------12-10-------13-12-10-------13-12-10-------13-12-10-12/13-----------------|
D|----------12-10-12-------12-10----------12-10----------12-10--------------------------------|
A|--------------------------------------------------------------------------------------------|
D|--------------------------------------------------------------------------------------------|


Guitar 1
E|---------------------------------------------------------|
B|---------------------------------------------------------|
G|--/7---7---7-7-7p6-6-6-6/14---12'''\-10~-----------------|
D|---------------------------------------------------------|
A|---------------------------------------------------------|
D|---------------------------------------------------------|

Guitar 2
E|---------------------------------------------------------|
B|--/6---6---6-6-6p5-5-5-5/13---11-----10~-----------------|
G|---------------------------------------------------------|
D|---------------------------------------------------------|
A|---------------------------------------------------------|
D|---------------------------------------------------------|

Guitar 3
E|-------------------------------------------------------------------|
B|-------------------------------------------------------------------|
G|-10--10--10--10\9-9---9-9---9-9-9----------------------------------|
D|--8---8---8---8\7-7---7-7---7-7-7----------------------------------|
A|--8---8---8---8\7-7---7-7---7-7-7-0-0-0-0-0-0-0-0-0-0--------------|
D|--8---8---8---8\7-7---7-7---7-7-7-0-0-0-0-0-0-0-0-0-0-333-222-111--|
                                    * * * * * * * * * * *** *** ***
Guitar 4
E|-15h16p15-13----13-16-13/15\13/15-20-18-17-15\13----13-|
B|-------------15----------------------------------15----|
G|-------------------------------------------------------|
D|-------------------------------------------------------|
A|-------------------------------------------------------|
D|-------------------------------------------------------|

E|-17-14-15-13/15-15-20-17-15\13-------------------------13-------------|
B|-------------------------------15-------------------15----15----------|
G|----------------------------------14-17-------14-17----------14-------|
D|----------------------------------------15----------------------15~---|
A|-------------------------------------------15-------------------------|
D|----------------------------------------------------------------------|


Guitar 1
E|--------------------------------------------------------------------|
B|----------------------------------\3h5-/6====/10====/15==/17-/18==\-|
G|--/7---7---7-7-7p6-6-6-6-7---9--------------------------------------|
D|--------------------------------------------------------------------|
A|--------------------------------------------------------------------|
D|--------------------------------------------------------------------|

Guitar 2
E|---------------------------------------------------------------------|
B|--/6---6---6-6-6p5-5-5-5-6---8-----5/10--10====/15====/18--/20--22---|
G|---------------------------------------------------------------------|
D|---------------------------------------------------------------------|
A|---------------------------------------------------------------------|
D|---------------------------------------------------------------------|

Guitar 3
E|-------------------------------------------------------------------|
B|-------------------------------------------------------------------|
G|-10--10--10--10\9-9---9-9---9-9-9----------------------------------|
D|--8---8---8---8\7-7---7-7---7-7-7----------------------------------|
A|--8---8---8---8\7-7---7-7---7-7-7-0-0-0-0-0-0-0-0-0-0--------------|
D|--8---8---8---8\7-7---7-7---7-7-7-0-0-0-0-0-0-0-0-0-0-333-222-111--|
                                    * * * * * * * * * * *** *** ***
Guitar 4
E|------------------------------------------------|
B|------------------------------------------------|
G|-------------------12---------------14-12-------|
D|-15-14-12-15----------15-14-12------------15-14-|
A|-------------------------------13---------------|
D|-------------12-12----------------12------------|

E|-------------------------------------------------------------|
B|-------------------------------------------------------------|
G|----------12-14-12-------------------------13----13-17b19~---|
D|-12-14-15----------15-14-12----------12-15----15-------------|
A|----------------------------15-14/15-------------------------|
D|-------------------------------------------------------------|


Guitar 1
E|-----------12-13-12~---13--12--10-9----10--12-9~----9==b10~---------|
B|-13b15~-------------------------------------------------------------|
G|--------------------------------------------------------------------|
D|--------------------------------------------------------------------|
A|--------------------------------------------------------------------|
D|--------------------------------------------------------------------|

Guitar 2
E|------------------------------------------------------------------|
B|-18~----20-22-20~---22--20--18-17----18--20-17~~~~~~~b18~---------|
G|------------------------------------------------------------------|
D|------------------------------------------------------------------|
A|------------------------------------------------------------------|
D|------------------------------------------------------------------|

Guitar 3
E|--------------------------------------------------------------------------|
B|--------------------------------------------------------------------------|
G|-10----10---10-10----10---10-10---10----9----9---9-9----9---9-9---9---9---|
D|--8-----8----8--8-----8----8--8----8----7----7---7-7----7---7-7---7---7---|
A|--8-----8----8--8-----8----8--8----8----7----7---7-7----7---7-7---7---7---|
D|--8-----8----8--8-----8----8--8----8----7----7---7-7----7---7-7---7---7---|

E|----------------------------------------------------------------|
B|----------------------------------------------------------------|
G|-10----10---10-10----10---10-10---10----------------------------|
D|--8-----8----8--8-----8----8--8----8----------------------------|
A|--8-----8----8--8-----8----8--8----8----7-----5-----3-----3-----|
D|--8-----8----8--8-----8----8--8----8----7-----5-----3-----2-----|

Guitar 4
E|-------------------------------------/18-17-13-------------------------------------------|
B|-----------------------------------------------15----------------------------------------|
G|--------------------------------------------------15-14-15-14-------------------15-------|
D|--------------------------------------------------------------15-------------15-------14\|
A|-----------------------------------------------------------------15-13-15-17-------17----|
D|-----------------------------------------------------------------------------------------|


E|-------------------------------------13-17p13-14-------------------------17-18-20b22-----|
B|----------------------17-18-------15-------------------------15/17-18-20-----------------|
G|-14-15-17-15-14----15-------17-15----------------15-14-15-17-----------------------------|
D|----------------17-----------------------------------------------------------------------|
A|-----------------------------------------------------------------------------------------|
D|-----------------------------------------------------------------------------------------|



BRIDGE


Guitar 1
E|------------------------------------------------------------------------/18--17----------------|
B|---------------------------------------------------------------------------------13--13/15-----|
G|-----------------------------------------------------------------------------------------------|
D|-----------------------------------------------------------------------------------------------|
A|-----------------------------------------------------------------------------------------------|
D|-----------------------------------------------------------------------------------------------|

Guitar 2
E|-----------------------------------------------------------------------------------------------|
B|-----------------------------------------------------------------------------------------------|
G|-----------------------------------------------------------------------------------------------|
D|-0---0-0-0-0-0---0-0-0-0-2---2-2-2-2-2---2-2-2-2-3---3-3-3-3-3---3-3-3-3/8---8-8-8-8-8--8-8-8-8|
A|-0---0-0-0-0-0---0-0-0-0-3---3-3-3-3-3---3-3-3-3-3---3-3-3-3-3---3-3-3-3/8---8-8-8-8-8--8-8-8-8|
D|-0---0-0-0-0-0---0-0-0-0-2---2-2-2-2-2---2-2-2-2-3---3-3-3-3-3---3-3-3-3/8---8-8-8-8-8--8-8-8-8|


 
Guitar 1+2
E|-----------------------------------------------------------|
B|-----------------------------------------------------------|
G|-----------------------------------------------------------|
D|-8---8-8-8-8-8---8-8-8-8-10---10-10-10-10-10---10-10-10-10-|
A|-8---8-8-8-8-8---8-8-8-8-10---10-10-10-10-10---10-10-10-10-|
D|-8---8-8-8-8-8---8-8-8-8-10---10-10-10-10-10---10-10-10-10-|




Guitar 1                                                      
E|-----------------------------------/18--17------------------|
B|--------------------------------------------13--13/15-------|
G|------------------------------------------------------------|
D|------------------------------------------------------------|
A|------------------------------------------------------------|
D|------------------------------------------------------------|

Guitar 2
E|------------------------------------------------|
B|------------------------------------------------|
G|------------------------------------------------|
D|-3---3-3-3-3-3--3-3-3-3/8---8-8-8-8-8---8-8-8-8-|
A|-3---3-3-3-3-3--3-3-3-3/8---8-8-8-8-8---8-8-8-8-|
D|-3---3-3-3-3-3--3-3-3-3/8---8-8-8-8-8---8-8-8-8-|



Guitar 1+2
E|-----------------------------------------------------------|
B|-----------------------------------------------------------|
G|-----------------------------------------------------------|
D|-8---8-8-8-8-8---8-8-8-8-10---10-10-10-10-10---10-10-10-10-|
A|-8---8-8-8-8-8---8-8-8-8-10---10-10-10-10-10---10-10-10-10-|
D|-8---8-8-8-8-8---8-8-8-8-10---10-10-10-10-10---10-10-10-10-|



Guitar 1                                                      
E|-----------------------------------/18--17------------------|
B|--------------------------------------------13--13/15-------|
G|------------------------------------------------------------|
D|------------------------------------------------------------|
A|------------------------------------------------------------|
D|------------------------------------------------------------|

Guitar 2
E|------------------------------------------------|
B|------------------------------------------------|
G|------------------------------------------------|
D|-3---3-3-3-3-3--3-3-3-3/8---8-8-8-8-8---8-8-8-8-|
A|-3---3-3-3-3-3--3-3-3-3/8---8-8-8-8-8---8-8-8-8-|
D|-3---3-3-3-3-3--3-3-3-3/8---8-8-8-8-8---8-8-8-8-|



Guitar 2
E|-----------------------------------------------------------|
B|-----------------------------------------------------------|
G|-----------------------------------------------------------|
D|-8---8-8-8-8-8---8-8-8-8-10---10-10-10-10-10---10-10-10-10-|
A|-8---8-8-8-8-8---8-8-8-8-10---10-10-10-10-10---10-10-10-10-|
D|-8---8-8-8-8-8---8-8-8-8-10---10-10-10-10-10---10-10-10-10-|


Guitars 1+2
E|------------------------------------------------------|
B|------------------------------------------------------|
G|------------------------------------------------------|
D|-3---3-3-3-3-2---2-2-2-2-0---0-0-0-0/10---10-10-10-10-|
A|-3---3-3-3-3-3---3-3-3-3-0---0-0-0-0/10---10-10-10-10-|
D|-3---3-3-3-3-2---2-2-2-2-0---0-0-0-0/10---10-10-10-10-|



E|---------------------------------------------------------------------------------------|
B|---------------------------------------------------------------------------------------|
G|---------------------------------------------------------------------------------------|
D|---------------------------------------------------------------------------------------|
A|-------8----------8----------8----------8----------------------7--7--7--7--7--7--7-----|
D|-8--8--8----8--8--8----8--8--8----8--8--8----7--7--7--7--7--7--7--7--7--7--7--7--7-----|
   *  *       *  *       *  *       *  *       *  *  *  *  *  *


CHORUS


Guitar 1
E|--------------------------------------------------------8-----------------|
B|---------------/11~---11--10-8------------8----------------------8--------|
G|-/7~---/7-9-10------------------10~---10-----10---9--10----9--10----9--10-|
D|--------------------------------------------------------------------------|
A|--------------------------------------------------------------------------|
D|--------------------------------------------------------------------------|
                                                                            |
Guitar 2                                                                    |
E|--------------------------------------------------------12-------12-------|
B|-/6~---/6-8-10-/15~---15--13-11-----------11------------------------------|
G|--------------------------------14~---14-----14---12-14----12-14----12-14-|
D|--------------------------------------------------------------------------|
A|--------------------------------------------------------------------------|
D|--------------------------------------------------------------------------|
                                                                           /
                                                                     _____/
Guitar 3                                                            /
E|-----------------------------------------------------------------|
B|-----------------------------------------------------------------|
G|-----------------------------------------------------------------|
D|-0---0---0-0-0/8---8-8---8-8-8-3---3-3---3-3-3-3-2-2-2-2-2-2-2-2-|
A|-0---0---0-0-0/8---8-8---8-8-8-3---3-3---3-3-3-3-3-3-3-3-3-3-3-3-|
D|-0---0---0-0-0/8---8-8---8-8-8-3---3-3---3-3-3-3-2-2-2-2-2-2-2-2-|




Guitar 1
E|---------------------------------------------------------9-----9--12-9-----10~---|
B|---------------/11~---11--10-8------------8-----------10----10----------10-------|
G|-7~---/7--9-10------------------10~---10-----10\---9-----------------------------|
D|---------------------------------------------------------------------------------|
A|---------------------------------------------------------------------------------|
D|---------------------------------------------------------------------------------|
                                                                                   |
Guitar 2                                                                           |
E|---------------------------------------------------------12----12-17-12----13~---|
B|------/10-8-10-/15~---15--13-11-----------11----------14----14----------14-------|
G|-10~----------------------------14~---14-----14\---14----------------------------|
D|---------------------------------------------------------------------------------|
A|---------------------------------------------------------------------------------|
D|---------------------------------------------------------------------------------|
                                                                             ______/
Guitar 3                                                                    /
E|-------------------------------------------------------------------------|
B|-------------------------------------------------------------------------|
G|-------------------------------------------------------------------------|
D|-0---0---0-0-0/8---8-8---8-8-8-3---3-3---3-3-3-3/11-11-11-11-11-11-11-11-|
A|-0---0---0-0-0/8---8-8---8-8-8-3---3-3---3-3-3-3/12-12-12-12-12-12-12-12-|
D|-0---0---0-0-0/8---8-8---8-8-8-3---3-3---3-3-3-3/11-11-11-11-11-11-11-11-|




Guitar 1
E|----------------------------------------------------------8-----------------|
B|-----------------/11~---11--10-8------------8-------------------8-----------|
G|-(7~\)---/7-9-10------------------10~---10-----10---9--10----10----10-9--10-|
D|----------------------------------------------------------------------------|
A|----------------------------------------------------------------------------|
D|----------------------------------------------------------------------------|
                                                                              |
Guitar 2                                                                      |
E|----------------------------------------------------------12-------12-------|
B|-(6~\)---/6-8-10-/15~---15--13-11-----------11------------------------------|
G|----------------------------------14~---14-----14---12-14----12-14----12-14-|
D|----------------------------------------------------------------------------|
A|----------------------------------------------------------------------------|
D|----------------------------------------------------------------------------|
                                                                     ________/
Guitar 3                                                            /
E|-----------------------------------------------------------------|
B|-----------------------------------------------------------------|
G|-----------------------------------------------------------------|
D|-0---0---0-0-0/8---8-8---8-8-8-3---3-3---3-3-3-3-2-2-2-2-2-2-2-2-|
A|-0---0---0-0-0/8---8-8---8-8-8-3---3-3---3-3-3-3-3-3-3-3-3-3-3-3-|
D|-0---0---0-0-0/8---8-8---8-8-8-3---3-3---3-3-3-3-2-2-2-2-2-2-2-2-|


Guitar 1
E|----------------------12-9--------------15-10-------------13-10-------------12-8--------------|
B|----------/11~--------------10----------------11----------------10----------------8-----------|
G|-\7~----7----------------------9-----9-----------12----12----------10----12----------9-----9--|
D|-----10---------------------------11----------------12----------------12----------------10----|
A|----------------------------------------------------------------------------------------------|
D|----------------------------------------------------------------------------------------------|
                                                                                                |
Guitar 2                                                                                        |
E|----------/10~--------17-12-------------18-13-------------17-13-------------15-12-------------|
B|-6~-----6-------------------14----------------15----------------15----------------13----------|
G|-----9-------------------------14----14----------15----15----------14----14----------12----12-|
D|----------------------------------14----------------15----------------15----------------14----|
A|----------------------------------------------------------------------------------------------|
D|----------------------------------------------------------------------------------------------|
                                                      _________________________________________/
Guitar 3                                             /
E|--------------------------------------------------|
B|--------------------------------------------------|
G|--------------------------------------------------|
D|-8----8---8-8----8--------------------------------|
A|-8----8---8-8----8----7------5------3------3------|
D|-8----8---8-8----8----7------5------3------2------|




OUTRO


Guitar 1   repeat until it stops
E|----------------------------------------------------------------|
B|-15------15-15------15-15------15-15------15-15------15-15------|
G|-17b19------17b19------17b19------17b19------17b19------17b19---|
D|----------------------------------------------------------------|
A|----------------------------------------------------------------|
D|----------------------------------------------------------------|


Guitar 2  repeat until it stops
E|----------------------------------------------------------------|
B|-18------18-18------18-18------18-18------18-18------18-18------|
G|-20b22------20b22------20b22------20b22------20b22------20b22---|
D|----------------------------------------------------------------|
A|----------------------------------------------------------------|
D|----------------------------------------------------------------|



Guitar 3
E|----------------------------------------------------|
B|----------------------------------------------------|
G|----------------------------------------------------|
D|----------------------------------------------------|
A|---------------------------------------------1/-6---|
D|00000--00000----00000--00000----00000----00001/-6---|
  *****  *****    *****  *****    *****    ****
                  
Guitar 3
E|----------------------------------------------------|
B|----------------------------------------------------|
G|----------------------------------------------------|
D|----------------------------------------------------|
A|---------------------------------------------1/-6---|
D|00000--00000----00000--00000----00000----00001/-6---|
  *****  *****    *****  *****    *****    ****
Guitar 3
E|----------------------------------------------------|
B|----------------------------------------------------|
G|----------------------------------------------------|
D|----------------------------------------------------|
A|---------------------------------------------1/-6---|
D|00000--00000----00000--00000----00000----00001/-6---|
  *****  *****    *****  *****    *****    ****
 
Guitar 3
E|----------------------------------------------------|
B|----------------------------------------------------|
G|----------------------------------------------------|
D|----------------------------------------------------|
A|---------------------------------------------1/-6---|
D|00000--00000----00000--00000----00000----00001/-6---|
  *****  *****    *****  *****    *****    ****




============================================================================
Song #3: Danger Line
Tuning: Dropped D
Length: 5:30
============================================================================

INTRO

Guitar 3
E|-------------------------------------------------|
B|-------------------------------------------------|
G|-------------------------------------------------|
D|-------------------------------------------------|
A|-0-----0-0-0-0-----0-0-0-0-----0-0-0-0-----0-----|
D|-0-----0-0-0-0-----0-0-0-0-----0-0-0-0-----0-----|
   *     * * * *     * * * *     * * * *     *

Guitar 3
E|-------------------------------------------------|
B|-------------------------------------------------|
G|-------------------------------------------------|
D|-------------------------------------------------|
A|-0-----0-0-0-0-----0-0-0-0-----0-----0-----0000--|
D|-0-----0-0-0-0-----0-0-0-0-----0-----0-----0000--|
   *     * * * *     * * * *     *     *     ****

Guitar 3
E|-------------------------------------------------|
B|-------------------------------------------------|
G|-------------------------------------------------|
D|-------------------------------------------------|
A|-0-----0-0-0-0-----0-0-0-0-----0-----0-----0-0-0-|
D|-0-----0-0-0-0-----0-0-0-0-----0-----0-----0-0-0-|
   *     * * * *     * * * *     *     *     * * *

Guitar 3
E|-------------------------------------------------|
B|-------------------------------------------------|
G|-------------------------------------------------|
D|-------------------------------------------------|
A|-0-----0-0-0-0-----0-0-0-0-----0-----0-----0000--|
D|-0-----0-0-0-0-----0-0-0-0-----0-----0-----0000--|
   *     * * * *     * * * *     *     *     ****

Guitar 1
E|--------13-13-13-13-----12-12-12-12-----10-----12-----13-----|
B|-------------------------------------------------------------|
G|-------------------------------------------------------------|
D|-------------------------------------------------------------|
A|-------------------------------------------------------------|
D|-------------------------------------------------------------|
                                                               |
Guitar 2                                                       |
E|-------------------------------------------------------------|
B|--------10-10-10-10-----8--8--8--8------6------8------10-----|
G|-------------------------------------------------------------|
D|-------------------------------------------------------------|
A|-------------------------------------------------------------|
D|-------------------------------------------------------------|
                                                    ___________/
Guitar 3                                           /
E|-------------------------------------------------|
B|-------------------------------------------------|
G|-------------------------------------------------|
D|-------------------------------------------------|
A|-0-----0-0-0-0-----0-0-0-0-----0-----0-----0-----|
D|-0-----0-0-0-0-----0-0-0-0-----0-----0-----0-----|
   *     * * * *     * * * *     *     *     *


Guitar 1
E|--------13-13-13-13-----12-12-12-12-----10-----12-----13-----|
B|-------------------------------------------------------------|
G|-------------------------------------------------------------|
D|-------------------------------------------------------------|
A|-------------------------------------------------------------|
D|-------------------------------------------------------------|
                                                               |
Guitar 2                                                       |
E|-------------------------------------------------------------|
B|--------10-10-10-10-----8--8--8--8------6------8------10-----|
G|-------------------------------------------------------------|
D|-------------------------------------------------------------|
A|-------------------------------------------------------------|
D|-------------------------------------------------------------|
                                                    ___________/
Guitar 3                                           /
E|-------------------------------------------------|
B|-------------------------------------------------|
G|-------------------------------------------------|
D|-------------------------------------------------|
A|-0-----0-0-0-0-----0-0-0-0-----0-----0-----0000--|
D|-0-----0-0-0-0-----0-0-0-0-----0-----0-----0000--|
   *     * * * *     * * * *     *     *     ****

Guitar 1
E|/15-----18-18-18-18-----17-17-17-17-----15-----17-----18-----|
B|-------------------------------------------------------------|
G|-------------------------------------------------------------|
D|-------------------------------------------------------------|
A|-------------------------------------------------------------|
D|-------------------------------------------------------------|
                                                               |
Guitar 2                                                       |
E|/6------10-10-10-10-----8--8--8--8------6------8------10-----|
B|-------------------------------------------------------------|
G|-------------------------------------------------------------|
D|-------------------------------------------------------------|
A|-------------------------------------------------------------|
D|-------------------------------------------------------------|
                                                    ___________/
Guitar 3                                           /
E|-------------------------------------------------|
B|-------------------------------------------------|
G|-------------------------------------------------|
D|-------------------------------------------------|
A|-0-----0-0-0-0-----0-0-0-0-----0-----0-----0-0-0-|
D|-0-----0-0-0-0-----0-0-0-0-----0-----0-----0-0-0-|
   *     * * * *     * * * *     *     *     * * *

Guitar 1
E|-18-----18-18-18-18-----15-----20-----18-----17-15-13----------|
B|------------------------------------------------------17-15-13-|
G|---------------------------------------------------------------|
D|---------------------------------------------------------------|
A|---------------------------------------------------------------|
D|---------------------------------------------------------------|
                                                                 |
Guitar 2                                                         |
E|-10-----10-10-10-10-----6------17-----15-----13-12-10----------|
B|------------------------------------------------------13-11-10-|
G|---------------------------------------------------------------|
D|---------------------------------------------------------------|
A|---------------------------------------------------------------|
D|---------------------------------------------------------------|
                                                     ____________/
Guitar 3                                            /
E|-------------------------------------------------|
B|-------------------------------------------------|
G|-------------------------------------------------|
D|-------------------------------------------------|
A|-0-----0-0-0-0-----0-0-0-0-----------------------|
D|-0-----0-0-0-0-----0-0-0-0-----------------------|
   *     * * * *     * * * *

Guitar 1
E|---------------------------------------------------------14--15~----|
B|-/15~-----10/18--17--15-------------------10/17------17-------------|
G|-------------------------14h15p14-13~------------14-----------------|
D|--------------------------------------------------------------------|
A|--------------------------------------------------------------------|
D|--------------------------------------------------------------------|
                                                                      |
Guitar 2                                                              |
E|--------------------------------------------------------------------|
B|--------------------------------------------------------------------|
G|-/10~---------------------------------------------------------------|
D|--------------------------------------------------------------------|
A|--------------------------------------------------------------------|
D|--------------------------------------------------------------------|
                                                                      |
Guitar 3                                                              |
E|--------------------------------------------------------------------|
B|--------------------------------------------------------------------|
G|--------------------------------------------------------------------|
D|-0---0---0---0---0---0---0---0---6---6---6---6---6---6---6---6------|
A|-0---0---0---0---0---0---0---0---5---5---5---5---5---5---5---5------|
D|-0---0---0---0---0---0---0---0---6---6---6---6---6---6---6---6------|



Guitar 1
E|-----------------------------------------------------------------|
B|-10/23--22--20--15--15b~-----------------16-18b20~---------------|
G|--------------------------------14-15-17-------------------------|
D|--------------------------15-16----------------------------------|
A|-----------------------------------------------------------------|
D|-----------------------------------------------------------------|
                                                                   |
Guitar 2                                                           |
E|-----------------------------------------------------------------|
B|-----------------------------------------------------------------|
G|-----------------------------------------------------------------|
D|-5---5---5---5---5---5---5---5---1---1---1---1---1---1---1---1---|
A|-5---5---5---5---5---5---5---5---1---1---1---1---1---1---1---1---|
D|-5---5---5---5---5---5---5---5---1---1---1---1---1---1---1---1---|



Guitar 1
E|-10-----13-13-13-13-----12-12-12-12-----10-----12-----13------|
B|--------------------------------------------------------------|
G|--------------------------------------------------------------|
D|--------------------------------------------------------------|
A|--------------------------------------------------------------|
D|--------------------------------------------------------------|
                                                                |
Guitar 2                                                        |
E|-13-----17-17-17-17-----15-15-15-15-----13-----15-----17------|
B|--------------------------------------------------------------|
G|--------------------------------------------------------------|
D|--------------------------------------------------------------|
A|--------------------------------------------------------------|
D|--------------------------------------------------------------|
                                    ____________________________/
Guitar 3                           /
E|---------------------------------|
B|---------------------------------|
G|---------------------------------|
D|-0---0---0---0---0---0---0---0---|
A|-0---0---0---0---0---0---0---0---|
D|-0---0---0---0---0---0---0---0---|
                                   \_______________________________________
Guitar 4                                                                   \
E|-13p10----13p10----13p10----13p10----17p13----17p13----17p13----17p13----|
B|-------10-------10-------10-------10-------15-------15-------15-------15-|
G|-------------------------------------------------------------------------|
D|-------------------------------------------------------------------------|
A|-------------------------------------------------------------------------|
D|-------------------------------------------------------------------------|
                                                                           |
Guitar 5                                                                   |
E|-17p13----17p13----17p13----17p13----22p17----22p17----22p17----22p17----|
B|-------15-------15-------15-------15-------18-------18-------18-------18-|
G|-------------------------------------------------------------------------|
D|-------------------------------------------------------------------------|
A|-------------------------------------------------------------------------|
D|-------------------------------------------------------------------------|



Guitar 1
E|-12-----16-16-16-16-----12-12-12-12------------12-----16-----|
B|----------------------------------------12-------------------|
G|-------------------------------------------------------------|
D|-------------------------------------------------------------|
A|-------------------------------------------------------------|
D|-------------------------------------------------------------|
                                                               |
Guitar 2                                                       |
E|-16-----19-19-19-19-----16-16-16-16------------16-----19-----|
B|----------------------------------------17-------------------|
G|-------------------------------------------------------------|
D|-------------------------------------------------------------|
A|-------------------------------------------------------------|
D|-------------------------------------------------------------|
                                    ___________________________/
Guitar 3                           /
E|---------------------------------|
B|---------------------------------|
G|---------------------------------|
D|-6---6---6---6---6---6---6---6---|
A|-5---5---5---5---5---5---5---5---|
D|-6---6---6---6---6---6---6---6---|
                                   \_______________________________________
Guitar 4                                                                   \
E|-16p12----16p12----16p12----16p12----19p16----19p16----19p16----19p16----|
B|-------12-------12-------12-------12-------17-------17-------17-------17-|
G|-------------------------------------------------------------------------|
D|-------------------------------------------------------------------------|
A|-------------------------------------------------------------------------|
D|-------------------------------------------------------------------------|
                                                                           |
Guitar 5                                                                   |
E|-19p16----19p16----19p16----19p16----24p19----24p19----24p19----24p19----|
B|-------17-------17-------17-------17-------21-------21-------21-------21-|
G|-------------------------------------------------------------------------|
D|-------------------------------------------------------------------------|
A|-------------------------------------------------------------------------|
D|-------------------------------------------------------------------------|



Guitar 1
E|-15-----18-18-18-18-----17-17-17-17-----15-----17-----18-----|
B|-------------------------------------------------------------|
G|-------------------------------------------------------------|
D|-------------------------------------------------------------|
A|-------------------------------------------------------------|
D|-------------------------------------------------------------|
                                                               |
Guitar 2                                                       |
E|-18-----22-22-22-22-----20-20-20-20-----18-----20-----22-----|
B|-------------------------------------------------------------|
G|-------------------------------------------------------------|
D|-------------------------------------------------------------|
A|-------------------------------------------------------------|
D|-------------------------------------------------------------|
                                    ___________________________/
Guitar 3                           /
E|---------------------------------|
B|---------------------------------|
G|---------------------------------|
D|-5---5---5---5---5---5---5---5---|
A|-5---5---5---5---5---5---5---5---|
D|-5---5---5---5---5---5---5---5---|
                                   \_______________________________________
Guitar 4                                                                   \
E|-18p15----18p15----18p15----18p15----22p18----22p18----22p18----22p18----|
B|-------15-------15-------15-------15-------20-------20-------20-------20-|
G|-------------------------------------------------------------------------|
D|-------------------------------------------------------------------------|
A|-------------------------------------------------------------------------|
D|-------------------------------------------------------------------------|
                                                                           |
Guitar 5                                                                   |
E|-22p18----22p18----22p18----22p18----15p11----15p11----15p11----15p11----|
B|-------20-------20-------20-------20-------11-------11-------11-------11-|
G|-------------------------------------------------------------------------|
D|-------------------------------------------------------------------------|
A|-------------------------------------------------------------------------|
D|-------------------------------------------------------------------------|



Guitar 1
E|-15-----15-----17-----18-----12-----12-----13-----15-----|
B|---------------------------------------------------------|
G|---------------------------------------------------------|
D|---------------------------------------------------------|
A|---------------------------------------------------------|
D|---------------------------------------------------------|
                                                           |
Guitar 2                                                   |
E|-18-----18-----20-----22-----15-----15-----17-----18-----|
B|---------------------------------------------------------|
G|---------------------------------------------------------|
D|---------------------------------------------------------|
A|---------------------------------------------------------|
D|---------------------------------------------------------|
                                    _______________________/
Guitar 3                           /
E|---------------------------------|
B|---------------------------------|
G|---------------------------------|
D|-1---1---1---1---1---1---1---1---|
A|-1---1---1---1---1---1---1---1---|
D|-1---1---1---1---1---1---1---1---|
                                   \_______________________________________
Guitar 4                                                                   \
E|-15p11----15p11----15p11----15p11----18p15----18p15----18p15----18p15----|
B|-------11-------11-------11-------11-------16-------16-------16-------16-|
G|-------------------------------------------------------------------------|
D|-------------------------------------------------------------------------|
A|-------------------------------------------------------------------------|
D|-------------------------------------------------------------------------|
                                                                           |
Guitar 5                                                                   |
E|-18p15----18p15----18p15----18p15----23p18----23p18----23p18----23p18----|
B|-------16-------16-------16-------16-------20-------20-------20-------20-|
G|-------------------------------------------------------------------------|
D|-------------------------------------------------------------------------|
A|-------------------------------------------------------------------------|
D|-------------------------------------------------------------------------|


VERSE 1

Guitar 1
E|-------------------------------------|
B|-------------------------------------|
G|-------------------------------------|
D|-------------------------------------|
A|-/5---5-/3---3-----------------------|
D|---------------6---6-5---5-3---5-----|


Guitars 1+2
E|-----------------------------------------------------------------------------|
B|-----------------------------------------------------------------------------|
G|-----------------------------------------------------------------------------|
D|-----------------------------------------------------------------------------|
A|-----------------------------------------------------------------------------|
D|-0-----0----0-0-0---0-----0----0-0-0---0-----0----0-0-0---0-----0----0-0-0---|
   *     *    * * *   *     *    * * *   *     *    * * *   *     *    * * *


E|-----------------------------------------------------------------------------|
B|-----------------------------------------------------------------------------|
G|-----------------------------------------------------------------------------|
D|-----------------------------------------------------------------------------|
A|-----------------------------------------------------------------------------|
D|-5-----5----5-5-5---5-----5----5-5-5---5-----5----5-5-5---5-----5----5-5-5---|
   *     *    * * *   *     *    * * *   *     *    * * *   *     *    * * *


E|-------------------------------------------------------------|
B|-------------------------------------------------------------|
G|-------------------------------------------------------------|
D|-------------------------------------------------------------|
A|-------------------------------------------------------------|
D|-0---0---3---0-----0-0-0-0-0-0-0---0---3---0-----0-0-0-0-0-0-|
   *   *   *   *     * * * * * * *   *   *   *     * * * * * *


E|---------------------------------------------------------------|
B|---------------------------------------------------------------|
G|---------------------------------------------------------------|
D|---------------------------------------------------------------|
A|---------------------------------------------------------------|
D|-0---0---3---0-----0-0-0-0-0-0-0---0---3---0---0---0---3---0---|
   *   *   *   *     * * * * * * *   *   *   *   *   *   *   *


E|-------------------------------------------------------------|
B|-------------------------------------------------------------|
G|-------------------------------------------------------------|
D|-------------------------------------------------------------|
A|-------------------------------------------------------------|
D|-5---5---8---5-----5-5-5-5-5-5-5---5---8---5-----5-5-5-5-5-5-|
   *   *   *   *     * * * * * * *   *   *   *     * * * * * *


E|---------------------------------------------------------------|
B|---------------------------------------------------------------|
G|---------------------------------------------------------------|
D|---------------------------------------------------------------|
A|---------------------------------------------------------------|
D|-5---5---8---5-----5-5-5-5-5-5-5---5---8---5---5---5---8---5---|
   *   *   *   *     * * * * * * *   *   *   *   *   *   *   *


Guitar 1
E|-17-12----12\-0h5/9-p5h9-/12p9-/18~--17~---|
B|-------14----------------------------------|
G|-------------------------------------------|
D|-------------------------------------------|
A|-------------------------------------------|
D|-------------------------------------------|
                                             |
Guitar 2                                     |
E|-12-9-----9\-------------------------------|
B|-------10-----2h5/10p5h10/14p10/15~--14~---|
G|-------------------------------------------|
D|-------------------------------------------|
A|-------------------------------------------|
D|-------------------------------------------|


CHORUS I

Guitar 1
E|---------------------------------15-/18--18--17--17--15--17--18--|
B|-15-/18--18--17--17--15--17--18----------------------------------|
G|-----------------------------------------------------------------|
D|-----------------------------------------------------------------|
A|-----------------------------------------------------------------|
D|-----------------------------------------------------------------|
                                                                   |
Guitar 2                                                           |
E|-----------------------------------------------------------------|
B|---------------------------------11-/15--15--13--13--11--13--15--|
G|-10-/14--14--12--12--10--12--14----------------------------------|
D|-----------------------------------------------------------------|
A|-----------------------------------------------------------------|
D|-----------------------------------------------------------------|
                                                                   |
Guitar 3                                                           |
E|-----------------------------------------------------------------|
B|-----------------------------------------------------------------|
G|-----------------------------------------------------------------|
D|-0---0-0-0---0-0-0---0-0-0---0-0-5---5-5-5---5-5-5---5-5-5---5-5-|
A|-0---0-0-0---0-0-0---0-0-0---0-0-5---5-5-5---5-5-5---5-5-5---5-5-|
D|-0---0-0-0---0-0-0---0-0-0---0-0-5---5-5-5---5-5-5---5-5-5---5-5-|



Guitar 1                                                           
E|---------------8---10--12-12----10--------------13-16-17-13---------------|
B|-8--8---10--11-------------------------------15-------------15------------|
G|------------------------------------------14-------------------14\--------|
D|---------------------------------------15---------------------------------|
A|------------------------------------17------------------------------------|
D|--------------------------------------------------------------------------|
                                                                            |
Guitar 2                                                                    |
E|---------------12--13--15-15----13--------------10-12-13-10---------------|
B|-11-11--13--15-------------------------------10-------------10------------|
G|------------------------------------------10-------------------10---------|
D|---------------------------------------12-------------------------12------|
A|------------------------------------12-------------------------------12---|
D|--------------------------------------------------------------------------|
                                                                    ________/
Guitar 3                                                           /
E|-----------------------------------------------------------------|
B|-----------------------------------------------------------------|
G|-----------------------------------------------------------------|
D|-5---5-5-5---5-5-5---5-5-5---5-5-0---0-0-0---0-0-0---0-0-0---0-0-|
A|-5---5-5-5---5-5-5---5-5-5---5-5-0---0-0-0---0-0-0---0-0-0---0-0-|
D|-5---5-5-5---5-5-5---5-5-5---5-5-0---0-0-0---0-0-0---0-0-0---0-0-|



Guitar 1
E|---------------------------------15-/18--18--17--17--15--17--18--|
B|-15-/18--18--17--17--15--17--18----------------------------------|
G|-----------------------------------------------------------------|
D|-----------------------------------------------------------------|
A|-----------------------------------------------------------------|
D|-----------------------------------------------------------------|
        |
Guitar 2        |
E|-----------------------------------------------------------------|
B|---------------------------------11-/15--15--13--13--11--13--15--|
G|-10-/14--14--12--12--10--12--14----------------------------------|
D|-----------------------------------------------------------------|
A|-----------------------------------------------------------------|
D|-----------------------------------------------------------------|
                                                                       |        
Guitar 3                                                           |
E|-----------------------------------------------------------------|
B|-----------------------------------------------------------------|
G|-----------------------------------------------------------------|
D|-0---0-0-0---0-0-0---0-0-0---0-0-5---5-5-5---5-5-5---5-5-5---5-5-|
A|-0---0-0-0---0-0-0---0-0-0---0-0-5---5-5-5---5-5-5---5-5-5---5-5-|
D|-0---0-0-0---0-0-0---0-0-0---0-0-5---5-5-5---5-5-5---5-5-5---5-5-|



Guitar 1                                                           
E|---------------8---10--12-12----10--------------13-16-17-13---------------|
B|-8--8---10--11-------------------------------15-------------15------------|
G|------------------------------------------14-------------------14\--------|
D|---------------------------------------15---------------------------------|
A|------------------------------------17------------------------------------|
D|--------------------------------------------------------------------------|
                                                                            |
Guitar 2                                                                    |
E|---------------12--13--15-15----13--------------10-12-13-10---------------|
B|-11-11--13--15-------------------------------10-------------10------------|
G|------------------------------------------10-------------------10---------|
D|---------------------------------------12-------------------------12------|
A|------------------------------------12-------------------------------12---|
D|--------------------------------------------------------------------------|
                                                                    ________/
Guitar 3                                                           /
E|-----------------------------------------------------------------|
B|-----------------------------------------------------------------|
G|-----------------------------------------------------------------|
D|-5---5-5-5---5-5-5---5-5-5---5-5-0---0-0-0---0-0-0---0-0-0---0-0-|
A|-5---5-5-5---5-5-5---5-5-5---5-5-0---0-0-0---0-0-0---0-0-0---0-0-|
D|-5---5-5-5---5-5-5---5-5-5---5-5-0---0-0-0---0-0-0---0-0-0---0-0-|


Bridge

Guitar 1
E|-13p10----13p10----13p10----13p10----17p13----17p13----17p13----17p13----|
B|-------10-------10-------10-------10-------15-------15-------15-------15-|
G|-------------------------------------------------------------------------|
D|-------------------------------------------------------------------------|
A|-------------------------------------------------------------------------|
D|-------------------------------------------------------------------------|
                                                                           |
Guitar 2                                                                   |
E|-17p13----17p13----17p13----17p13----22p17----22p17----22p17----22p17----|
B|-------15-------15-------15-------15-------18-------18-------18-------18-|
G|-------------------------------------------------------------------------|
D|-------------------------------------------------------------------------|
A|-------------------------------------------------------------------------|
D|-------------------------------------------------------------------------|
                                    _______________________________________/
Guitar 3                           /
E|---------------------------------|
B|---------------------------------|
G|---------------------------------|
D|-0---0---0---0---0---0---0---0---|
A|-0---0---0---0---0---0---0---0---|
D|-0---0---0---0---0---0---0---0---|



Guitar 1
E|-16p12----16p12----16p12----16p12----19p16----19p16----19p16----19p16----|
B|-------12-------12-------12-------12-------17-------17-------17-------17-|
G|-------------------------------------------------------------------------|
D|-------------------------------------------------------------------------|
A|-------------------------------------------------------------------------|
D|-------------------------------------------------------------------------|
                                                                           |
Guitar 2                                                                   |
E|-19p16----19p16----19p16----19p16----24p19----24p19----24p19----24p19----|
B|-------17-------17-------17-------17-------21-------21-------21-------21-|
G|-------------------------------------------------------------------------|
D|-------------------------------------------------------------------------|
A|-------------------------------------------------------------------------|
D|-------------------------------------------------------------------------|
                                    _______________________________________/
Guitar 3                           /
E|---------------------------------|
B|---------------------------------|
G|---------------------------------|
D|-6---6---6---6---6---6---6---6---|
A|-5---5---5---5---5---5---5---5---|
D|-6---6---6---6---6---6---6---6---|



Guitar 1
E|-18p15----18p15----18p15----18p15----22p18----22p18----22p18----22p18----|
B|-------15-------15-------15-------15-------20-------20-------20-------20-|
G|-------------------------------------------------------------------------|
D|-------------------------------------------------------------------------|
A|-------------------------------------------------------------------------|
D|-------------------------------------------------------------------------|
                                                                           |
Guitar 2                                                                   |
E|-22p18----22p18----22p18----22p18----15p11----15p11----15p11----15p11----|
B|-------20-------20-------20-------20-------11-------11-------11-------11-|
G|-------------------------------------------------------------------------|
D|-------------------------------------------------------------------------|
A|-------------------------------------------------------------------------|
D|-------------------------------------------------------------------------|
                                    _______________________________________/
Guitar 3                           /
E|---------------------------------|
B|---------------------------------|
G|---------------------------------|
D|-5---5---5---5---5---5---5---5---|
A|-5---5---5---5---5---5---5---5---|
D|-5---5---5---5---5---5---5---5---|



Guitar 1
E|-15p11----15p11----15p11----15p11----18p15----18p15----18p15----18p15----|
B|-------11-------11-------11-------11-------16-------16-------16-------16-|
G|-------------------------------------------------------------------------|
D|-------------------------------------------------------------------------|
A|-------------------------------------------------------------------------|
D|-------------------------------------------------------------------------|
                                                                           |
Guitar 2                                                                   |
E|-18p15----18p15----18p15----18p15----23p18----23p18----23p18----23p18----|
B|-------16-------16-------16-------16-------20-------20-------20-------20-|
G|-------------------------------------------------------------------------|
D|-------------------------------------------------------------------------|
A|-------------------------------------------------------------------------|
D|-------------------------------------------------------------------------|
                                    _______________________________________/
Guitar 3                           /
E|---------------------------------|
B|---------------------------------|
G|---------------------------------|
D|-1---1---1---1---1---1---1---1---|
A|-1---1---1---1---1---1---1---1---|
D|-1---1---1---1---1---1---1---1---|



VERSE II

Guitar 1
E|-------------------------------------|
B|-------------------------------------|
G|-------------------------------------|
D|-------------------------------------|
A|-/5---5-/3---3-----------------------|
D|---------------6---6-5---5-3---5-----|


Guitars 1 & 2
E|-----------------------------------------------------------------------------|
B|-----------------------------------------------------------------------------|
G|-----------------------------------------------------------------------------|
D|-----------------------------------------------------------------------------|
A|------------------------------------------------------------------------------|
D|-0-----0----0-0-0---0-----0----0-0-0---0-----0----0-0-0---0-----0----0-0-0---|
   *     *    * * *   *     *    * * *   *     *    * * *   *     *    * * *


E|-----------------------------------------------------------------------------|
B|-----------------------------------------------------------------------------|
G|-----------------------------------------------------------------------------|
D|-----------------------------------------------------------------------------|
A|-----------------------------------------------------------------------------|
D|-5-----5----5-5-5---5-----5----5-5-5---5-----5----5-5-5---5-----5----5-5-5---|
   *     *    * * *   *     *    * * *   *     *    * * *   *     *    * * *


E|-------------------------------------------------------------|
B|-------------------------------------------------------------|
G|-------------------------------------------------------------|
D|-------------------------------------------------------------|
A|-------------------------------------------------------------|
D|-0---0---3---0-----0-0-0-0-0-0-0---0---3---0-----0-0-0-0-0-0-|
   *   *   *   *     * * * * * * *   *   *   *     * * * * * *


E|---------------------------------------------------------------|
B|---------------------------------------------------------------|
G|---------------------------------------------------------------|
D|---------------------------------------------------------------|
A|---------------------------------------------------------------|
D|-0---0---3---0-----0-0-0-0-0-0-0---0---3---0---0---0---3---0---|
   *   *   *   *     * * * * * * *   *   *   *   *   *   *   *


E|-------------------------------------------------------------|
B|-------------------------------------------------------------|
G|-------------------------------------------------------------|
D|-------------------------------------------------------------|
A|-------------------------------------------------------------|
D|-5---5---8---5-----5-5-5-5-5-5-5---5---8---5-----5-5-5-5-5-5-|
   *   *   *   *     * * * * * * *   *   *   *     * * * * * *


E|---------------------------------------------------------------|
B|---------------------------------------------------------------|
G|---------------------------------------------------------------|
D|---------------------------------------------------------------|
A|---------------------------------------------------------------|
D|-5---5---8---5-----5-5-5-5-5-5-5---5---8---5---5---5---8---5---|
   *   *   *   *     * * * * * * *   *   *   *   *   *   *   *


Guitar 1
E|-----------------------------------------13-15/18~--17~---|
B|--------------------18-17-18-15-14-15-17------------------|
G|-----------15-14-15---------------------------------------|
D|-/15-14-15------------------------------------------------|
A|----------------------------------------------------------|
D|----------------------------------------------------------|
                                                            |
Guitar 2                                                    |
E|----------------------------------------------------------|
B|-----------------------------15-14----------14-15~--14~---|
G|-----------12-11-12/15-14-15-------14-15-16---------------|
D|-/12-11-12------------------------------------------------|
A|----------------------------------------------------------|
D|----------------------------------------------------------|



CHORUS II

Guitar 1
E|---------------------------------15-/18--18--17--17--15--17--18--|
B|-15-/18--18--17--17--15--17--18----------------------------------|
G|-----------------------------------------------------------------|
D|-----------------------------------------------------------------|
A|-----------------------------------------------------------------|
D|-----------------------------------------------------------------|
                                                                   |
Guitar 2                                                           |
E|-----------------------------------------------------------------|
B|---------------------------------11-/15--15--13--13--11--13--15--|
G|-10-/14--14--12--12--10--12--14----------------------------------|
D|-----------------------------------------------------------------|
A|-----------------------------------------------------------------|
D|-----------------------------------------------------------------|
                                                                   |
Guitar 3                                                           |
E|-----------------------------------------------------------------|
B|-----------------------------------------------------------------|
G|-----------------------------------------------------------------|
D|-0---0-0-0---0-0-0---0-0-0---0-0-5---5-5-5---5-5-5---5-5-5---5-5-|
A|-0---0-0-0---0-0-0---0-0-0---0-0-5---5-5-5---5-5-5---5-5-5---5-5-|
D|-0---0-0-0---0-0-0---0-0-0---0-0-5---5-5-5---5-5-5---5-5-5---5-5-|



Guitar 1                                                           
E|---------------8---10--12-12----10--------------13-16-17-13---------------|
B|-8--8---10--11-------------------------------15-------------15------------|
G|------------------------------------------14-------------------14\--------|
D|---------------------------------------15---------------------------------|
A|------------------------------------17------------------------------------|
D|--------------------------------------------------------------------------|
                                                                            |
Guitar 2                                                                    |
E|---------------12--13--15-15----13--------------10-12-13-10---------------|
B|-11-11--13--15-------------------------------10-------------10------------|
G|------------------------------------------10-------------------10---------|
D|---------------------------------------12-------------------------12------|
A|------------------------------------12-------------------------------12---|
D|--------------------------------------------------------------------------|
                                                                    ________/
Guitar 3                                                           /
E|-----------------------------------------------------------------|
B|-----------------------------------------------------------------|
G|-----------------------------------------------------------------|
D|-5---5-5-5---5-5-5---5-5-5---5-5-0---0-0-0---0-0-0---0-0-0---0-0-|
A|-5---5-5-5---5-5-5---5-5-5---5-5-0---0-0-0---0-0-0---0-0-0---0-0-|
D|-5---5-5-5---5-5-5---5-5-5---5-5-0---0-0-0---0-0-0---0-0-0---0-0-|



Guitar 1
E|---------------------------------15-/18--18--17--17--15--17--18--|
B|-15-/18--18--17--17--15--17--18----------------------------------|
G|-----------------------------------------------------------------|
D|-----------------------------------------------------------------|
A|-----------------------------------------------------------------|
D|-----------------------------------------------------------------|
        |
Guitar 2        |
E|-----------------------------------------------------------------|
B|---------------------------------11-/15--15--13--13--11--13--15--|
G|-10-/14--14--12--12--10--12--14----------------------------------|
D|-----------------------------------------------------------------|
A|-----------------------------------------------------------------|
D|-----------------------------------------------------------------|
                                                                       |        
Guitar 3                                                           |
E|-----------------------------------------------------------------|
B|-----------------------------------------------------------------|
G|-----------------------------------------------------------------|
D|-0---0-0-0---0-0-0---0-0-0---0-0-5---5-5-5---5-5-5---5-5-5---5-5-|
A|-0---0-0-0---0-0-0---0-0-0---0-0-5---5-5-5---5-5-5---5-5-5---5-5-|
D|-0---0-0-0---0-0-0---0-0-0---0-0-5---5-5-5---5-5-5---5-5-5---5-5-|



Guitar 1                                                           
E|---------------8---10--12-12----10--------------13-16-17-13---------------|
B|-8--8---10--11-------------------------------15-------------15------------|
G|------------------------------------------14-------------------14\--------|
D|---------------------------------------15---------------------------------|
A|------------------------------------17------------------------------------|
D|--------------------------------------------------------------------------|
                                                                            |
Guitar 2                                                                    |
E|---------------12--13--15-15----13--------------10-12-13-10---------------|
B|-11-11--13--15-------------------------------10-------------10------------|
G|------------------------------------------10-------------------10---------|
D|---------------------------------------12-------------------------12------|
A|------------------------------------12-------------------------------12---|
D|--------------------------------------------------------------------------|
                                                                    ________/
Guitar 3                                                           /
E|-----------------------------------------------------------------|
B|-----------------------------------------------------------------|
G|-----------------------------------------------------------------|
D|-5---5-5-5---5-5-5---5-5-5---5-5-0---0-0-0---0-0-0---0-0-0---0-0-|
A|-5---5-5-5---5-5-5---5-5-5---5-5-0---0-0-0---0-0-0---0-0-0---0-0-|
D|-5---5-5-5---5-5-5---5-5-5---5-5-0---0-0-0---0-0-0---0-0-0---0-0-|


Solo lick...

Guitar 1
E|----------------------------------------------10-11-10----11~----|
B|-------------------------------------11----11----------13--------|
G|----------------------------12----12----12-----------------------|
D|-12~--12-/15--13~--------12----12--------------------------------|
A|----------------------13-----------------------------------------|
D|-----------------------------------------------------------------|
                                                                   |
Guitar 2                                                           |
E|----------------------------------------------6--8--6-----6~-----|
B|-------------------------------------8-----8-----------10--------|
G|-10~--10-/14--12~-----------7-----7-----7------------------------|
D|-------------------------8-----8---------------------------------|
A|----------------------10-----------------------------------------|
D|-----------------------------------------------------------------|
                                                                   |
Guitar 3                                                           |
E|-----------------------------------------------------------------|
B|-----------------------------------------------------------------|
G|-3---3-3-3---3-3-3---3-3-3---3-3---------------------------------|
D|-3---3-3-3---3-3-3---3-3-3---3-3-1---1-1-1---1-1-1---1-1-1---1-1-|
A|-1---1-1-1---1-1-1---1-1-1---1-1-1---1-1-1---1-1-1---1-1-1---1-1-|
D|---------------------------------1---1-1-1---1-1-1---1-1-1---1-1-|


BRIDGE

Guitar 1
E|---------------------------------------------------------------------------------------------|
B|---------------------------------------------------------------------------------------------|
G|-15---15-15-15-15-15-15-15---15-15-15-15-15-15-10---10-10-10-10-10-10-10---10-10-10-10-10-10-|
D|---------------------------------------------------------------------------------------------|
A|-13---13-13-13-13-13-13-13---13-13-13-13-13-13--8----8--8--8--8--8--8--8----8--8--8--8--8--8-|
D|---------------------------------------------------------------------------------------------|
                                                                                               |
Guitar 2                                                                                       |
E|---------------------------------------------------------------------------------------------|
B|---------------------------------------------------------------------------------------------|
G|-3----3--3--3--3--3--3--3----3--3--3--3--3--3------------------------------------------------|
D|-3----3--3--3--3--3--3--3----3--3--3--3--3--3--3----3--3--3--3--3--3--3----3--3--3--3--3--3--|
A|-1----1--1--1--1--1--1--1----1--1--1--1--1--1--3----3--3--3--3--3--3--3----3--3--3--3--3--3--|
D|-----------------------------------------------3----3--3--3--3--3--3--3----3--3--3--3--3--3--|



Guitar 1
E|-----------------------------------------------------------------------|
B|-----------------------------------------------------------------------|
G|-9---9-9-9-9-9-9-9---9-9-9-9-9-9-7---7-7-9---9-9-10--10-10-14----14-14-|
D|-----------------------------------------------------------------------|
A|-7---7-7-7-7-7-7-7---7-7-7-7-7-7-5---5-5-7---7-7-8----8--8-12----12-12-|
D|-----------------------------------------------------------------------|
                                                                         |
Guitar 2                                                                 |
E|-----------------------------------------------------------------------|
B|-----------------------------------------------------------------------|
G|-----------------------------------------------------------------------|
D|-2---2-2-2-2-2-2-2---2-2-2-2-2-2-0---0-0-0-0-0-0-0---0--0--0--0--0--0--|
A|-2---2-2-2-2-2-2-2---2-2-2-2-2-2-0---0-0-0-0-0-0-0---0--0--0--0--0--0--|
D|-2---2-2-2-2-2-2-2---2-2-2-2-2-2-0---0-0-0-0-0-0-0---0--0--0--0--0--0--|



Guitar 1
E|--------------------------------------------------------------------------------------------|
B|--------------------------------------------------------------------------------------------|
G|-15---15-15-15-15-15-15-15---15-15-14---14-14-10---10-10-10-10-10-10-10---10-10-12----12-12-|
D|--------------------------------------------------------------------------------------------|
A|-13---13-13-13-13-13-13-13---13-13-12---12-12--8----8--8--8--8--8--8--8----8--8-10----10-10-|
D|--------------------------------------------------------------------------------------------|
                                                                                              |
Guitar 2                                                                                      |
E|--------------------------------------------------------------------------------------------|
B|--------------------------------------------------------------------------------------------|
G|-3----3--3--3--3--3--3--3----3--3--3--3--3--3-----------------------------------------------|
D|-3----3--3--3--3--3--3--3----3--3--3--3--3--3--3---3--3--3--3--3--3--3----3--3--3--3--3--3--|
A|-1----1--1--1--1--1--1--1----1--1--1--1--1--1--3---3--3--3--3--3--3--3----3--3--3--3--3--3--|
D|-----------------------------------------------3---3--3--3--3--3--3--3----3--3--3--3--3--3--|



Guitar 1
E|-------------------------------------------------------------------------------|
B|-------------------------------------------------------------------------------|
G|-9---9-9-9-9-9-9-9---9-9-9-9-9-9-13---13-13-13-13-13-13-13---13-13-13-13-13-13-|
D|-------------------------------------------------------------------------------|
A|-7---7-7-7-7-7-7-7---7-7-7-7-7-7-11---11-11-11-11-11-11-11---11-11-11-11-11-11-|
D|-------------------------------------------------------------------------------|
                                                                                 |
Guitar 2                                                                         |
E|-------------------------------------------------------------------------------|
B|-------------------------------------------------------------------------------|
G|-2---2-2-2-2-2-2-2---2-2-2-2-2-2-2----2--2--2--2--2--2--2----2--2--2--2--2--2--|
D|-2---2-2-2-2-2-2-2---2-2-2-2-2-2-2----2--2--2--2--2--2--2----2--2--2--2--2--2--|
A|-0---0-0-0-0-0-0-0---0-0-0-0-0-0-4----4--4--4--4--4--4--4----4--4--4--4--4--4--|
D|-------------------------------------------------------------------------------|
                                                        _________________________/
Guitar 3                                               /
E|-----------------------------------------------------|
B|-----------------------------------------------------|
G|-----------------------------------------------------|
D|-3---------3---------3-----3---------3---------3-----|
A|-1-1-1-1-1-1-1-1-1-1-1-1-1-1-1-1-1-1-1-1-1-1-1-1-1-1-|
D|-----------------------------------------------------|
     * * * *   * * * *   * *   * * * *   * * * *   * *


Guitar 1
E|---------------15-17-18-17-15--------------------------15-17-18-17-15-----------|
B|------------15----------------15--------------------15----------------15--------|
G|---------15----------------------15--------------15----------------------15-----|
D|------17----------------------------17\-------17----------------------------17\-|
A|-/17-------------------------------------/17------------------------------------|
D|--------------------------------------------------------------------------------|
                                                                                  |
Guitar 2                                                                          |
E|---------------18-20-22-20-18--------------------------18-21-22-21-18-----------|
B|------------20----------------20--------------------20----------------20--------|
G|---------19----------------------19--------------19----------------------19-----|
D|------20----------------------------20\-------20----------------------------20\-|
A|-/22-------------------------------------/22------------------------------------|
D|--------------------------------------------------------------------------------|
                                                         _________________________/
Guitar 3                                                /
E|-----------------------------------------------------|
B|-----------------------------------------------------|
G|-----------------------------------------------------|
D|-----------------------------------------------------|
A|-3---------3---------3-----3---------3---------3-----|
D|-3-3-3-3-3-3-3-3-3-3-3-3-3-3-3-3-3-3-3-3-3-3-3-3-3-3-|
     * * * *   * * * *   * *   * * * *   * * * *   * *


Guitar 1
E|-----------------------------------------------------|
B|-----------------------------------------------------|
G|-----------------------------------------------------|
D|-/10~------------------------------------------------|
A|-----------------------------------------------------|
D|-----------------------------------------------------|
                                                       |
Guitar 2                                               |
E|-----------------------------------------------------|
B|-----------------------------------------------------|
G|-----------------------------------------------------|
D|-/14~------------------------------------------------|
A|-----------------------------------------------------|
D|-----------------------------------------------------|
                                                       |
Guitar 3                                               |
E|-----------------------------------------------------|
B|-----------------------------------------------------|
G|-----------------------------------------------------|
D|-----------------------------------------------------|
A|-2---------2---------2-----2---------2---------2-----|
D|-2-2-2-2-2-2-2-2-2-2-2-2-2-2-2-2-2-2-2-2-2-2-2-2-2-2-|
     * * * *   * * * *   * *   * * * *   * * * *   * *


Guitar 1
E|------------10-12-13-12-10----------------------------10-12-13-12-10--------------|
B|---------10----------------10----------------------10----------------10-----------|
G|------10----------------------10----------------10----------------------10--------|
D|-/12-----------------------------12----------12----------------------------12-----|
A|------------------------------------12\8-/12----------------------------------12\-|
D|----------------------------------------------------------------------------------|
                                                                                    |
Guitar 2                                                                            |
E|------------13-15-17-15-13----------------------------13-15-17-15-13--------------|
B|---------15----------------15----------------------15----------------15-----------|
G|------14----------------------14----------------14----------------------14--------|
D|---------------------------------15----15----------------------------------15-----|
A|-/17--------------------------------17----17----------------------------------17\-|
D|----------------------------------------------------------------------------------|
                                                        ____________________________/
Guitar 3                                               /
E|-----------------------------------------------------|
B|-----------------------------------------------------|
G|-----------------------------------------------------|
D|-----------------------------------------------------|
A|-0---------0---------0-----0---------0---------0-----|
D|-0-0-0-0-0-0-0-0-0-0-0-0-0-0-0-0-0-0-0-0-0-0-0-0-0-0-|
     * * * *   * * * *   * *   * * * *   * * * *   * *


Guitar 1
E|-----------------------------------------------------|
B|-----------------------------------------------------|
G|-----------------------------------------------------|
D|-/12~------------------------------------------------|
A|-----------------------------------------------------|
D|-----------------------------------------------------|
                                                       |
Guitar 2                                               |
E|-----------------------------------------------------|
B|-----------------------------------------------------|
G|-/15~------------------------------------------------|
D|-----------------------------------------------------|
A|-----------------------------------------------------|
D|-----------------------------------------------------|
                                                       |
Guitar 3                                               |
E|-----------------------------------------------------|
B|-----------------------------------------------------|
G|-----------------------------------------------------|
D|-3---------3---------3-----3---------3---------3-----|
A|-1-1-1-1-1-1-1-1-1-1-1-1-1-1-1-1-1-1-1-1-1-1-1-1-1-1-|
D|-----------------------------------------------------|
     * * * *   * * * *   * *   * * * *   * * * *   * *


Guitar 1
E|---------------15-17-18-17-15----------------------------15-17-18-17-15-----------|
B|------------15----------------15----------------------15----------------15--------|
G|---------15----------------------15----------------15----------------------15-----|
D|------17----------------------------17\---------17----------------------------17\-|
A|-/17---------------------------------------/17------------------------------------|
D|----------------------------------------------------------------------------------|
                                                                                    |
Guitar 2                                                                            |
E|---------------18-20-22-20-18----------------------------18-21-22-21-18-----------|
B|------------20----------------20----------------------20----------------20--------|
G|---------19----------------------19----------------19----------------------19-----|
D|------20----------------------------20\---------20----------------------------20\-|
A|-/22---------------------------------------/22------------------------------------|
D|----------------------------------------------------------------------------------|
                                                        ____________________________/
Guitar 3                                               /
E|-----------------------------------------------------|
B|-----------------------------------------------------|
G|-----------------------------------------------------|
D|-----------------------------------------------------|
A|-3---------3---------3-----3---------3---------3-----|
D|-3-3-3-3-3-3-3-3-3-3-3-3-3-3-3-3-3-3-3-3-3-3-3-3-3-3-|
     * * * *   * * * *   * *   * * * *   * * * *   * *


Guitar 1
E|-----------------------------------------------------|
B|-----------------------------------------------------|
G|-----------------------------------------------------|
D|-/13~------------------------------------------------|
A|-----------------------------------------------------|
D|-----------------------------------------------------|
                                                       |
Guitar 2                                               |
E|-----------------------------------------------------|
B|-----------------------------------------------------|
G|-/14~------------------------------------------------|
D|-----------------------------------------------------|
A|-----------------------------------------------------|
D|-----------------------------------------------------|
                                                       |
Guitar 3                                               |
E|-----------------------------------------------------|
B|-----------------------------------------------------|
G|-----------------------------------------------------|
D|-2---------2---------2-----2---------2---------2-----|
A|-0-0-0-0-0-0-0-0-0-0-0-0-0-0-0-0-0-0-0-0-0-0-0-0-0-0-|
D|-----------------------------------------------------|
     * * * *   * * * *   * *   * * * *   * * * *   * *

Guitar 1
E|-------------------------------------------------------|
B|-------------------------------------------------------|
G|-/14~-------/18~---------------------------------------|
D|-------------------------------------------------------|
A|-------------------------------------------------------|
D|-------------------------------------------------------|
                                                         |
Guitar 2                                                 |
E|-------------------------------------------------------|
B|-------------------------------------------------------|
G|-/18~--------------------------------------------------|
D|------------/19~---------------------------------------|
A|-------------------------------------------------------|
D|-------------------------------------------------------|
                                                         |
Guitar 3                                                 |
E|-------------------------------------------------------|
B|-------------------------------------------------------|
G|-------------------------------------------------------|
D|-2-2-2-2-2-2-2-2-2-2-2-2-2-2-2/6--6--6--6--6--6--6--6--|
A|-4-4-4-4-4-4-4-4-4-4-4-4-4-4-4/7--7--7--7--7--7--7--7--|
D|-------------------------------------------------------|
     * * * *   * * * *   * *
 

SOLO

Guitar 1
E|-----------------------------------13--17-b18r17~--15~------|
B|-13b15-----15b17r15b18---15--13~----------------------------|
G|------------------------------------------------------------|
D|------------------------------------------------------------|
A|------------------------------------------------------------|
D|------------------------------------------------------------|


E|-15b17-----15p13----13h15--13h15--13~--------/17--18~------------|
B|-----------------15--------------------------------------15~-----|
G|-----------------------------------------------------------------|
D|-----------------------------------------------------------------|
A|-----------------------------------------------------------------|
D|-----------------------------------------------------------------|


E|-/18---17~-------------13--/17~-------17--h18p17p16-17~-----|
B|---------------13~------------------------------------------|
G|------------------------------------------------------------|
D|------------------------------------------------------------|
A|------------------------------------------------------------|
D|------------------------------------------------------------|


E|-12-13-15---13---12p13h12-----------------------------------|
B|--------------------------15~-----15b17r15b18---15--13~-----|
G|------------------------------------------------------------|
D|------------------------------------------------------------|
A|------------------------------------------------------------|
D|------------------------------------------------------------|


E|-13--17-b18r17---15-17-18--18-18b20---17b18r17~------|
B|-----------------------------------------------------|
G|-----------------------------------------------------|
D|-----------------------------------------------------|
A|-----------------------------------------------------|
D|-----------------------------------------------------|

Guitar 1
E|------------------13-18---17---15\-13~--------13-17---15---13-/17~------|
B|-15b17r15~-----15--------------------------13---------------------------|
G|------------------------------------------------------------------------|
D|------------------------------------------------------------------------|
A|------------------------------------------------------------------------|
D|------------------------------------------------------------------------|
                                                                          |
Guitar 2                                                                  |
E|------------------------------------------------------------------------|
B|------------------15-18---17---15-------------15-18---17---15--14~------|
G|------/15~-----15------------------14~-----15---------------------------|
D|------------------------------------------------------------------------|
A|------------------------------------------------------------------------|
D|------------------------------------------------------------------------|



Guitar 1
E|-17-18-20-20b22~-----------------17-18-20-21b23~----------------|
B|------------------------------18--------------------------------|
G|----------------------------------------------------------------|
D|----------------------------------------------------------------|
A|----------------------------------------------------------------|
D|----------------------------------------------------------------|
                                                                  |
Guitar 2                                                          |
E|----12-13/17~---------------------------------------------------|
B|-14------------------------------14-15-17-17b18~----------------|
G|------------------------------14--------------------------------|
D|----------------------------------------------------------------|
A|----------------------------------------------------------------|
D|----------------------------------------------------------------|




============================================================================
Song #4: Buried Alive
Tuning: Standard
Length: 6:43
============================================================================

INTRO PART I
Guitar 1 [NO DISTORTION]
e|-----8----10p8---8------7---5--3/5---------------------------------------|
B|-/10---10------10-----8---8----------5---6p5-5-------5-------------------|
G|-----------------------------------7---7----7------5---4-7\4-4h5p4-------|
D|-------------------------------------------------------------------5-----|
A|-------------------------------------------------------------------------|
E|-------------------------------------------------------------------------|
 |Guitar 2 [NO DISTORTION]                                                 |
e|-------------------------------------------------------------------------|
B|-------------------------------------------------------------------------|
G|-------------------------------------------------------------------------|
D|-------------------------------------------------------------------------|
A|--0-------------------7------------5-----------3-2-0---------------------|
E|-------------------------------------------------------------------------|


Guitar 1
e|-----8----10p8---8------7------------------------------------------------|
B|-/10---10------10-----8---8-10\8/10--5---6p5-------8-10--9h10p9p8h9-10---|
G|-----------------------------------7---7-----7-9-10----------------------|
D|-------------------------------------------------------------------------|
A|-------------------------------------------------------------------------|
E|-------------------------------------------------------------------------|
 |Guitar 2                                                                 |
e|-------------------------------------------------------------------------|
B|-------------------------------------------------------------------------|
G|-------------------------------------------------------------------------|
D|-------------------------------------------------------------------------|
A|--0-------------------7------------5---------5-7-8-------7---------------|
E|-------------------------------------------------------------------------|

Guitar 1
e|-------------------------------------------------------------------------|
B|-/10~-8-10--------------/10~-8-10----------/10~-8-10--------------7-8-7--|
G|-----------/7-5-7-5--------------5/7-5/7-5-----------/7-5-7-5------------|
D|--------------------7-5---------------------------------------7-5--------|
A|-------------------------------------------------------------------------|
E|-------------------------------------------------------------------------|
 |Guitar 2                                                                 |
e|-------------------------------------------------------------------------|
B|-------------------------------------------------------------------------|
G|-------------------------------------------------------------------------|
D|-------------------------------------------------------------------------|
A|--0---------2------------3---------5---------0--------2-----------5------|
E|-------------------------------------------------------------------------|

Guitar 1
e|-------------------------------------------------------------------------|
B|-5---5----/10~-8-10-------------/10~-8-10----------/10~-8-10-------------|
G|--5---5-------------7-5-7-5--------------5/7-5/6-5-----------7-5-7-5-----|
D|---5---5--------------------7-5--------------------------------------7-5-|
A|-------------------------------------------------------------------------|
E|-------------------------------------------------------------------------|
 |Guitar 2                                                                 |
e|-------------------------------------------------------------------------|
B|-------------------------------------------------------------------------|
G|-------------------------------------------------------------------------|
D|-------------------------------------------------------------------------|
A|--3--------0--------2------------3---------5----3-2-0--------2-----------|
E|-------------------------------------------------------------------------|

e|-----------------------------5*-------------5*----|
B|-7-8-7--5---5----------5-5------------5-5---------|
G|---------5---5--/5--4----------/5--4--------------|
D|----------5---5------------7--------------7----3*~|
A|--------------------------------------------------|
E|--------------------------------------------------|
 |                                                  |
 |Guitar 2                                          |
e|--------------------------------------------------|
B|--------------------------------------------------|
G|--------------------------------------------------|
D|--------------------------------------------------|
A|--5--------3--------------------------------------|
E|-----------------5--3----1------5--3----1---------|



INTRO PART II
Guitar 1 [Distorted]
e|-------------------------------------------------------------------------|
B|-13-13-13/15-13\8-8-8-10-10-10\5/9---13-13-13-15-13\8-8/10-10/12/13-12-12|
G|-------------------------------------------------------------------------|
D|-------------------------------------------------------------------------|
A|-------------------------------------------------------------------------|
E|-------------------------------------------------------------------------|E
 |                                                                         |
 |Guitar 2 [Distorted]                                                     |
e|-------------------------------------------------------------------------|
B|-10-10-10-12-8----------------------/10-10-10-12-8--------------/10-9--9-|
G|---------------\9-9-9-10-10-10\5/9-----------------\9-9/10-10-12---------|
D|-------------------------------------------------------------------------|
A|-------------------------------------------------------------------------|
E|-------------------------------------------------------------------------|
 |                                                                         |
 |Guitar 3 [Clean]                                                         |
e|-------0----------------------------0---------------------0--------------|
B|-----1---1------------3-----------1---1-----1-------1---1---1------------|
G|---2-------2--------0---0-------2-------2---------0---0------------------|
D|------------------2-------0-2-3-----------2-----2------------------------|
A|-0-----------2--3-----------------------------3--------------------------|
E|-------------------------------------------------------------------------|


e|---------------------------------------/17-15----------------------------|
B|-12-13-15--13-13-13-12-13----13-12-13---------18-17--/13-h14p13\9~-------|
G|--------------------------12---------------------------------------------|
D|-------------------------------------------------------------------------|
A|-------------------------------------------------------------------------|
E|-------------------------------------------------------------------------|
 |                                                                         |
e|-----------------12-10-12----12-10-12---13-12-10-----/12-h13p12\7~-------|
B|-9--10-12--10-10----------13--------------------\13----------------------|
G|-------------------------------------------------------------------------|
D|-------------------------------------------------------------------------|
A|-------------------------------------------------------------------------|
E|-------------------------------------------------------------------------|
 |                                                                         |
e|-------0----------------------------0---------------------0--------------|
B|-----1---1------------3-----------1---1-----1-------1---1---1------------|
G|---2-------2--------0---0-------2-------2---------0---0------------------|
D|------------------2-------0-2-3-----------2-----2------------------------|
A|-0-----------2--3-----------------------------3--------------------------|
E|-------------------------------------------------------------------------|


e|-------------------------------------------------------------------------|
B|-/13-13-13-12-13----13-12-13/15-17-15-12b13r12---13-12-10------------/13~|
G|-----------------12----------------------------------------12-10-9-------|
D|-------------------------------------------------------------------------|
A|-------------------------------------------------------------------------|
E|-------------------------------------------------------------------------|
 |                                                                         |
e|--------12-10-12----12-10-12/13-15\13------------------------------------|
B|--10-10----------13-------------------15b17r15~--16-15-13----------------|
G|-----------------------------------------------------------15-14-12--/14~|
D|-------------------------------------------------------------------------|
A|-------------------------------------------------------------------------|
E|-------------------------------------------------------------------------|
 |                                                                         |
e|-------0----------------------------0---------------------0--------------|
B|-----1---1------------3-----------1---1-----1-------1---1---1------------|
G|---2-------2--------0---0-------2-------2---------0---0------------------|
D|------------------2-------0-2-3-----------2-----2------------------------|
A|-0-----------2--3-----------------------------3--------------------------|
E|-------------------------------------------------------------------------|

VERSE I

Guitar 3 [Still Clean]
e|-------0----------------------------0---------------------0------| 
B|-----1---1------------3-----------1---1-----1-------1---1---1----|
G|---2-------2--------0---0-------2-------2---------0---0----------|
D|------------------2-------0-2-3-----------2-----2----------------|
A|-0-----------2--3-----------------------------3------------------|
E|-----------------------------------------------------------------|

e|-------0----------------------------0---------------------0------| 
B|-----1---1------------3-----------1---1-----1-------1---1---1----|
G|---2-------2--------0---0-------2-------2---------0---0----------|
D|------------------2-------0-2-3-----------2-----2----------------|
A|-0-----------2--3-----------------------------3------------------|
E|-----------------------------------------------------------------|

e|-------0----------------------------0---------------------0------| 
B|-----1---1------------3-----------1---1-----1-------1---1---1----|
G|---2-------2--------0---0-------2-------2---------0---0----------|
D|------------------2-------0-2-3-----------2-----2----------------|
A|-0-----------2--3-----------------------------3------------------|
E|-----------------------------------------------------------------|

e|-------0----------------------------0---------------------0------| 
B|-----1---1------------3-----------1---1-----1-------1---1---1----|
G|---2-------2--------0---0-------2-------2---------0---0----------|
D|------------------2-------0-2-3-----------2-----2----------------|
A|-0-----------2--3-----------------------------3------------------|
E|-----------------------------------------------------------------|

Guitar 1 [Still Distorted]
e|-/13--12--10--------10-12-/13--12-/17~-18-18-----------------------------|
B|-------------/12-13------------------------------------------------------|
G|-------------------------------------------------------------------------|
D|-------------------------------------------------------------------------|
A|-------------------------------------------------------------------------|
E|-------------------------------------------------------------------------|
 |                                                                         |
 |Guitar 2 [Still Distorted]                                               |
e|-------------------------------------------------------------------------|
B|-/15--13--12-/8--10-12-13-/15--13-/18~-20-20-----------------------------|
G|-------------------------------------------------------------------------|
D|-------------------------------------------------------------------------|
A|-------------------------------------------------------------------------|
E|-------------------------------------------------------------------------|
 |                                                                         |
 |Guitar 3 [Still Clean]                                                   |
e|-------0----------------------------0---------------------0--------------|
B|-----1---1------------3-----------1---1-----1-------1---1---1------------|
G|---2-------2--------0---0-------2-------2---------0---0------------------|
D|------------------2-------0-2-3-----------2-----2------------------------|
A|-0-----------2--3-----------------------------3--------------------------|
E|-------------------------------------------------------------------------|

e|-------0----------------------------0---------------------0--------------|
B|-----1---1------------3-----------1---1-----1-------1---1---1------------|
G|---2-------2--------0---0-------2-------2---------0---0------------------|
D|------------------2-------0-2-3-----------2-----2------------------------|
A|-0-----------2--3-----------------------------3--------------------------|
E|-------------------------------------------------------------------------|


CHORUS I

Guitar1
e|-------------------------------------------------------------------------|
B|-------------------------------------------------------------------------|
G|-------------------------------------------------------------------------|
D|------------------------------------------------------------9xx7xx10xx9--|
A|-7--7-7--2-3--3-3-3-----------7--7-7--2-3--3-3-3------------7xx5xx-8xx7--|
E|-5--5-5--0-1--1-1-1-4-4-4-5-7-5--5-5--0-1--1-1-1--4-4-4-5-7--------------|
 |                                                                         |
 |Guitar2                                                                  |
e|-------------------------------------------------------------------------|
B|-------------------------------------------------------------------------|
G|-------------------------------------------------------------------------|
D|------------------------------------------------------------9xx7xx10xx9--|
A|-7--7-7--2-3--3-3-3-----------7--7-7--2-3--3-3-3------------7xx5xx-8xx7--|
E|-5--5-5--0-1--1-1-1-0-0-0-1-3-5--5-5--0-1--1-1-1--0-0-0-1-3--------------|


e|-------------------------------------------------------------------------|
B|-------------------------------------------------------------------------|
G|-------------------------------------------------------------------------|
D|----------------------------------------------------------------9~-------|
A|-7--7-7--2-3--3-3-3--------------7--7-7--2-3--3-3-3-------------7~-------|
E|-5--5-5--0-1--1-1-1-4-4-4-5-7----5--5-5--0-1--1-1-1--4-4-4-5-7-----------|
 |                                                                         |
e|-------------------------------------------------------------------------|
B|-------------------------------------------------------------------------|
G|-------------------------------------------------------------------------|
D|----------------------------------------------------------------9~-------|
A|-7--7-7--2-3--3-3-3--------------7--7-7--2-3--3-3-3-------------7~-------|
E|-5--5-5--0-1--1-1-1-0-0-0-1-3----5--5-5--0-1--1-1-1--0-0-0-1-3-----------|

Guitars 1 and 2
e|----------------------------|
B|----------------------------|
G|----------------------------|
D|--9~-------xx9xx7xx10xx9xx--|
A|--7~-------xx7xx5xx-8xx7xx--|
E|----------------------------|

BRIDGE I

Guitar1
e|-------------------------------------------------------------------------|
B|-13-13-13/15-13\8-8-8/10~10-10\5/9~-13-13-13/15-13\8-8/10-10-12-13-12-12-|
G|-------------------------------------------------------------------------|
D|-------------------------------------------------------------------------|
A|-------------------------------------------------------------------------|
E|-------------------------------------------------------------------------|
 |                                                                         |
 |Guitar 2                                                                 |
e|-------------------------------------------------------------------------|
B|-10-10-10-12-8----------------------10-10-10-12-8---------------10-9--9--|
G|----------------9-9-9-10~10-10\5/9~----------------9-9/10-10-12----------|
D|-------------------------------------------------------------------------|
A|-------------------------------------------------------------------------|
E|-------------------------------------------------------------------------|

e|-------------------------------------------------------------------------|
B|-12-13-15-13~------------------------------------------------------------|
G|-------------------------------------------------------------------------|
D|-------------------------------------------------------------------------|
A|-------------------------------------------------------------------------|
E|-------------------------------------------------------------------------|
 |                                                                         |
e|-------------------------------------------------------------------------|
B|-9--10-12-10~------------------------------------------------------------|
G|-------------------------------------------------------------------------|
D|-------------------------------------------------------------------------|
A|-------------------------------------------------------------------------|
E|-------------------------------------------------------------------------|

VERSE II

Guitar 3 [Still Clean]
e|-------0----------------------------0---------------------0------| 
B|-----1---1------------3-----------1---1-----1-------1---1---1----|
G|---2-------2--------0---0-------2-------2---------0---0----------|
D|------------------2-------0-2-3-----------2-----2----------------|
A|-0-----------2--3-----------------------------3------------------|
E|-----------------------------------------------------------------|

e|-------0----------------------------0---------------------0------| 
B|-----1---1------------3-----------1---1-----1-------1---1---1----|
G|---2-------2--------0---0-------2-------2---------0---0----------|
D|------------------2-------0-2-3-----------2-----2----------------|
A|-0-----------2--3-----------------------------3------------------|
E|-----------------------------------------------------------------|

e|-------0----------------------------0---------------------0------| 
B|-----1---1------------3-----------1---1-----1-------1---1---1----|
G|---2-------2--------0---0-------2-------2---------0---0----------|
D|------------------2-------0-2-3-----------2-----2----------------|
A|-0-----------2--3-----------------------------3------------------|
E|-----------------------------------------------------------------|

e|-------0----------------------------0---------------------0------| 
B|-----1---1------------3-----------1---1-----1-------1---1---1----|
G|---2-------2--------0---0-------2-------2---------0---0----------|
D|------------------2-------0-2-3-----------2-----2----------------|
A|-0-----------2--3-----------------------------3------------------|
E|-----------------------------------------------------------------|

Guitar 1 [Still Distorted]
e|-/13--12--10--------10-12-/13--12-/17~-18-18-----------------------------|
B|-------------/12-13------------------------------------------------------|
G|-------------------------------------------------------------------------|
D|-------------------------------------------------------------------------|
A|-------------------------------------------------------------------------|
E|-------------------------------------------------------------------------|
 |                                                                         |
 |Guitar 2 [Still Distorted]                                               |
e|-------------------------------------------------------------------------|
B|-/15--13--12-/8--10-12-13-/15--13-/18~-20-20-----------------------------|
G|-------------------------------------------------------------------------|
D|-------------------------------------------------------------------------|
A|-------------------------------------------------------------------------|
E|-------------------------------------------------------------------------|
 |                                                                         |
 |Guitar 3 [Still Clean]                                                   |
e|-------0----------------------------0---------------------0--------------|
B|-----1---1------------3-----------1---1-----1-------1---1---1------------|
G|---2-------2--------0---0-------2-------2---------0---0------------------|
D|------------------2-------0-2-3-----------2-----2------------------------|
A|-0-----------2--3-----------------------------3--------------------------|
E|-------------------------------------------------------------------------|

e|-------0----------------------------0---------------------0--------------|
B|-----1---1------------3-----------1---1-----1-------1---1---1------------|
G|---2-------2--------0---0-------2-------2---------0---0------------------|
D|------------------2-------0-2-3-----------2-----2------------------------|
A|-0-----------2--3-----------------------------3--------------------------|
E|-------------------------------------------------------------------------|


CHORUS II

Guitar1
e|-------------------------------------------------------------------------|
B|-------------------------------------------------------------------------|
G|-------------------------------------------------------------------------|
D|------------------------------------------------------------9xx7xx10xx9--|
A|-7--7-7--2-3--3-3-3-----------7--7-7--2-3--3-3-3------------7xx5xx-8xx7--|
E|-5--5-5--0-1--1-1-1-4-4-4-5-7-5--5-5--0-1--1-1-1--4-4-4-5-7--------------|
 |                                                                         |
 |Guitar2                                                                  |
e|-------------------------------------------------------------------------|
B|-------------------------------------------------------------------------|
G|-------------------------------------------------------------------------|
D|------------------------------------------------------------9xx7xx10xx9--|
A|-7--7-7--2-3--3-3-3-----------7--7-7--2-3--3-3-3------------7xx5xx-8xx7--|
E|-5--5-5--0-1--1-1-1-0-0-0-1-3-5--5-5--0-1--1-1-1--0-0-0-1-3--------------|


e|-------------------------------------------------------------------------|
B|-------------------------------------------------------------------------|
G|-------------------------------------------------------------------------|
D|----------------------------------------------------------------9~-------|
A|-7--7-7--2-3--3-3-3--------------7--7-7--2-3--3-3-3-------------7~-------|
E|-5--5-5--0-1--1-1-1-4-4-4-5-7----5--5-5--0-1--1-1-1--4-4-4-5-7-----------|
 |                                                                         |
e|-------------------------------------------------------------------------|
B|-------------------------------------------------------------------------|
G|-------------------------------------------------------------------------|
D|----------------------------------------------------------------9~-------|
A|-7--7-7--2-3--3-3-3--------------7--7-7--2-3--3-3-3-------------7~-------|
E|-5--5-5--0-1--1-1-1-0-0-0-1-3----5--5-5--0-1--1-1-1--0-0-0-1-3-----------|

Guitars 1 and 2
e|----------------------------|
B|----------------------------|
G|----------------------------|
D|-99~-------xx9xx7xx10xx9xx--|
A|-77~-------xx7xx5xx-8xx7xx--|
E|----------------------------|

Guitars 1 and 2
e|------------------------------|
B|------------------------------|
G|------------------------------|
D|--9~------999~--xx9xx7xx10xx9-|
A|--7~------777~--xx7xx5xx-8xx7-|
E|------------------------------|

SOLO I

Guitar 1
e|--------------------------------------------------------------|
B|-13-13-13-13-13/15-17\13-13\10/15\10-10\8-12-12-12-13/15~-----|
G|--------------------------------------------------------------|
D|--------------------------------------------------------------|
A|--------------------------------------------------------------|
E|--------------------------------------------------------------|
 |                                                              |
 |Guitar 2                                                      |
e|--------------------------------------------------------------|
B|-10-10-10-10-10/12-13\8---8\5-/10\6--6--5-8--8--8-/10/12~-----|
G|--------------------------------------------------------------|
D|--------------------------------------------------------------|
A|--------------------------------------------------------------|
E|--------------------------------------------------------------|

Guitar 1
e|--------------------------------------------------------------|
B|-13-13-13-13-13/15-17\13-13\10/15\10-10\8-12-12-12-13/15~-----|
G|--------------------------------------------------------------|
D|--------------------------------------------------------------|
A|--------------------------------------------------------------|
E|--------------------------------------------------------------|
 |                                                              |
 |Guitar 2                                                      |
e|--------------------------------------------------------------|
B|-10-10-10-10-10/12-13\8---8\5-/10\6--6--5-8--8--8-/10/12~-----|
G|--------------------------------------------------------------|
D|--------------------------------------------------------------|
A|--------------------------------------------------------------|
E|--------------------------------------------------------------|

Guitar 1
e|-17p12----17p12----17p12----17p12----17p12----12--|
B|-------13-------13-------13-------13-------13-----|
G|--------------------------------------------------|
D|--------------------------------------------------|
A|--------------------------------------------------|
E|--------------------------------------------------|
 |                                                  |
 |Guitar 2                                          |
e|-12p8-----12p8-----12p8-----12p8-----12p8-----8---|
B|-------10-------10-------10-------10-------10-----|
G|--------------------------------------------------|
D|--------------------------------------------------|
A|--------------------------------------------------|
E|--------------------------------------------------|

Guitar 1
e|-15p12----15p12----15p12----15p12----15p12----12--|
B|-------13-------13-------13-------13-------13-----|
G|--------------------------------------------------|
D|--------------------------------------------------|
A|--------------------------------------------------|
E|--------------------------------------------------|
 |                                                  |
 |Guitar 2                                          |
e|-12p8-----12p8-----12p8-----12p8-----12p8-----8---|
B|-------8--------8--------8--------8--------8------|
G|--------------------------------------------------|
D|--------------------------------------------------|
A|--------------------------------------------------|
E|--------------------------------------------------|

Guitar 1
e|-17p13----17p13----17p13----17p13----17p13----13--|
B|-------15-------15-------15-------15-------15-----|
G|--------------------------------------------------|
D|--------------------------------------------------|
A|--------------------------------------------------|
E|--------------------------------------------------|
 |                                                  |
 |Guitar 2                                          |
e|-13p10----13p10----13p10----13p10----13p10----10--|
B|-------10-------10-------10-------10-------10-----|
G|--------------------------------------------------|
D|--------------------------------------------------|
A|--------------------------------------------------|
E|--------------------------------------------------|

Guitar 1
e|-15p12----15p12----15p12----15p12----15p12----12--|
B|-------13-------13-------13-------13-------13-----|
G|--------------------------------------------------|
D|--------------------------------------------------|
A|--------------------------------------------------|
E|--------------------------------------------------|
 |                                                  |
 |Guitar 2                                          |
e|-12p7-----12p7-----12p7-----12p7-----12p7-----7---|
B|-------8--------8--------8--------8--------8------|
G|--------------------------------------------------|
D|--------------------------------------------------|
A|--------------------------------------------------|
E|--------------------------------------------------|

Guitar 1
e|-17p12----17p12----17p12----17p12----17p12----12--|
B|-------13-------13-------13-------13-------13-----|
G|--------------------------------------------------|
D|--------------------------------------------------|
A|--------------------------------------------------|
E|--------------------------------------------------|
 |                                                  |
 |Guitar 2                                          |
e|-12p8-----12p8-----12p8-----12p8-----12p8-----8---|
B|-------10-------10-------10-------10-------10-----|
G|--------------------------------------------------|
D|--------------------------------------------------|
A|--------------------------------------------------|
E|--------------------------------------------------|

Guitar 1
e|-15p12----15p12----15p12----15p12----15p12----12--|
B|-------13-------13-------13-------13-------13-----|
G|--------------------------------------------------|
D|--------------------------------------------------|
A|--------------------------------------------------|
E|--------------------------------------------------|
 |                                                  |
 |Guitar 2                                          |
e|-12p8-----12p8-----12p8-----12p8-----12p8-----8---|
B|-------8--------8--------8--------8--------8------|
G|--------------------------------------------------|
D|--------------------------------------------------|
A|--------------------------------------------------|
E|--------------------------------------------------|

Guitar 1
e|-17p13----17p13----17p13----17p13----17p13----13--|
B|-------15-------15-------15-------15-------15-----|
G|--------------------------------------------------|
D|--------------------------------------------------|
A|--------------------------------------------------|
E|--------------------------------------------------|
 |                                                  |
 |Guitar 2                                          |
e|-13p10----13p10----13p10----13p10----13p10----10--|
B|-------10-------10-------10-------10-------10-----|
G|--------------------------------------------------|
D|--------------------------------------------------|
A|--------------------------------------------------|
E|--------------------------------------------------|

Guitar 1
e|-16h17p16p15-16h17p16p15-19h20p19p18--------------------|
B|----------------------------------------------13h14h15--|
G|-------------------------------------13h14h16-----------|
D|--------------------------------------------------------|
A|--------------------------------------------------------|
E|--------------------------------------------------------|
 |                                                        |
 |Guitar 2                                                |
e|-12h13p12p11-12h13p12p11-15h16p15p14--------------------|
B|--------------------------------------------------------|
G|--------------------------------------------------------|
D|--------------------------------------------------------|
A|--------------------------------------------------------|
E|--------------------------------------------------------|

Guitar 1
e|---------------------12121212/171717171717171717----------------------17-|
B|-10101010101313131313----------------------------1313131313/1818181818---|
G|-------------------------------------------------------------------------|
D|-------------------------------------------------------------------------|
A|-------------------------------------------------------------------------|
E|-------------------------------------------------------------------------|
 |                                                                         |
 |Guitar 2                                                                 |
e|-------------------------------------------------------------------------|
B|-------------------------------------------------------------------------|
G|-------------------------------------------------------------------------|
D|-2-22-2-22-2-xx-5-55-5-55-5-5-7-77-7-77-7-7------------------------------|
A|-0-00-0-00-0-xx-3-33-3-33-3-3-5-55-5-55-5-5-5-55-55----------------------|
E|--------------------------------------------3-33-33-5-7~-----------------|
     **   **        **   **   *   **   **   *   **

e|171717161616161616--------------------12121212/1717171717/19191919/202020|
B|------------------10101010101313131313-----------------------------------|
G|-------------------------------------------------------------------------|
D|-------------------------------------------------------------------------|
A|-------------------------------------------------------------------------|
E|-------------------------------------------------------------------------|
 |                                                                         |
 |Guitar 2                                                                 |
e|-------------------------------------------------------------------------|
B|-------------------------------------------------------------------------|
G|-------------------------------------------------------------------------|
D|-2-22-2-22-2-xx-5-55-5-55-5-5-7-77-7-77-7-xx9xx7xx10xx9------------------|
A|-0-00-0-00-0-xx-3-33-3-33-3-3-5-55-5-55-5-xx7xx5xx-8xx7------------------|
E|-------------------------------------------------------------------------|
     **   **        **   **   *   **   ** 

Guitar 1
e|20-20\19-19-19-19\11-11-11-11-11-----------------------------------------|
B|-------------------------------------------------------------------------|
G|-------------------------------------------------------------------------|
D|-------------------------------------------------------------------------|
A|-------------------------------------------------------------------------|
E|-------------------------------------------------------------------------|
 |                                                                         |
 |Guitar 2                                                                 |
e|-------------------------------------------------------------------------|
B|-------------------------------------------------------------------------|
G|-------------------------------------------------------------------------|
D|-2-22-2-22-2-xx-5-55-5-55-5-5-7-77-7-77-7-xx9xx7xx10xx9------------------|
A|-0-00-0-00-0-xx-3-33-3-33-3-3-5-55-5-55-5-xx7xx5xx-8xx7------------------|
E|-------------------------------------------------------------------------|
     **   **        **   **   *   **   ** 

e|-17-12---------12-19-12-17-12------12-19-12-17-12------12-17-12-16-12----|
B|------13----13---------------13--13--------------13--13--------------13--|
G|---------14--------------------14------------------14------------------13|
D|-------------------------------------------------------------------------|
A|-------------------------------------------------------------------------|
E|-------------------------------------------------------------------------|
 |                                                                         |
 |Guitar 2                                                                 |
e|-------------------------------------------------------------------------|
B|-------------------------------------------------------------------------|
G|-------------------------------------------------------------------------|
D|-------------------------------------------------------------------------|
A|-7---7-7-7-7---7---7-7-7-7---2--2-2---3--3-3-3-3---3---3-3-3-3---6---6-6-|
E|-5---5-5-5-5---5---5-5-5-5---0--0-0---1--1-1-1-1---1---1-1-1-1---4---4-4-|
       * * * *       * * * *      * *      * * * *       * * * *       * *

e|---12-16-12-----------------------12121212/171717\1212121313131111111212-|
B|-13----------10101010101313131313----------------------------------------|
G|-------------------------------------------------------------------------|
D|-------------------------------------------------------------------------|
A|-------------------------------------------------------------------------|
E|-------------------------------------------------------------------------|
 |                                                                         |
 |Guitar 2                                                                 |
e|-------------------------------------------------------------------------|
B|-------------------------------------------------------------------------|
G|-------------------------------------------------------------------------|
D|-------------------------------------------------------------------------|
A|-7---7-7-7-7---7---7-7-7-7---2--2-2---3--3-3-3-3---3---3-3-3-3---6---6-6-|
E|-5---5-5-5-5---5---5-5-5-5---0--0-0---1--1-1-1-1---1---1-1-1-1---4---4-4-|
       * * * *       * * * *      * *      * * * *       * * * *       * *

e|-------------------------------------------------------------------------|
B|12121212121213131313-----------------------------------------------------|
G|--------------------1313131313-14~---------------------------------------|
D|-------------------------------------------------------------------------|
A|-------------------------------------------------------------------------|
E|-------------------------------------------------------------------------|
 |                                                                         |
 |Guitar 2                                                                 |
e|-------------------------------------------------------------------------|
B|-------------------------------------------------------------------------|
G|-------------------------------------------------------------------------|
D|-------------------------------------------------------------------------|
A|-7---7-7-7-7---7---7-7-7-7---2--2-2---3--3-3-3-3---3---3-3-3-3---6---6-6-|
E|-5---5-5-5-5---5---5-5-5-5---0--0-0---1--1-1-1-1---1---1-1-1-1---4---4-4-|
       * * * *       * * * *      * *      * * * *       * * * *       * *

e|------------------------------------------------------12-15b17~----------|
B|-------------------12-15-15b17~--------------13-14-15--------------------|
G|-------------12-14---------------------13-14-----------------------------|
D|-------13-14---------------------13-14-----------------------------------|
A|-12-15-------------------------------------------------------------------|
E|-------------------------------------------------------------------------|
 |                                                                         |
 |Guitar 2                                                                 |
e|-------------------------------------------------------------------------|
B|-------------------------------------------------------------------------|
G|-------------------------------------------------------------------------|
D|-------------------------------------------------------------------------|
A|-7---7-7-7-7---7---7-7-7-7---2--2-2---3--3-3-3-3---3---3-3-3-3---6---6-6-|
E|-5---5-5-5-5---5---5-5-5-5---0--0-0---1--1-1-1-1---1---1-1-1-1---4---4-4-|
       * * * *       * * * *      * *      * * * *       * * * *       * *

e|----------------15-16-17-19b20r19-17-15b17r15-12-------------------------|
B|-------15-16-17----------------------------------15-13~-13-15-13~--------|
G|-14-17-------------------------------------------------------------------|
D|-------------------------------------------------------------------------|
A|-------------------------------------------------------------------------|
E|-------------------------------------------------------------------------|
 |                                                                         |
 |Guitar 2                                                                 |
e|-------------------------------------------------------------------------|
B|-------------------------------------------------------------------------|
G|-------------------------------------------------------------------------|
D|-------------------------------------------------------------------------|
A|-7-7777-7-7777-7-77-6-6666-6-6666-6-66-5-5555-5-5555-5-55-4-xx-3---------|
E|-5-5555-5-5555-5-55-4-4444-4-4444-4-44-3-3333-3-3333-3-33-2-xx-1---------|
     ****   ****   **   ****   ****   **   ****   ****   ** 

Guitar 1
e|-----------12-12--------------------12-13--------------------13-16b17~\--|
B|13h14h15h16-----12----------------12-----13----------------13------------|
G|------------------13------------13---------14------------14--------------|
D|--------------------14--------14-------------15--------15----------------|
A|----------------------15-12-15-----------------17-13-17------------------|
E|-------------------------------------------------------------------------|
 |                                                                         |
 |Guitar 2                                                                 |
e|-------------------------------------------------------------------------|
B|-------------------------------------------------------------------------|
G|-------------------------------------------------------------------------|
D|-xx9xx7xx10xx9xx---------------------------------------------------------|
A|-xx7xx5xx-8xx7xx-7-------------------------------------------------------|
E|-----------------5-------------------------------------------------------|


BREAKDOWN

Guitars 1 and 2
e|-------------------------------------------------------------------------|
B|-------------------------------------------------------------------------|
G|-------------------------------------------------------------------------|
D|-------------------------------------------------------------------------|
A|-2-2-2-2-2-2-2-2-2-2-2-2-2-2-2-2-2-2-2-2-2-2-2-2-2-2-2-2-2-2-2-2---------|
E|-0-0-0-0-0-0-0-0-0-0-0-0-0-0-0-0-0-0-0-0-0-0-0-0-0-0-0-0-0-0-0-0---------|
     * *   * *   *   * *   * *   *   * *   * *   *   * *   * *   *

Guitars 1 and 2
e|--------------------------------------------------------------------|
B|--------------------------------------------------------------------|
G|--------------------------------------------------------------------| 
D|--------------------------------------------------------------------|
A|-2-2-2-2-2-2-2-2-2-2-2-2-2-2-2-2-2-2-2-2-2-2-2-2-555-44-3-----------|
E|-0-0-0-0-0-0-0-0-0-0-0-0-0-0-0-0-0-0-0-0-0-0-0-0-333-22-1-----------|
     * *   * *   *   * *   * *   *   * *   * *   *   

Guitars 1 and 2
e|--------------------------------------------------------------------|
B|--------------------------------------------------------------------|
G|--------------------------------------------------------------------| 
D|--------------------------------------------------------------------|
A|-2-2-2-2-2-2-2-2-2-2-2-2-2-2-2-2-2-2-2-2-2-2-2-2-555-44-3-----------|
E|-0-0-0-0-0-0-0-0-0-0-0-0-0-0-0-0-0-0-0-0-0-0-0-0-333-22-1-----------|
     * *   * *   *   * *   * *   *   * *   * *   *   
Guitars 1 and 2
e|--------------------------------------------------------------------|
B|--------------------------------------------------------------------|
G|--------------------------------------------------------------------| 
D|--------------------------------------------------------------------|
A|-2-2-2-2-2-2-2-2-2-2-2-2-2-2-2-2-2-2-2-2-2-2-2-2-555-44-3-----------|
E|-0-0-0-0-0-0-0-0-0-0-0-0-0-0-0-0-0-0-0-0-0-0-0-0-333-22-1-----------|
     * *   * *   *   * *   * *   *   * *   * *   *   

Guitar 1
e|-------------------------------------------------------------------------|
B|-------------------------------------------------------------------------|
G|-------------------------------------------------------------------------|
D|-------------------------------------------------------------------------|
A|-------------------------------------------------------------------------|
E|-4-4-4-5-/7--5-5-5-7--8-----4-4-4-5-/7--5-5-5-7--8-----------------------|
 |                                                                         |
 |Guitar 2                                                                 |
e|-------------------------------------------------------------------------|
B|-------------------------------------------------------------------------|
G|-------------------------------------------------------------------------|
D|-------------------------------------------------------------------------|
A|-2-2-2-3-/5--3-3-3-5--7-----2-2-2-3-/5--3-3-3-5--7-----------------------|
E|-------------------------------------------------------------------------|


Guitars 1 and 2
e|--------------------------------------------------------------------|
B|--------------------------------------------------------------------|
G|--------------------------------------------------------------------| 
D|--------------------------------------------------------------------|
A|-2-2-2-2-2-2-2-2-2-2-2-2-2-2-2-2-2-2-2-2-2-2-2-2-555-44-3-----------|
E|-0-0-0-0-0-0-0-0-0-0-0-0-0-0-0-0-0-0-0-0-0-0-0-0-333-22-1-----------|
     * *   * *   *   * *   * *   *   * *   * *   *

Guitars 1 and 2
e|--------------------------------------------------------------------|
B|--------------------------------------------------------------------|
G|--------------------------------------------------------------------| 
D|--------------------------------------------------------------------|
A|-2-2-2-2-2-2-2-2-2-2-2-2-2-2-2-2-2-2-2-2-2-2-2-2-555-44-3-----------|
E|-0-0-0-0-0-0-0-0-0-0-0-0-0-0-0-0-0-0-0-0-0-0-0-0-333-22-1-----------|
     * *   * *   *   * *   * *   *   * *   * *   *   

e|-------------------------------------------------------------------------|
B|-------------------------------------------------------------------------|
G|-------------------------------------------------------------------------|
D|-------------------------------------------------------------------------|
A|-------------------------------------------------------------------------|
E|-4-4-4-5-/7--5-5-5-7--8-----4-4-4-5-/7--5-5-5-7--8-----------------------|
 |                                                                         |
 |Guitar 2                                                                 |
e|-------------------------------------------------------------------------|
B|-------------------------------------------------------------------------|
G|-------------------------------------------------------------------------|
D|-------------------------------------------------------------------------|
A|-2-2-2-3-/5--3-3-3-5--7-----2-2-2-3-/5--3-3-3-5--7-----------------------|
E|-------------------------------------------------------------------------|



SOLO II

Guitar 1
E|------------------------------------------------|
B|-15b17~-----15b17-15-13-------------------------|
G|------------------------15-14-12---14----12~----|
D|--------------------------------14----14---14\--|
A|------------------------------------------------|
E|------------------------------------------------|
 |                                                |
 |Guitar 3                                        |
e|------------------------------------------------|
B|------------------------------------------------|
G|------------------------------------------------|
D|------------------------------------------------|
A|-2--2--2--2--2--2--2--2--2--2--2--2--2--2--2--2-|
E|-0--0--0--0--0--0--0--0--0--0--0--0--0--0--0--0-|
      *  *     *  *     *     *  *     *  *     *

Guitar 1
E|---------------12-17-15-12-12-------------17-15-12-12-----18-15-------------|
B|----------12-15--------------15-12-------------------15-12-----17-17-15--15-|
G|-----12-15------------------------15-14-12-----------------------------16---|
D|12-14-----------------------------------------------------------------------|
A|----------------------------------------------------------------------------|
E|----------------------------------------------------------------------------|
 |                                                  __________________________/
 |Guitar 3                                         /
e|------------------------------------------------|
B|------------------------------------------------|
G|------------------------------------------------|
D|------------------------------------------------|
A|-2--2--2--2--2--2--2--2--2--2--2--2--2--2--2--2-|
E|-0--0--0--0--0--0--0--0--0--0--0--0--0--0--0--0-|
      *  *     *  *     *     *  *     *  *     *




Guitar 1
e|-----------19-18-------17-15~----------------------------------|
B|-/17----17-------17--------------------------------------------|
G|-----16-------------16-----------14-12-14-12-------14-13-12~---|
D|---------------------------------------------14-12-------------|
A|---------------------------------------------------------------|
E|---------------------------------------------------------------|
 |                                                               |
 |Guitar 2                                                       |
e|-----------15-14-------13-12~----------------------------------|
B|-/12----12-------12--------------------------------------------|
G|-----12-------------12-----------------------------------------|
D|---------------------------------------------------------------|
A|---------------------------------------------------------------|
E|---------------------------------------------------------------|
 |                                                  _____________/
 |Guitar 3                                         /
e|------------------------------------------------|
B|------------------------------------------------|
G|------------------------------------------------|
D|------------------------------------------------|
A|-2--2--2--2--2--2--2--2--2--2--2--2--2--2--2--2-|
E|-2--2--2--2--2--2--2--2--2--2--2--2--2--2--2--2-|
      *  *     *  *     *     *  *     *  *     *




Guitar 1
E|-----------19-18-------17-15~----18b---18b19~--------|
B|-/17----17-------17----------------------------------|
G|-----16-------------16-------------------------------|
D|-----------------------------------------------------|
A|-----------------------------------------------------|
E|-----------------------------------------------------|
 |                                                     |
 |Guitar 2                                             |
E|-----------15-14-------13-12~----14b---14b15~--------|
B|-/12----12-------12----------------------------------|
G|-----12-------------12-------------------------------|
D|-----------------------------------------------------|
A|-----------------------------------------------------|
E|-----------------------------------------------------|
 |                                                  ___/
 |Guitar 3                                         /
e|------------------------------------------------|
B|------------------------------------------------|
G|------------------------------------------------|
D|------------------------------------------------|
A|-2--2--2--2--2--2--2--2--2--2--2--2--2--2--2--2-|
E|-0--0--0--0--0--0--0--0--0--0--0--0--0--0--0--0-|
      *  *     *  *     *     *  *     *  *     *

Outro

e|-----------------------------------------|
B|-----------------------------------------|
G|-----------------------------------------| 
D|-----------------------------------------|
A|-2-----5-4-----3-2-----------------------|
E|-0-----3-2-----1-0----000-000-000--------|
                        *** *** ***

e|-----------------------------------------|
B|-----------------------------------------|
G|-----------------------------------------| 
D|-----------------------------------------|
A|-2-----5-4-----3-2-----------------------|
E|-0-----3-2-----1-0----000-000-000--------|
                        *** *** ***

e|-----------------------------------------|
B|-----------------------------------------|
G|-----------------------------------------| 
D|-----------------------------------------|
A|-2-----5-4-----3-2-----------------------|
E|-0-----3-2-----1-0----000-000-000--------|
                        *** *** ***

e|-----------------------------------------|
B|-----------------------------------------|
G|-----------------------------------------| 
D|-----------------------------------------|
A|-2-----5-4-----3-2-----------------------|
E|-0-----3-2-----1-0----000-000-000--------|
                        *** *** ***

e|-------------------------------------|
B|-------------------------------------|
G|-------------------------------------|
D|-------------------------------------|
A|-2-----5-4-----3-2-------------------|
E|-0-----3-2-----1-0----000000000000---|
                        ************

e|-------------------------------------|
B|-------------------------------------|
G|-------------------------------------|
D|-------------------------------------|
A|-2-----5-4-----3-2-------------------|
E|-0-----3-2-----1-0----000000000000---|
                        ************

e|-------------------------------------|
B|-------------------------------------|
G|-------------------------------------|
D|-------------------------------------|
A|-2-----5-4-----3-2-------------------|
E|-0-----3-2-----1-0----000000000000---|
                        ************

e|-------------------------------------|
B|-------------------------------------|
G|-------------------------------------|
D|-------------------------------------|
A|-2-----5-4-----3-2-------------------|
E|-0-----3-2-----1-0----000000000000---|
                        ************

e|----------------------------------------------------|
B|----------------------------------------------------|
G|----------------------------------------------------|
D|----------------------------------------------------|
A|-2-----5-4-----3-2----222-222-222-2-----5-4-----3-2-| 
E|-0-----3-2-----1-0----000-000-000-0-----3-2-----1-0-|
                        *** *** ***


============================================================================
Song #5: Natural Born Killer
Tuning: Dropped D
Length: 5:17
============================================================================

Intro

Guitar 2
e|-------------------------------------------------------------------------|
B|-------------------------------------------------------------------------|
G|-------------------------------------------------------------------------|
D|-------------------------------------------------------------------------|
A|-----------------------------------------------------8-/-11--------------|
D|--0-0-0-0-12---0-0-11---0-0-12---0-0-8---0-0-7---0-0-8-/-11--------------|
    * * * *      * *      * *      * *     * *     * *

Guitar 2
e|-------------------------------------------------------------------------|
B|-------------------------------------------------------------------------|
G|-------------------------------------------------------------------------|
D|-------------------------------------------------------------------------|
A|-----------------------------------------------------8-/-11--------------|
D|--0-0-0-0-12---0-0-11---0-0-12---0-0-8---0-0-7---0-0-8-/-11--------------|
    * * * *      * *      * *      * *     * *     * *

Guitar 2
e|-------------------------------------------------------------------------|
B|-------------------------------------------------------------------------|
G|-------------------------------------------------------------------------|
D|-------------------------------------------------------------------------|
A|-----------------------------------------------------8-/-11--------------|
D|--0-0-0-0-12---0-0-11---0-0-12---0-0-8---0-0-7---0-0-8-/-11--------------|
    * * * *      * *      * *      * *     * *     * *

Guitar 1
e|---____--___-____-------_____---____--___------____--____----------------|
B|--|    |  | |     |  / |       |     |   | /\ |    ||    ----------------|
G|--|____|  | |     | /  |_____  |     |__/ |__||____||____----------------|
D|--|       | |     |/\        | |     | \  |  ||     |    ----------------|
A|--|      _|_|____ |  \  _____| |____ |  \ |  ||     |____----------------|
D|-------------------------------------------------------------------------|
 |                                                                         |
 |Guitar 2                                                                 |
e|-------------------------------------------------------------------------|
B|-------------------------------------------------------------------------|
G|-------------------------------------------------------------------------|
D|-------------------------------------------------------------------------|
A|-----------------------------------------------------8-/-11--------------|
D|--0-0-0-0-12---0-0-11---0-0-12---0-0-8---0-0-7---0-0-8-/-11--------------|
    * * * *      * *      * *      * *     * *     * *

Guitars 1 and 2
e|-------------------------------------------------------------------------|
B|-------------------------------------------------------------------------|
G|-------------------------------------------------------------------------|
D|-------------------------------------------------------------------------|
A|-----------------------------------------------------8-/-11--------------|
D|--0-0-0-0-12---0-0-11---0-0-12---0-0-8---0-0-7---0-0-8-/-11--------------|
    * * * *      * *      * *      * *     * *     * *

Guitars 1 and 2
e|-------------------------------------------------------------------------|
B|-------------------------------------------------------------------------|
G|-------------------------------------------------------------------------|
D|-------------------------------------------------------------------------|
A|-----------------------------------------------------8-/-11--------------|
D|--0-0-0-0-12---0-0-11---0-0-12---0-0-8---0-0-7---0-0-8-/-11--------------|
    * * * *      * *      * *      * *     * *     * *

Guitars 1 and 2
e|-------------------------------------------------------------------------|
B|-------------------------------------------------------------------------|
G|-------------------------------------------------------------------------|
D|-------------------------------------------------------------------------|
A|-----------------------------------------------------8-/-11--------------|
D|--0-0-0-0-12---0-0-11---0-0-12---0-0-8---0-0-7---0-0-8-/-11--------------|
    * * * *      * *      * *      * *     * *     * *

Guitars 1 and 2
e|-------------------------------------------------------------------------|
B|-------------------------------------------------------------------------|
G|-------------------------------------------------------------------------|
D|-------------------------------------------------------------------------|
A|-----------------------------------------------------8-/-11--------------|
D|--0-0-0-0-12---0-0-11---0-0-12---0-0-8---0-0-7---0-0-8-/-11--------------|
    * * * *      * *      * *      * *     * *     * *


Guitar 1
e|-15-------------18-16-15--------15-------------------------------------------------|
B|---18-16-15-------------18-16-15--18-16-15-----16-15---------------------15---15-16|
G|-----------17-15--------------------------17-15-----17-15-14-----14-15-17---17-----|
D|------------------------------------------------------------17-17------------------|
A|-----------------------------------------------------------------------------------|
D|-----------------------------------------------------------------------------------|
 |                                                                                   |
 |Guitar 2                                                                           |
e|-----------------------------------------------------------------------------------|
B|-----------------------------------------------------------------------------------|
G|-----------------------------------------------------------------------------------|
D|-----------------------------------------------------------------------------------|
A|-----------------------------------------------------------------------------------|
D|----1----1----1----1----1----1----1----1----1----1----1----1----1----1----1----1---|
      *    *    *    *    *    *    *    *    *    *    *    *    *    *    *    *


Guitar 1
e|-15-------------18-16-15--------15-----------------------------------|
B|---18-16-15-------------18-16-15--18-16-15-----16-15-----------------|
G|-----------17-15--------------------------17-15-----17-15-14---------|
D|------------------------------------------------------------17-15-17-|
A|---------------------------------------------------------------------|
D|---------------------------------------------------------------------|
 |                                                                     |
 |Guitar 2                                                             |
e|---------------------------------------------------------------------|
B|---------------------------------------------------------------------|
G|---------------------------------------------------------------------|
D|---------------------------------------------------------------------|
A|---------------------------------------------------------------------|
D|----1---1---1---1---1---1---1---1---1---1---1---1---1----------------|
      *   *   *   *   *   *   *   *   *   *   *   *   *


Main Riff:

Guitar 1 and 2
e|-----------------------------------------------------------------------|
B|-----------------------------------------------------------------------|
G|-----------------------------------------------------------------------|
D|-----------------------------------------------------------------------|
A|--0--------------------------------------------------------------------|
D|--0---0-0-0-0-3p0-5p0-7p0-6p0-5p0-3p0-0-0-0-0-0-0-0-0-0000000000000000-|
        * * * *                         * * * * * * * * ****************

Guitar 1 and 2 
e|-----------------------------------------------------------------------|
B|-----------------------------------------------------------------------|
G|-----------------------------------------------------------------------|
D|-----------------------------------------------------------------------|
A|--0--------------------------------------------------------------------|
D|--0---0-0-0-0-3p0-5p0-7p0-6p0-5p0-3p0-0-0-0-0-0-0-0-0-0000000000000000-|
        * * * *                         * * * * * * * * ****************


Verse I:

e|------------------------------------------------------------------------|
B|------------------------------------------------------------------------|
G|------------------------------------------------------------------------|
D|-------------------------3-/-6------------------------------------------|
A|--0----------------------1-/-4------------------------------------------|
D|--0---0-0-0-0-0-0-0-0-0-0-----------------------------------------------|
        * * * * * * * * * *

e|------------------------------------------------------------------------|
B|------------------------------------------------------------------------|
G|------------------------------------------------------------------------|
D|-------------------------3-/-6------------------------------------------|
A|--0----------------------1-/-4------------------------------------------|
D|--0---0-0-0-0-0-0-0-0-0-0-----------------------------------------------|
        * * * * * * * * * *


e|--------------------------------------------------------------------------|
B|--------------------------------------------------------------------------|
G|--------------------------------------------------------------------------|
D|--------------------------------------------------------------------------|
A|--0-----------------------------------------------------------------------|
D|--0-0-0-0-0-0-0-0-0-0-0-0-0-0-0-0-5p0-7p0-8p0-7p0-5p0-7p0-5p0-7p0---------|



e|--------------------------------------------------------------------------|
B|--------------------------------------------------------------------------|
G|--------------------------------------------------------------------------|
D|--8----8----8--8----8----8--8----8----8--88888888-/-10--------------------|
A|--6----6----6--6----6----6--6----6----6--66666666-/-8---------------------|
D|--------------------------------------------------------------------------|
                                           ********


e|--------------------------------------------------------------------------|
B|--------------------------------------------------------------------------|
G|--------------------------------------------------------------------------|
D|--------------------------------------------------------------------------|
A|--0-----------------------------------------------------------------------|
D|--0--0-0-0-0-3p0-5p0-7p0-6p0-5p0-3p0-0-0-0-0-0-0-0-0-0000000000000000-----|
       * * * *                         * * * * * * * * ****************


e|--------------------------------------------------------------------------|
B|--------------------------------------------------------------------------|
G|--------------------------------------------------------------------------|
D|--8----8----8--8----8----8--8----8----8--88888888-/-10--------------------|
A|--6----6----6--6----6----6--6----6----6--66666666-/-8---------------------|
D|--------------------------------------------------------------------------|
                                           ********


e|-------------------------------------------------------------------------|
B|-------------------------------------------------------------------------|
G|-------------------------------------------------------------------------|
D|-------------------------------------------------------------------------|
A|--0----------------------------------------------------------------------|
D|--0--0-0-0-0-3p0-5p0-7p0-6p0-5p0-3p0-0-0-0-0-0-0-0-0-0000000000000000----|
       * * * *                         * * * * * * * * ****************


Bridge (clean)

Guitars 1 and 2
e|--------------------------------------------------------------------------|
B|--------------------------------------------------------------------------|
G|-10~~~~~~~~--7~~~~~~~~--10~~~~~~~--7~~~~~~~~--12~~~-13~~~-----------------|
D|-10~~~~~~~~--7~~~~~~~~--10~~~~~~~--7~~~~~~~~--12~~~-13~~~-----------------|
A|--8~~~~~~~~--5~~~~~~~~--8~~~~~~~~--5~~~~~~~~--10~~~-11~~~-----------------|
D|--8~~~~~~~~--5~~~~~~~~--8~~~~~~~~--5~~~~~~~~--10~~~-11~~~-----------------|


Chorus

Guitars 1 and 2
e|-----------------------------------------------|
B|-----------------------------------------------|
G|--7--7--7-7--9--9--9-9--10-10-1010-7--7--7-7---|
D|--7--7--7-7--7--7--7-7--8--8--8-8--5--5--5-5---|
A|--5--5--5-5--7--7--7-7--8--8--8-8--5--5--5-5---|
D|--0--0--0-0--7--7--7-7--8--8--8-8--5--5--5-5---|

Guitars 1 and 2
e|-----------------------------------------------|
B|-----------------------------------------------|
G|--7--7--7-7--9--9--9-9--10-10-1010-7--7--7-7---|
D|--7--7--7-7--7--7--7-7--8--8--8-8--5--5--5-5---|
A|--5--5--5-5--7--7--7-7--8--8--8-8--5--5--5-5---|
D|--0--0--0-0--7--7--7-7--8--8--8-8--5--5--5-5---|

Guitars 1 and 2
e|-----------------------------------------------|
B|-----------------------------------------------|
G|--7--7--7-7--9--9--9-9--10-10-1010-7--7--7-7---|
D|--7--7--7-7--7--7--7-7--8--8--8-8--5--5--5-5---|
A|--5--5--5-5--7--7--7-7--8--8--8-8--5--5--5-5---|
D|--0--0--0-0--7--7--7-7--8--8--8-8--5--5--5-5---|

Guitars 1 and 2
e|-----------------------------------------------|
B|-----------------------------------------------|
G|--7--7--7-7--9--9--9-9--10-10-1010-7--7--7-7---|
D|--7--7--7-7--7--7--7-7--8--8--8-8--5--5--5-5---|
A|--5--5--5-5--7--7--7-7--8--8--8-8--5--5--5-5---|
D|--0--0--0-0--7--7--7-7--8--8--8-8--5--5--5-5---|

e|-------------------------------------------------------------------------|
B|--15b=16==16==16==16==16==16==16==16==16==16==16==16r--------------------|
G|-------------------------------------------------------------------------|
D|-------------------------------------------------------------------------|
A|-------------------------------------------------------------------------|
D|-------------------------------------------------------------------------|
 |                                                                         |
 |Guitar 2                                                                 |
e|-------------------------------------------------------------------------|
B|-------------------------------------------------------------------------|
G|-------------------------------------------------------------------------|
D|--8--8----8--8----8--8----8--8----8--------------------------------------|
A|--6--6----6--6----6--6----6--6----6--------------------------------------|
D|-------------------------------------------------------------------------|

Main Riff:

Guitar 1 and 2
e|-----------------------------------------------------------------------|
B|-----------------------------------------------------------------------|
G|-----------------------------------------------------------------------|
D|-----------------------------------------------------------------------|
A|--0--------------------------------------------------------------------|
D|--0---0-0-0-0-3p0-5p0-7p0-6p0-5p0-3p0-0-0-0-0-0-0-0-0-0000000000000000-|
        * * * *                         * * * * * * * * ****************

Guitar 1 and 2 
e|-----------------------------------------------------------------------|
B|-----------------------------------------------------------------------|
G|-----------------------------------------------------------------------|
D|-----------------------------------------------------------------------|
A|--0--------------------------------------------------------------------|
D|--0---0-0-0-0-3p0-5p0-7p0-6p0-5p0-3p0-0-0-0-0-0-0-0-0-0000000000000000-|
        * * * *                         * * * * * * * * ****************


Verse II:

e|------------------------------------------------------------------------|
B|------------------------------------------------------------------------|
G|------------------------------------------------------------------------|
D|-------------------------3-/-6------------------------------------------|
A|--0----------------------1-/-4------------------------------------------|
D|--0---0-0-0-0-0-0-0-0-0-0-----------------------------------------------|
        * * * * * * * * * *

e|------------------------------------------------------------------------|
B|------------------------------------------------------------------------|
G|------------------------------------------------------------------------|
D|-------------------------3-/-6------------------------------------------|
A|--0----------------------1-/-4------------------------------------------|
D|--0---0-0-0-0-0-0-0-0-0-0-----------------------------------------------|
        * * * * * * * * * *


e|--------------------------------------------------------------------------|
B|--------------------------------------------------------------------------|
G|--------------------------------------------------------------------------|
D|--------------------------------------------------------------------------|
A|--0-----------------------------------------------------------------------|
D|--0-0-0-0-0-0-0-0-0-0-0-0-0-0-0-0-5p0-7p0-8p0-7p0-5p0-7p0-5p0-7p0---------|



e|--------------------------------------------------------------------------|
B|--------------------------------------------------------------------------|
G|--------------------------------------------------------------------------|
D|--8----8----8--8----8----8--8----8----8--88888888-/-10--------------------|
A|--6----6----6--6----6----6--6----6----6--66666666-/-8---------------------|
D|--------------------------------------------------------------------------|



e|--------------------------------------------------------------------------|
B|--------------------------------------------------------------------------|
G|--------------------------------------------------------------------------|
D|--------------------------------------------------------------------------|
A|--0-----------------------------------------------------------------------|
D|--0--0-0-0-0-3p0-5p0-7p0-6p0-5p0-3p0-0-0-0-0-0-0-0-0-0000000000000000-----|
       * * * *                         * * * * * * * * ****************


e|--------------------------------------------------------------------------|
B|--------------------------------------------------------------------------|
G|--------------------------------------------------------------------------|
D|--8----8----8--8----8----8--8----8----8--88888888-/-10--------------------|
A|--6----6----6--6----6----6--6----6----6--66666666-/-8---------------------|
D|--------------------------------------------------------------------------|



e|-------------------------------------------------------------------------|
B|-------------------------------------------------------------------------|
G|-------------------------------------------------------------------------|
D|-------------------------------------------------------------------------|
A|--0----------------------------------------------------------------------|
D|--0--0-0-0-0-3p0-5p0-7p0-6p0-5p0-3p0-0-0-0-0-0-0-0-0-0000000000000000----|
       * * * *                         * * * * * * * * ****************


Bridge I

Guitars 1 and 2
e|--------------------------------------------------------------------------|
B|--------------------------------------------------------------------------|
G|-10~~~~~~~~--7~~~~~~~~--10~~~~~~~--7~~~~~~~~--12~~~-13~~~-----------------|
D|-10~~~~~~~~--7~~~~~~~~--10~~~~~~~--7~~~~~~~~--12~~~-13~~~-----------------|
A|--8~~~~~~~~--5~~~~~~~~--8~~~~~~~~--5~~~~~~~~--10~~~-11~~~-----------------|
D|--8~~~~~~~~--5~~~~~~~~--8~~~~~~~~--5~~~~~~~~--10~~~-11~~~-----------------|

Guitars 1 and 2
e|-----------------------------------------------|
B|-----------------------------------------------|
G|--7--7--7-7--9--9--9-9--10-10-1010-7--7--7-7---|
D|--7--7--7-7--7--7--7-7--8--8--8-8--5--5--5-5---|
A|--5--5--5-5--7--7--7-7--8--8--8-8--5--5--5-5---|
D|--0--0--0-0--7--7--7-7--8--8--8-8--5--5--5-5---|

Guitars 1 and 2
e|-----------------------------------------------|
B|-----------------------------------------------|
G|--7--7--7-7--9--9--9-9--10-10-1010-7--7--7-7---|
D|--7--7--7-7--7--7--7-7--8--8--8-8--5--5--5-5---|
A|--5--5--5-5--7--7--7-7--8--8--8-8--5--5--5-5---|
D|--0--0--0-0--7--7--7-7--8--8--8-8--5--5--5-5---|

Guitars 1 and 2
e|-----------------------------------------------|
B|-----------------------------------------------|
G|--7--7--7-7--9--9--9-9--10-10-1010-7--7--7-7---|
D|--7--7--7-7--7--7--7-7--8--8--8-8--5--5--5-5---|
A|--5--5--5-5--7--7--7-7--8--8--8-8--5--5--5-5---|
D|--0--0--0-0--7--7--7-7--8--8--8-8--5--5--5-5---|

Guitars 1 and 2
e|-----------------------------------------------|
B|-----------------------------------------------|
G|--7--7--7-7--9--9--9-9--10-10-1010-7--7--7-7---|
D|--7--7--7-7--7--7--7-7--8--8--8-8--5--5--5-5---|
A|--5--5--5-5--7--7--7-7--8--8--8-8--5--5--5-5---|
D|--0--0--0-0--7--7--7-7--8--8--8-8--5--5--5-5---|

Guitars 1 and 2
e|-------------------------------------------------------------------------|
B|-------------------------------------------------------------------------|
G|-------------------------------------------------------------------------|
D|--8-8--8-8--8-8--8-8--8--------------------------------------------------|
A|--6-6--6-6--6-6--6-6--6--------------------------------------------------|
D|-------------------------------------------------------------------------|

Guitars 1 and 2
e|------------------------------------------------------------------------|
B|------------------------------------------------------------------------|
G|------------------------------------------------------------------------|
D|--5---0-1---8--8888-7-5-5553-2------------------------------------------|
A|--5---0-1---6--6666-5-3-5551-0------------------------------------------|
D|--5---0-1---------------------------------------------------------------| 

Outro

Guitars 1 and 2
e|------------------------------------------------------------------------|
B|------------------------------------------------------------------------|
G|------------------------------------------------------------------------|
D|--5---0-1---8--8888-7-5-5553-2------------------------------------------|
A|--5---0-1---6--6666-5-3-5551-0------------------------------------------|
D|--5---0-1---------------------------------------------------------------|

Guitars 1 and 2
e|------------------------------------------------------------------------|
B|------------------------------------------------------------------------|
G|------------------------------------------------------------------------|
D|--5---0-1---8--8888-7-5-5553-2------------------------------------------|
A|--5---0-1---6--6666-5-3-5551-0------------------------------------------|
D|--5---0-1---------------------------------------------------------------| 

Guitars 1 and 2
e|------------------------------------------------------------------------|
B|------------------------------------------------------------------------|
G|------------------------------------------------------------------------|
D|--5---0-1---8--8888-7-5-5553-2------------------------------------------|
A|--5---0-1---6--6666-5-3-5551-0------------------------------------------|
D|--5---0-1---------------------------------------------------------------|

Guitars 1 and 2
e|------------------------------------------------------------------------|
B|------------------------------------------------------------------------|
G|------------------------------------------------------------------------|
D|--5---0-1---8--8888-7-5-5553-2------------------------------------------|
A|--5---0-1---6--6666-5-3-5551-0------------------------------------------|
D|--5---0-1---------------------------------------------------------------| 

Guitars 1 and 2
e|------------------------------------------------------------------------|
B|------------------------------------------------------------------------|
G|------------------------------------------------------------------------|
D|--5---0-1---8--8888-7-5-5553-2------------------------------------------|
A|--5---0-1---6--6666-5-3-5551-0------------------------------------------|
D|--5---0-1---------------------------------------------------------------|

Guitars 1 and 2
e|------------------------------------------------------------------------|
B|------------------------------------------------------------------------|
G|------------------------------------------------------------------------|
D|--5---0-1---8--8888-7-5-5553-2------------------------------------------|
A|--5---0-1---6--6666-5-3-5551-0------------------------------------------|
D|--5---0-1---------------------------------------------------------------| 

Guitars 1 and 2
e|------------------------------------------------------------------------|
B|------------------------------------------------------------------------|
G|------------------------------------------------------------------------|
D|--5---0-1---8--8888-7-5-5553-2------------------------------------------|
A|--5---0-1---6--6666-5-3-5551-0------------------------------------------|
D|--5---0-1---------------------------------------------------------------|

Guitars 1 and 2
e|-------------------------------------------------------------------------|
B|-------------------------------------------------------------------------|
G|-------------------------------------------------------------------------|
D|--8-8--8-8--8-8--8-8--8-------1---1---1---1---1--------------------------|
A|--6-6--6-6--6-6--6-6--6-------1---1---1---1---1--------------------------|
D|------------------------------1---1---1---1---1--------------------------|



============================================================================
Song #6: So Far Away
Tuning: Standard
Length: 5:29
============================================================================

This song is just chords basically except for the solo so I'm putting the 
chords


Em:      G:       D:       Bm:     C:      Am:     E:      C7:
e|-0-|   e|-3-|   e|-2-|   e|-2-|  e|-0-|  e|-0-|  e|-0-|  e|-0-|
B|-0-|   B|-0-|   B|-3-|   B|-3-|  B|-1-|  B|-1-|  B|-0-|  B|-0-|
G|-0-|   G|-0-|   G|-2-|   G|-4-|  G|-0-|  G|-2-|  G|-1-|  G|-0-|
D|-2-|   D|-0-|   D|-0-|   D|-4-|  D|-2-|  D|-2-|  D|-2-|  D|-2-|
A|-2-|   A|-2-|   A|-0-|   A|-2-|  A|-3-|  A|-0-|  A|-2-|  A|-3-|
E|-0-|   E|-3-|   E|-2-|   E|-2-|  E|-0-|  E|-0-|  E|-0-|  E|-0-|

Em
Never feared for anything

Em
Never shamed but never free

G                      D
A life that healed the broken heart 

     Bm          C
With all that it could


Em                         
Lived the life so endlessly

Em
Saw beyond what others see

G                    D
I tried to heal your broken heart

     Bm         C
With all that I could


C
Will you stay?

D
Will you stay away forever?


Em                        G
How do i live without the ones i love?

Am                                Em        D
Time still turns the pages of the book it's burned

Em                    G
Place and time always on my mind

  Am                                C     D
I have so much to say but you're so far away



Em
Plans of what our futures hold

Em
Foolish lies of growin' old

   G                 D            Bm          C
It seems we're so invincible, the truth is so cold


Em
A final song, a last request

Em
A perfect chapter lay at rest

G              D             Bm          C
Now and then I try to find a place in my mind

      C
Where you can stay

D
You can stay awake forever



Em                        G
How do I live without the ones i love?

Am                                Em        D                         
Time still turns the pages of the book it's burned

Em                    G
Place and time always on my mind

  Am                                C     D
I have so much to say but you're so far away


E                C
Sleep tight, I'm not afraid

    Am                    C
The ones that we love are here with me

E          C   
Lay away a place for me

          D                            C
'Cause as soon as I'm done, I'll be on my way

   D
To live eternally


Solo I
e|-------------------------------------------------------------------------|
B|--------9--12-12b13r12--8------/10--10h12p10-----------------------------|
G|--/9--------------------------------------------/9-12-12/14-14b16r14-12--|
D|-------------------------------------------------------------------------|
A|-------------------------------------------------------------------------|
E|-------------------------------------------------------------------------|
Rhythm Chords:
     E             C              Am                 C



e|-----------------------------------------------------------------15b17r15|
B|--------9--12-12b13r12--8------/15-15-17-17--19--19-20-17-----15---------|
G|--/9---------------------------------------------------------------------|
D|-------------------------------------------------------------------------|
A|-------------------------------------------------------------------------|
E|-------------------------------------------------------------------------|
Rhythm Chords:
     E          C                 D                   C               D


e|-------------------------------------------------------------------------|
B|-19-15---17b19r17--------------------------------------------------------|
G|-------------------------------------------------------------------------|
D|-------------------------------------------------------------------------|
A|-------------------------------------------------------------------------|
E|-------------------------------------------------------------------------|
Rhythm Chords:
  (D)


Em                        G
How do I live without the ones i love?

Am                                Em        D                         
Time still turns the pages of the book it's burned

Em                    G
Place and time always on my mind

        Am                                 C       D
And the light you left remains but it's so hard to stay  

       Am                                C   D     Em~
When I have so much to say and you're so far away

  

Bridge (Done with a 12-string; chords written below for reference)

e|-0---------0-----2-------3-------------------------------------|
B|-----0-------0-------3-------3---1---------1-----0-------------|
G|-------0-------0---------------------2-------2-------0---2-----|
D|-2-------2-------0-------0-------------2-------2-------------0-|
A|---------------------------------0-------0-------2-------0-----|
E|---------------------------------------------------------------|
   Em              D       (G)     Am              G       D

e|---------------------------------------------------------------|
B|-----------------------------0---0-----------------------------|
G|-0---------0-----------------------------0~------0~------------|
D|-----2-------2---4---------4---------2~------2~----------------|
A|-------2-------2-----0---0-------3-----------------------------|
E|-0-------0-------2-----2---------------------------------------|
   Em              D               C7

e|-0---------0-----2-------3-------------------------------------|
B|-----0-------0-------3-------3---1---------1-----0-------------|
G|-------0-------0---------------------2-------2-------0---2-----|
D|-2-------2-------0-------0-------------2-------2-------------0-|
A|---------------------------------0-------0-------2-------0-----|
E|---------------------------------------------------------------|
   Em              D      (G)      Am              G       D

e|---------------------------------------------------------------|
B|-----------------------------0---0-----------------------------|
G|-0---------0-----------------------------0~------0~------------|
D|-----2-------2---4---------4---------2~------2~----------------|
A|-------2-------2-----0---0-------3-----------------------------|
E|-0-------0-------2-----2---------------------------------------|
   Em              D               C7

Solo II

e|--------------------------------------------------------------------|
B|--/17----19--20--13----12--10--12p10s8------------------------------|
G|------------------------------------------/11--/16-16\9-9/12--------|
D|--------------------------------------------------------------------|
A|--------------------------------------------------------------------|
E|--------------------------------------------------------------------|
Rhythm Chords:
     Em    D       Am    G   D         Em    D        C7

e|--------------------------------------------------------------------|
B|--/17----19--20--13----12--10--12p10s8------------------------------|
G|------------------------------------------/11--/16-16\9-9/12--------|
D|--------------------------------------------------------------------|
A|--------------------------------------------------------------------|
E|--------------------------------------------------------------------|
Rhythm Chords:
     Em    D       Am    G   D         Em    D        C


e|----------------------------|
B|----------------------------|
G|-/12--11---/16-16\9/12------|
D|----------------------------|
A|----------------------------|
E|----------------------------|
Rhythm Chords:
    Em  D        C

e|-------------------------------------------------------------------------|
B|--/17----19--20--13----12b13r12-10--12p10s8------------------------------|
G|-----------------------------------------------/11--/16-16\9-9/12--------|
D|-------------------------------------------------------------------------|
A|-------------------------------------------------------------------------|
E|-------------------------------------------------------------------------|
Rhythm Chords:
     Em    D       Am    G        D         Em    D        C

Lyrics:
I love you! You were ready! The pain is strong enough to despise!

e|-------------------------------------------------------------------|
B|--/17----19--20--13---15-17-15-13-15-12--12-13-10---12p10s8--------|
G|-------------------------------------------------------------------|
D|-------------------------------------------------------------------|
A|-------------------------------------------------------------------|
E|-------------------------------------------------------------------|
Rhythm Chords:
     Em    D       Am                  G         D          Em

Lyrics:
But I'll see you! When He lets me! Your pain is gone! Your hands are...

e|-------------------------------------------------------|
B|-------------------------------------------------------|
G|--/11--/16-16\9-9/12--12b13r12---11---/16-16\9-9/12----|
D|-------------------------------------------------------|
A|-------------------------------------------------------|
E|-------------------------------------------------------|
Rhythm Chords:
    D        C                Em   D        C

Lyrics:
...tied! So far away!


e|---------------------------------------------------------|
B|---------------------------------------------------------|
G|--/12---11---/16-16\9-9/12-----/12---11---/16-16\9-9/12--|
D|---------------------------------------------------------|
A|---------------------------------------------------------|
E|---------------------------------------------------------|
Rhythm Chords:
     Em   D        C              Em   D        C

Lyrics:
And I need you to know. So far away!


e|-------------------------------------------------------|
B|-------------------------------------------------------|
G|--/12--11--7/9~----------------------------------------|
D|-------------------------------------------------------|
A|-------------------------------------------------------|
E|-------------------------------------------------------|
Rhythm Chords:
     Em  D     C

Lyrics:
And I need you to, need you to know…


============================================================================
Song #7: God Hates Us
Tuning: Dropped D
Length: 5:19
============================================================================


Guitar 1 (Clean)
e|--5-------5-------3-------3-------1-------1-------0-------0-------|
B|----6-------6-------5-------5-------3-------3-------3-------3-----|
G|------7-------7-------5-------5-------2-------2-------3-------3---|
D|------------------------------------------------------------------|
A|------------------------------------------------------------------|
D|------------------------------------------------------------------|

e|-5-------5-------3-------3-------1-------1-------0-------0---0-1--|
B|---6-------6-------5-------5-------3-------3-------3-------1------|
G|-----7-------7-------5-------5-------2-------2-------3------------|
D|------------------------------------------------------------------|
A|------------------------------------------------------------------|
D|------------------------------------------------------------------|

Guitar 1 (Clean)
e|--5-------5-------3-------3-------1-------1-------0-------0-------|
B|----6-------6-------5-------5-------3-------3-------3-------3-----|
G|------7-------7-------5-------5-------2-------2-------3-------3---|
D|------------------------------------------------------------------|
A|------------------------------------------------------------------|
D|------------------------------------------------------------------|
 |                                                                  |
 |Guitar 2 (Clean)                                                  |
e|------------------------------------------------------------------|
B|-10\----------13-\8\-----/13----8-10\8-6-------6--6/8-6-----------|
G|-10\----------14-\9\-----/14----9-10\9-7-------7--7/9-7-7-----7/--|
D|--------------------------------------------------------8-----7/--|
A|------------------------------------------------------------------|
D|------------------------------------------------------------------|


e|-5-------5-------3-------3-------1-------1-------0-------0---0-1--|
B|---6-------6-------5-------5-------3-------3-------3-------1------|
G|-----7-------7-------5-------5-------2-------2-------3------------|
D|------------------------------------------------------------------|
A|------------------------------------------------------------------|
D|------------------------------------------------------------------|
 |                                                                  |
 |                                                                  |
e|------------------------------------------------------------------|
B|-10\----------13-\8\-----/13----8-10\8-6-------6--6/8-6-----------|
G|-10\----------14-\9\-----/14----9-10\9-7-------7--7/9-7-7---------|
D|--------------------------------------------------------8-----7---|
A|------------------------------------------------------------------|
D|------------------------------------------------------------------|

Guitar 1
e|-------------------------------------------------------------------|
B|-2-------2-------3-------3-------10-------5-------3-------3--------|
G|---0-------0-------0-------0--------0-------0-------0-------0------|
D|-----2-------2-------3-------3--------11\-----5-------3-------3----|
A|-------------------------------------------------------------------|
D|-------------------------------------------------------------------|
 |                                                                   |
 |Guitar 2                                                           |
e|-------------------------------------------------------------------|
B|---------------------------------10-------8-------6----------------|
G|-6-------6-7-9---12--10-9-10-----10-------9-------7----------------|
D|-7-------7-------12------------------------------------------------|
A|-------------------------------------------------------------------|
D|-------------------------------------------------------------------|
 |                                                                   |
 |Guitar 3 (Distorted in the background)                             |
e|-------------------------------------------------------------------|
B|-------------------------------------------------------------------|
G|---6~--------------7~------------14~------12b14r12-10~-------------|
D|-------------------------------------------------------------------|
A|-------------------------------------------------------------------|
D|-------------------------------------------------------------------|


e|---------------------------------------------------------|
B|-2-------2-------3------3-------10--------13-------------|
G|---0-------0-------0------0--------0---------0-----------|
D|-----2-------2-------3------3--------10--------14--------|
A|---------------------------------------------------------|
D|---------------------------------------------------------|
 |                                                         |
e|------------------15--13-12-13---------------------------|
B|-14-----14-15-17--15-------------13-------17-------------|
G|-14-----14-----------------------14-------17-------------|
D|---------------------------------------------------------|
A|---------------------------------------------------------|
D|---------------------------------------------------------|
 |                                                         |
e|---------------------------------------------------------|
B|---------------------------------------------------------|
G|-9~------9~--/10/12\10~----------/14~----/17~------------|
D|---------------------------------------------------------|
A|---------------------------------------------------------|
D|---------------------------------------------------------|

Main Riff I

Guitar 1 (Distorted)
e|------------------------------------------------------------------|
B|------------------------------------------------------------------|
G|------------------------------------------------------------------|
D|--7-------7--5--8-7-------7--5--8-7-------7--5--8-7-------7--5--8-|
A|--5-------5--3--6-5-------5--3--6-5-------5--3--6-5-------5--3--6-|
D|----000000--0--0----000000--0--0----000000--0--0----000000--0--0--|
 |    ******  *  *    ******  *  *    ******  *  *    ******  *  *  |
 |Guitar 2 (Distorted)                                              |
e|------------------------------------------------------------------|
B|--14b15~~~~~~~~~~~~~~~~~~~~~~~~~~~~~~~~~~~~~~~~~~~~~~~~~~~~~(15)\-|
G|------------------------------------------------------------------|
D|------------------------------------------------------------------|
A|------------------------------------------------------------------|
D|------------------------------------------------------------------|

Guitar 1 and 2
e|------------------------------------------------------------------|
B|------------------------------------------------------------------|
G|------------------------------------------------------------------|
D|--7-------7--5--8-7-------7--5--8-7-------7--5--8---------8--8--8-|
A|--5-------5--3--6-5-------5--3--6-5-------5--3--6-1--1--1/6--6--6-|
D|----000000--0--0----000000--0--0----000000--0--0--1--1--1/--------|
      ******  *  *    ******  *  *    ******  *  *

Guitar 1 and 2
e|------------------------------------------------------------------|
B|------------------------------------------------------------------|
G|------------------------------------------------------------------|
D|--7-------7--5--8-7-------7--5--8-7-------7--5--8---------8--8--8-|
A|--5-------5--3--6-5-------5--3--6-5-------5--3--6-1--1--1/6--6--6-|
D|----000000--0--0----000000--0--0----000000--0--0--1--1--1/--------|
      ******  *  *    ******  *  *    ******  *  *

Guitar 1 and 2
e|------------------------------------------------------------------|
B|------------------------------------------------------------------|
G|------------------------------------------------------------------|
D|--7-------7--5--8-7-------7--5--8-7-------7--5--8---------8--8--8-|
A|--5-------5--3--6-5-------5--3--6-5-------5--3--6-1--1--1/6--6--6-|
D|----000000--0--0----000000--0--0----000000--0--0--1--1--1/--------|
      ******  *  *    ******  *  *    ******  *  *


"Total Nightmare" Riff I
e|-----------------------------------------------------------|
B|-----------------------------------------------------------|
G|-----7-7-5/8-----10-10-10-8-7---------7-7-5/8--------------|
D|--0--x-x-x-x---0--x--x--x-x-x------0--x-x-x-x-----1-1-1-1--|
A|--0--5-5-3/6---0--8--8--8-6-5------0--5-5-3/6-----1-1-1-1--|
D|--0------------0-------------------0--------------1-1-1-1--|

e|-----------------------------------------------------------|
B|-----------------------------------------------------------|
G|-----7-7-5/8-----10-10-10-8-7---------7-7-5/8--------------|
D|--0--x-x-x-x---0--x--x--x-x-x------0--x-x-x-x-----1-1-1-1--|
A|--0--5-5-3/6---0--8--8--8-6-5------0--5-5-3/6-----1-1-1-1--|
D|--0------------0-------------------0--------------1-1-1-1--|


Verse I

e|-----------------------------------------------------------------------------|
B|-----------------------------------------------------------------------------|
G|-----------------------------------------------------------------------------|
D|-----------------------------------------------------------------------------|
A|-----------------------------------------------------------------------------|
D|-0-0-12-0-10-0-0-13-0-12-0-0-10-0-10-0-0-0-12-0-10-0-0-13-0-12-0-0-17-0-16-0-|

e|--------------------------------------------------------------------|
B|--------------------------------------------------------------------|
G|--------------------------------------------------------------------|
D|----------------------------------------------------------3--6--9---|
A|----------------------------------------------------------3--6--9---|
D|--0-0-12-0-10-0-0-13-0-12-0-0-10-0-10-0-0-0-12-0-10-0-0-0-3--6--9---|

e|-----------------------------------------------------------------------------|
B|-----------------------------------------------------------------------------|
G|-----------------------------------------------------------------------------|
D|-----------------------------------------------------------------------------|
A|-----------------------------------------------------------------------------|
D|-0-0-12-0-10-0-0-13-0-12-0-0-10-0-10-0-0-0-12-0-10-0-0-13-0-12-0-0-17-0-16-0-|

e|--------------------------------------------------------------------|
B|--------------------------------------------------------------------|
G|--------------------------------------------------------------------|
D|----------------------------------------------------------3--6--9---|
A|----------------------------------------------------------3--6--9---|
D|--0-0-12-0-10-0-0-13-0-12-0-0-10-0-10-0-0-0-12-0-10-0-0-0-3--6--9---|
 
Chorus I

Guitar 1 and 2
e|------------------------------|
B|------------------------------|
G|------------------------------|
D|--0-/6-3-3/9-6--3-6-3-3/9-6---|
A|--0-/6-3-3/9-6--3-6-3-3/9-6---|
D|--0-/6-3-3/9-6--3-6-3-3/9-6---|

e|------------------------------|
B|------------------------------|
G|------------------------------|
D|--0-/6-3-3/9-6--3-6-3-3/9-6---|
A|--0-/6-3-3/9-6--3-6-3-3/9-6---|
D|--0-/6-3-3/9-6--3-6-3-3/9-6---|

Guitar 1
e|-------------------------------------------------------|
B|-------------------------------------------------------|
G|-------------------------------------------------------|
D|-0---/6-----3----3s9---6------3----6--3---3s9----6-----|
A|-0---/6-----3----3s9---6------3----6--3---3s9----6-----|
D|-0---/6-----3----3s9---6------3----6--3---3s9----6-----|
 |                                                       |
 |Guitar 2                                               |
e|-------------------------------------------------------|
B|-6----9-----6----12----9------6----9--6---12-----9-----|
G|-8b---11b---8b---14b---11b----8b------8b--14b----11b---|
D|-------------------------------------------------------|
A|-------------------------------------------------------|
D|-------------------------------------------------------|

Guitar 1
e|-------------------------------------------------------|
B|-------------------------------------------------------|
G|-------------------------------------------------------|
D|-0---/6-----3----3s9---6------3----6--3---3s9----6-----|
A|-0---/6-----3----3s9---6------3----6--3---3s9----6-----|
D|-0---/6-----3----3s9---6------3----6--3---3s9----6-----|
 |                                                       |
 |Guitar 2                                               |
e|-------------------------------------------------------|
B|-6----9-----6----12----9------6----9--6---12-----9-----|
G|-8b---11b---8b---14b---11b----8b------8b--14b----11b---|
D|-------------------------------------------------------|
A|-------------------------------------------------------|
D|-------------------------------------------------------|
 |                                                       |
 |Guitar 3                                               |
e|-------------------------------------------------------|
B|-9----13----9----15----13-----9----13-9--/15-----13----|
G|-11b1-13b---11b--17b---15b----11b-----11b/17b----15b---|
D|-------------------------------------------------------|
A|-------------------------------------------------------|
D|-------------------------------------------------------|

"Total Nightmare" Riff II
e|-----------------------------------------------------------|
B|-----------------------------------------------------------|
G|-----7-7-5/8-----10-10-10-8-7---------7-7-5/8--------------|
D|--0--x-x-x-x---0--x--x--x-x-x------0--x-x-x-x-----1-1-1-1--|
A|--0--5-5-3/6---0--8--8--8-6-5------0--5-5-3/6-----1-1-1-1--|
D|--0------------0-------------------0--------------1-1-1-1--|

e|-----------------------------------------------------------|
B|-----------------------------------------------------------|
G|-----7-7-5/8-----10-10-10-8-7---------7-7-5/8--------------|
D|--0--x-x-x-x---0--x--x--x-x-x------0--x-x-x-x-----1-1-1-1--|
A|--0--5-5-3/6---0--8--8--8-6-5------0--5-5-3/6-----1-1-1-1--|
D|--0------------0-------------------0--------------1-1-1-1--|


Main Riff II

Guitar 1
e|------------------------------------------------------------------|
B|------------------------------------------------------------------|
G|------------------------------------------------------------------|
D|--7-------7--5--8-7-------7--5--8-7-------7--5--8---------8--8--8-|
A|--5-------5--3--6-5-------5--3--6-5-------5--3--6-1--1--1/6--6--6-|
D|----000000--0--0----000000--0--0----000000--0--0--1--1--1/--------|
 |    ******  *  *    ******  *  *    ******  *  *                  |
 |Guitar 2                                                          |
e|------------------------------------------------------------------|
B|------------------------------------------------------------------|
G|------------------------------------------------------------------|
D|--0~------------------------------------------------------8--8--8-|
A|--0~----------------------------------------------1--1--1/6--6--6-|
D|--0~----------------------------------------------1--1--1/--------|

Guitar 1 and 2
e|------------------------------------------------------------------|
B|------------------------------------------------------------------|
G|------------------------------------------------------------------|
D|--7-------7--5--8-7-------7--5--8-7-------7--5--8---------8--8--8-|
A|--5-------5--3--6-5-------5--3--6-5-------5--3--6-1--1--1/6--6--6-|
D|----000000--0--0----000000--0--0----000000--0--0--1--1--1/--------|
      ******  *  *    ******  *  *    ******  *  *

Guitar 1 and 2
e|------------------------------------------------------------------|
B|------------------------------------------------------------------|
G|------------------------------------------------------------------|
D|--7-------7--5--8-7-------7--5--8-7-------7--5--8---------8--8--8-|
A|--5-------5--3--6-5-------5--3--6-5-------5--3--6-1--1--1/6--6--6-|
D|----000000--0--0----000000--0--0----000000--0--0--1--1--1/--------|
      ******  *  *    ******  *  *    ******  *  *

Verse II: part A

Guitar 1 and 2
e|------------------------------------------------------------------|
B|------------------------------------------------------------------|
G|------------------------------------------------------------------|
D|--7-------7--5--8-7-------7--5--8-7-------7--5--8-7-------7--5--8-|
A|--5-------5--3--6-5-------5--3--6-5-------5--3--6-5-------5--3--6-|
D|----000000--0--0----000000--0--0----000000--0--0----000000--0--0--|
      ******  *  *    ******  *  *    ******  *  *    ******  *  *
Guitar 1 and 2
e|------------------------------------------------------------------|
B|------------------------------------------------------------------|
G|------------------------------------------------------------------|
D|--7-------7--5--8-7-------7--5--8-7-------7--5--8-7-------7--5--8-|
A|--5-------5--3--6-5-------5--3--6-5-------5--3--6-5-------5--3--6-|
D|----000000--0--0----000000--0--0----000000--0--0----000000--0--0--|
      ******  *  *    ******  *  *    ******  *  *    ******  *  *

Verse II: Part B

Guitar 1 and 2
e|-----------------------------------------------------------------------------|
B|-----------------------------------------------------------------------------|
G|-----------------------------------------------------------------------------|
D|-----------------------------------------------------------------------------|
A|-----------------------------------------------------------------------------|
D|-0-0-12-0-10-0-0-13-0-12-0-0-10-0-10-0-0-0-12-0-10-0-0-13-0-12-0-0-17-0-16-0-|

e|--------------------------------------------------------------------|
B|--------------------------------------------------------------------|
G|--------------------------------------------------------------------|
D|----------------------------------------------------------3--6--9---|
A|----------------------------------------------------------3--6--9---|
D|--0-0-12-0-10-0-0-13-0-12-0-0-10-0-10-0-0-0-12-0-10-0-0-0-3--6--9---|

e|-----------------------------------------------------------------------------|
B|-----------------------------------------------------------------------------|
G|-----------------------------------------------------------------------------|
D|-----------------------------------------------------------------------------|
A|-----------------------------------------------------------------------------|
D|-0-0-12-0-10-0-0-13-0-12-0-0-10-0-10-0-0-0-12-0-10-0-0-13-0-12-0-0-17-0-16-0-|

e|--------------------------------------------------------------------|
B|--------------------------------------------------------------------|
G|--------------------------------------------------------------------|
D|----------------------------------------------------------3--6--9---|
A|----------------------------------------------------------3--6--9---|
D|--0-0-12-0-10-0-0-13-0-12-0-0-10-0-10-0-0-0-12-0-10-0-0-0-3--6--9---|
 
Chorus II

Guitar 1 and 2
e|------------------------------|
B|------------------------------|
G|------------------------------|
D|--0-/6-3-3/9-6--3-6-3-3/9-6---|
A|--0-/6-3-3/9-6--3-6-3-3/9-6---|
D|--0-/6-3-3/9-6--3-6-3-3/9-6---|

e|------------------------------|
B|------------------------------|
G|------------------------------|
D|--0-/6-3-3/9-6--3-6-3-3/9-6---|
A|--0-/6-3-3/9-6--3-6-3-3/9-6---|
D|--0-/6-3-3/9-6--3-6-3-3/9-6---|

Guitar 1
e|-------------------------------------------------------|
B|-------------------------------------------------------|
G|-------------------------------------------------------|
D|-0---/6-----3----3s9---6------3----6--3---3s9----6-----|
A|-0---/6-----3----3s9---6------3----6--3---3s9----6-----|
D|-0---/6-----3----3s9---6------3----6--3---3s9----6-----|
 |                                                       |
 |Guitar 2                                               |
e|-------------------------------------------------------|
B|-6----9-----6----12----9------6----9--6---12-----9-----|
G|-8b---11b---8b---14b---11b----8b------8b--14b----11b---|
D|-------------------------------------------------------|
A|-------------------------------------------------------|
D|-------------------------------------------------------|

Guitar 1
e|-------------------------------------------------------|
B|-------------------------------------------------------|
G|-------------------------------------------------------|
D|-0---/6-----3----3s9---6------3----6--3---3s9----6-----|
A|-0---/6-----3----3s9---6------3----6--3---3s9----6-----|
D|-0---/6-----3----3s9---6------3----6--3---3s9----6-----|
 |                                                       |
 |Guitar 2                                               |
e|-------------------------------------------------------|
B|-6----9-----6----12----9------6----9--6---12-----9-----|
G|-8b---11b---8b---14b---11b----8b------8b--14b----11b---|
D|-------------------------------------------------------|
A|-------------------------------------------------------|
D|-------------------------------------------------------|
 |                                                       |
 |Guitar 3                                               |
e|-------------------------------------------------------|
B|-9----13----9----15----13-----9----13-9--/15-----13----|
G|-11b1-13b---11b--17b---15b----11b-----11b/17b----15b---|
D|-------------------------------------------------------|
A|-------------------------------------------------------|
D|-------------------------------------------------------|


"Total Nightmare" Riff III

Guitar 1 and 2
e|-----------------------------------------------------------|
B|-----------------------------------------------------------|
G|-----7-7-5/8-----10-10-10-8-7---------7-7-5/8--------------|
D|--0--x-x-x-x---0--x--x--x-x-x------0--x-x-x-x-----1-1-1-1--|
A|--0--5-5-3/6---0--8--8--8-6-5------0--5-5-3/6-----1-1-1-1--|
D|--0------------0-------------------0--------------1-1-1-1--|

e|-----------------------------------------------------------|
B|-----------------------------------------------------------|
G|-----7-7-5/8-----10-10-10-8-7---------7-7-5/8--------------|
D|--0--x-x-x-x---0--x--x--x-x-x------0--x-x-x-x-----1-1-1-1--|
A|--0--5-5-3/6---0--8--8--8-6-5------0--5-5-3/6-----1-1-1-1--|
D|--0------------0-------------------0--------------1-1-1-1--|

Breakdown  

Guitar 1
e|-----------------------------------------------------------------------------|
B|-----------------------------------------------------------------------------|
G|----------------------------------------------[0]----------------------------|
D|-----------------------------------------------------------------------------|
A|-0-0-0-0---0-0-0---0-0-0-0---0-0-0----0--0--0------0-0-0---0-0-0-0---0-0-0---|
D|-0-0-0-0---0-0-0---0-0-0-0---0-0-0----0--0--0------0-0-0---0-0-0-0---0-0-0---|
 | * * * *   * * *   * * * *   * * *    *  *  *      * * *   * * * *   * * *   |
 |Guitar 2                                                                     |
e|-----------------------------------------------------------------------------|
B|-----------------------------------------------------------------------------|
G|-----------------------------------------------------------------------------|
D|----------------------------------------------[0]----------------------------|
A|-0-0-0-0---0-0-0---0-0-0-0---0-0-0----0--0--0------0-0-0---0-0-0-0---0-0-0---|
D|-0-0-0-0---0-0-0---0-0-0-0---0-0-0----0--0--0------0-0-0---0-0-0-0---0-0-0---|
   * * * *   * * *   * * * *   * * *    *  *  *      * * *   * * * *   * * *  

Verse III

e|------------------------------------------------------------------------------|
B|------------------------------------------------------------------------------|
G|------------------------------------------------------------------------------|
D|------------------------------------------------------------------------------|
A|------------------------------------------------------------------------------|
D|-0-0-12-0-10-0-0-13-0-12-0-0-10-0-10-12-0-0-12-0-10-0-0-13-0-12-0-0-17-0-[16]-|

e|--------------------------------------------------------------------|
B|--------------------------------------------------------------------|
G|--------------------------------------------------------------------|
D|----------------------------------------------------------3--6--9---|
A|----------------------------------------------------------3--6--9---|
D|---0-12-0-10-0-0-13-0-12-0-0-10-0-10-12-0-0-12-0-10-0-0-0-3--6--9---|

Solo (in the background, the chorus riff is played repeatedly)

Guitar 1
E|--10----13----10----16---16----10--13----10----16---16--|
B|--13b---16b---13b---19b--19b---13b-16b---13b---19b--19b-|
G|--------------------------------------------------------|
D|--------------------------------------------------------|
A|--------------------------------------------------------|
D|--------------------------------------------------------|

E|--10----13----10----16---16----10--13----10----16---16--|
B|--13b---16b---13b---19b--19b---13b-16b---13b---19b--19b-|
G|--------------------------------------------------------|
D|--------------------------------------------------------|
A|--------------------------------------------------------|
D|--------------------------------------------------------|

Guitar 1
E|-----------13-----------------13-------16------13-----|
B|--15----------15\----15----------15\------18/-----15\-|
G|-----13/----------------13/---------------------------|
D|------------------------------------------------------|
A|------------------------------------------------------|
D|------------------------------------------------------|
 |                                                      |
 |Guitar 2                                              |
e|------------------------------------------------------|
B|-----------15-----------------15---------------15-----|
G|--16----------16-----16----------16----16---------16--|
D|-----15-----------------15----------------15----------|
A|------------------------------------------------------|
D|------------------------------------------------------|

E|-13-----------16-13-------13---------16-13-------16-13-------13-------|
B|----15-12-----------15-------15-12---------15----------15-12----15-12-|
G|----------------------------------------------------------------------|
D|----------------------------------------------------------------------|
A|----------------------------------------------------------------------|
D|----------------------------------------------------------------------|
 |                                                                      |
E|----------------------------------------------------------------------|
B|-15-----------17-15-------15---------17-15-------17-15-------15-------|
G|----16-13-----------16-------16-13---------16----------16-13----16-13-|
D|----------------------------------------------------------------------|
A|----------------------------------------------------------------------|
D|----------------------------------------------------------------------|

Guitar 1
E|---------------|
B|---------------|
G|-1/7\---7b-----|
D|---------------|
A|---------------|
D|---------------|

E|---------------------------------------------------|
B|--------------------------------------2b--9\--9*---|
G|-----------12-13-15-13-12----12-13-15--------------|
D|--12-14-15----------------15-----------------------|
A|---------------------------------------------------|
D|---------------------------------------------------|

E|--16-13-16-13-------13-10-13-10-------16-13-19-13-------13-10-16-10------|
B|--------------15-15-------------12-12-------------15-15-------------12-12|
G|-------------------------------------------------------------------------|
D|-------------------------------------------------------------------------|
A|-------------------------------------------------------------------------|
D|-------------------------------------------------------------------------|

E|-19-16-19-16-------16-13-16-13-------------|
B|-------------18-18-------------15-15\12\---|
G|-------------------------------------------|
D|-------------------------------------------|
A|-------------------------------------------|
D|-------------------------------------------|

E|-------------------------------------------------------------------------|
B|--------------------------------------------------18-18-18-18-15-15-15-15|
G|--------------------------14-14-14-14-13-13-13-13------------------------|
D|--12-12-12-12-15-15-15-15------------------------------------------------|
A|-------------------------------------------------------------------------|
D|-------------------------------------------------------------------------|

E|--------------------------------------------------------------15-17-18-20--|
B|-18-18-18-18-18-18-18-18-18-18-18-18--------------14-15-17-18--------------|
G|--------------------------------------13-14-15-17--------------------------|
D|---------------------------------------------------------------------------|
A|---------------------------------------------------------------------------|
D|---------------------------------------------------------------------------|

E|-21b~-|
B|------|
G|------|
D|------|
A|------|
D|------|

"Total Nightmare" Riff IV

Guitar 1
e|-----------------------------------------------------------|
B|-----------------------------------------------------------|
G|-----7-7-5/8-----10-10-10-8-7---------7-7-5/8--------------|
D|--0--x-x-x-x---0--x--x--x-x-x------0--x-x-x-x-----1-1-1-1--|
A|--0--5-5-3/6---0--8--8--8-6-5------0--5-5-3/6-----1-1-1-1--|
D|--0------------0-------------------0--------------1-1-1-1--|

e|-----------------------------------------------------------|
B|-----------------------------------------------------------|
G|-----7-7-5/8-----10-10-10-8-7---------7-7-5/8--------------|
D|--0--x-x-x-x---0--x--x--x-x-x------0--x-x-x-x-----1-1-1-1--|
A|--0--5-5-3/6---0--8--8--8-6-5------0--5-5-3/6-----1-1-1-1--|
D|--0------------0-------------------0--------------1-1-1-1--|

e|-----------------------------------------------------------|
B|-----------------------------------------------------------|
G|-----7-7-5/8-----10-10-10-8-7---------7-7-5/8--------------|
D|--0--x-x-x-x---0--x--x--x-x-x------0--x-x-x-x-----1-1-1-1--|
A|--0--5-5-3/6---0--8--8--8-6-5------0--5-5-3/6-----1-1-1-1--|
D|--0------------0-------------------0--------------1-1-1-1--|

e|------------------------------------------------------------|
B|------------------------------------------------------------|
G|-----7-7-5/8-----10-10-10-8-7---------7-7-5/8---------------|
D|--0--x-x-x-x---0--x--x--x-x-x------0--x-x-x-x-----1-1-1-1-0~|
A|--0--5-5-3/6---0--8--8--8-6-5------0--5-5-3/6-----1-1-1-1-0~|
D|--0------------0-------------------0--------------1-1-1-1-0~|


Outro

Guitar 1 (Clean)
e|--5-------5-------3-------3-------1-------1-------0-------0-------|
B|----6-------6-------5-------5-------3-------3-------3-------3-----|
G|------7-------7-------5-------5-------2-------2-------3-------3---|
D|------------------------------------------------------------------|
A|------------------------------------------------------------------|
D|------------------------------------------------------------------|
 |                                                                  |
 |Guitar 2 (Clean)                                                  |
e|------------------------------------------------------------------|
B|-10\----------13-\8\-----/13----8-10\8-6-------6--6/8-6-----------|
G|-10\----------14-\9\-----/14----9-10\9-7-------7--7/9-7-7-----7/--|
D|--------------------------------------------------------8-----7/--|
A|------------------------------------------------------------------|
D|------------------------------------------------------------------|

Repeat until fade-out



============================================================================
Song #8: Victim
Tuning: Standard
Length: 7:31
============================================================================



Intro
e|------------------------------------------------------|
B|---------6--4--3~---------------6--4--3~----3-4-3-----|
G|-------5----------------------5-----------------------|
D|-----5----------------5-----5---------------------3---|
A|-3----------------------3-----------------------------|
E|---3----------------------3---------------------------|

e|------------------------------------------------------|
B|---------6--4--3~---------------6--4--3~----3-4-3-----|
G|-------5----------------------5-----------------------|
D|-5---5----------------------5---------------------3---|
A|------------------------3-----------------------------|
E|---3----------------------3---------------------------|

e|------------------------------------------------------|
B|---------6--4--3~---------------6--4--3~----3-4-3-----|
G|-------5----------------------5-----------------------|
D|-5---5----------------------5---------------------3---|
A|------------------------3-----------------------------|
E|---3----------------------3---------------------------|

e|------------------------------------------------------|
B|---------6--4--3~---------------6--4--3~----3-4-3-----|
G|-------5----------------------5-----------------------|
D|-5---5----------------------5---------------------3---|
A|------------------------3-----------------------------|
E|---3----------------------3---------------------------|

Lead:
e|------------------------------------------------------------------------------------------|
B|--8----8-9-8-------8-9-11--9-8---8-9-11-------------4----4---4---4---4--------6p4-6p4---4-|
G|--8----8-----8-----8-------------8------------------5----5-5-----5-5------------------5---|
D|--8------------8------------------------------------5----5-------5------------------------|
A|--6-------------------------------------------------3----3-------3------------------------|
E|------------------------------------------------------------------------------------------|
Rhythm Chords (since it's in dropped-D don't play the top string in the 
chords):
    D#                                                Cm

Bridge I

e|----------------------------------------------------8-|
B|--9p8-----9p8-9-8-------------4/-8--------------------|
G|--8--------------------------------------------5/8----|
D|--8---------------------------------------------------|
A|--6---------------------------------------------------|
E|------------------------------------------------------|
Rhythm Chords
    D#

Guitar 1
e|------------------------------------------------------|
B|---------6--4--3~---------------6--4--3~----3-4-3-----|
G|-------5----------------------5-----------------------|
D|-----5----------------5-----5---------------------3---|
A|-3----------------------3-----------------------------|
E|---3----------------------3---------------------------|
 |                                                      |
 |Guitar 2                                              |
e|-----------------8/10---10\8--------------------------|
B|------------------------------------------------------|
G|-----------------5/7-----7\5--------------------------|
D|------------------------------------------------------|
A|------------------------------------------------------|
E|------------------------------------------------------|

e|------------------------------------------------------|
B|---------6--4--3~---------------6--4--3~----3-4-3-----|
G|-------5----------------------5-----------------------|
D|-5---5----------------------5---------------------3---|
A|------------------------3-----------------------------|
E|---3----------------------3---------------------------|
 |                                                      |
 |Guitar 2                                              |
e|-----------------8-------10---------11----------------|
B|------------------------------------------------------|
G|-------------8-8---8-8/10---10-10/12------------------|
D|------------------------------------------------------|
A|------------------------------------------------------|
E|------------------------------------------------------|


Verse I

C                     G#
House full of roses A letter on the stairs

C                           G#
I tape all of messages  For anyone who cares

Bb                       G#
Closure broken words And stories full of tears

Bb                          G#
Remembering your life Cause we wish you were here

C                         G#
Nothing is harder than to wake up all alone

C                             G#
Realize its not okay, its the end of all you've known

Bb                           G#
Time keeps passing by but it seems I'm frozen still

Bb                        G#
Scars are left behind but some too deep to feel


Chorus I 

Guitars 1 and 2 
e|-----------------------------------------------------------------------|
B|-----------------------------------------------------------------------|
G|---5-5---5-5-5-5-5---5-5-5-5-5-5-5-5-5---5-5-5-5-5---5-5-5-5-5-5-5-----|
D|---5-5---5-5-5-5-5---5-5-5-5-5-5-5-5-5---5-5-5-5-5---5-5-5-5-5-5-5-----|
A|---3-3---3-3-3-3-3---3-3-3-3-3-3-3-3-3---3-3-3-3-3---3-3-3-3-3-3-3-----|
E|-----------------------------------------------------------------------|


e|------------------------------------------------------------------|
B|------------------------------------------------------------------|
G|---3-3----3-3-3-3-3---3-3-3-3-3-3-3-8---8-------------------------|
D|---3-3----3-3-3-3-3---3-3-3-3-3-3-3-8---8---x-5---5-5-5-5-5-5-----|
A|---1-1----1-1-1-1-1---1-1-1-1-1-1-1-6---6---x-5---5-5-5-5-5-5-----|
E|--------------------------------------------x-3---3-3-3-3-3-3-----|


e|-----------------------------------------------------------------------|
B|-----------------------------------------------------------------------|
G|---5-5---5-5-5-5-5---5-5-5-5-5-5-5-5-5---5-5-5-5-5---5-5-5-5-5-5-5-----|
D|---5-5---5-5-5-5-5---5-5-5-5-5-5-5-5-5---5-5-5-5-5---5-5-5-5-5-5-5-----|
A|---3-3---3-3-3-3-3---3-3-3-3-3-3-3-3-3---3-3-3-3-3---3-3-3-3-3-3-3-----|
E|-----------------------------------------------------------------------|


e|---------------------------------------------------|
B|---------------------------------------------------|
G|---3-3----3-3-3-3-3---3-3-3-3-3-3-3-8---8----------|
D|---3-3----3-3-3-3-3---3-3-3-3-3-3-3-8---8---x-5----|
A|---1-1----1-1-1-1-1---1-1-1-1-1-1-1-6---6---x-5----|
E|--------------------------------------------x-3----|


Bridge II

Guitar 1
e|------------------------------------------------------|
B|---------6--4--3~-------------------------------------|
G|-------5----------------------------------------------|
D|-5---5------------------------------------------------|
A|------------------------------------------------------|
D|---3--------------------------------------------------|
 |                                                      |
 |Guitar 2                                              |
e|-----------------8-------10---------12----------------|
B|------------------------------------------------------|
G|-------------7-8---8-8/10---10-10/12------------------|
D|------------------------------------------------------|
A|------------------------------------------------------|
E|------------------------------------------------------|

Verse II

C                             G#
Some days you'll find me in a place I like to go

C                                 G#
Ask questions to myself about the things I'll never know

Bb                               G#
What's left here to find cause I need a little more

Bb                           G#
I need a little time, can we even up the score?



Chorus II

Guitars 1 and 2 
e|-----------------------------------------------------------------------|
B|-----------------------------------------------------------------------|
G|---5-5---5-5-5-5-5---5-5-5-5-5-5-5-5-5---5-5-5-5-5---5-5-5-5-5-5-5-----|
D|---5-5---5-5-5-5-5---5-5-5-5-5-5-5-5-5---5-5-5-5-5---5-5-5-5-5-5-5-----|
A|---3-3---3-3-3-3-3---3-3-3-3-3-3-3-3-3---3-3-3-3-3---3-3-3-3-3-3-3-----|
E|-----------------------------------------------------------------------|


e|------------------------------------------------------------------|
B|------------------------------------------------------------------|
G|---3-3----3-3-3-3-3---3-3-3-3-3-3-3-8---8-------------------------|
D|---3-3----3-3-3-3-3---3-3-3-3-3-3-3-8---8---x-5---5-5-5-5-5-5-----|
A|---1-1----1-1-1-1-1---1-1-1-1-1-1-1-6---6---x-5---5-5-5-5-5-5-----|
E|--------------------------------------------x-3---3-3-3-3-3-3-----|


e|-----------------------------------------------------------------------|
B|-----------------------------------------------------------------------|
G|---5-5---5-5-5-5-5---5-5-5-5-5-5-5-5-5---5-5-5-5-5---5-5-5-5-5-5-5-----|
D|---5-5---5-5-5-5-5---5-5-5-5-5-5-5-5-5---5-5-5-5-5---5-5-5-5-5-5-5-----|
A|---3-3---3-3-3-3-3---3-3-3-3-3-3-3-3-3---3-3-3-3-3---3-3-3-3-3-3-3-----|
E|-----------------------------------------------------------------------|


e|---------------------------------------------------|
B|---------------------------------------------------|
G|---3-3----3-3-3-3-3---3-3-3-3-3-3-3-8---8----------|
D|---3-3----3-3-3-3-3---3-3-3-3-3-3-3-8---8---x-5----|
A|---1-1----1-1-1-1-1---1-1-1-1-1-1-1-6---6---x-5----|
E|--------------------------------------------x-3----|


Solo I

Guitar 1
e|----------------------------------------------------|
B|--12b13~~~~~~~~~~~~~~~~~~~~~~~~~~~13-15-16-15-13----|
G|-------------------------------------------------12-|
D|----------------------------------------------------|
A|----------------------------------------------------|
E|----------------------------------------------------|
 |                                                    |
 |Guitar 2                                            |
e|----------------------------------------------------|
B|----------------------------------------------------|
G|----------------------------------------------------|
D|--5-------5--x-x-3--5-------5-----5--7--8--7--5-----|
A|--3-------3--x-x-1--3-------3-----3--5--6--5--3--5--|
E|-------------------------------------------------3--|


e|------------------------------------------------|
B|------------------------------------------------|
G|-15---13---\8---10---12---13-12-10-12-10----10--|
D|-----------------------------------------13-----|
A|------------------------------------------------|
E|------------------------------------------------|
 |                                                |
e|------------------------------------------------|
B|------------------------------------------------|
G|------------------------------------------------|
D|------------------------------------------------|
A|-8----6--x--6--6-----x-x-6----x-x-6--x-x-6--x-x-|
E|-6----4--x--4--4-----x-x-4----x-x-4--x-x-4--x-x-|

e|-----------------------------------------------------------------------------|
B|-------13-16-18b20~~--b21-18-13-16b18---13h16p13----13-----------------------|
G|-------------------------------------------------15----15-12-------15b17-b17~|
D|-13-15-------------------------------------------------------15-13-----------|
A|-----------------------------------------------------------------------------|
E|-----------------------------------------------------------------------------|
 |                                                                              |
e|-----------------------------------------------------------------------------|
B|-----------------------------------------------------------------------------|
G|-----------------------------------------------------------------------------|
D|-x------3------3------x----3----3------x----3------x--x----3----3----x-------|
A|-x------3------3------x----3----3------x----3------x--x----3----3----x-------|
E|-x------1------1------x----1----1------x----1------x--x----1----1----x-------|

e|------------------------------------------------------------------------------|
B|------------------------------------------------------------------------------|
G|-3-------3-----x-x---1---3-----3-------3-------1---3---6-------3--------------|
D|-3-------3-----x-x---1---3-----3-------3-------1---3---6-------3--------------|
A|-3-------3-----x-x---1---3-----3-------3-------1---3---6-------3--------------|
E|------------------------------------------------------------------------------|
 |                                                                              |
e|--------------15-16-15---------------15-16-15---------------15-16-18b20~~~~~--|
B|-----15-16-18---------------15-16-18---------------15-16-18-------------------|
G|--17---------------------17---------------------17----------------------------|
D|------------------------------------------------------------------------------|
A|------------------------------------------------------------------------------|
E|------------------------------------------------------------------------------|


Verse III

Cm                  G#                         D#
nothing lasts forever for all good things its true 

                         G                Cm
I'd rather trade it all  somehow saving you 

                   G#                           D#
must have been the season that threw us out of line 

                G                              D#
once i stood so tall now im searching for a sign 



                   Bb                          Cm
so don't need your salvation with promises and kind 

                    G#                            D#
and all those speculation save it for another time 

                     Bb                      Cm
'cause we all need a reason a reason just to stay

                       G#                                   Cm
well some just cant be bothered to stick around another day 

Bridge III

Guitar 1
e|-------------------------------------------------------------|
B|--6--4--3~------3-3--6--4--3-----3-3--6--4--3-----3--6--4--3-|
G|----------------5-5--------------5-5--------------5----------|
D|----------------5-5--------------5-5--------------5----------|
A|-------------------------------------------------------------|
E|-------------------------------------------------------------|
 |                                                             |
 |Guitar 2                                                     |
e|-------------------------------------------------------------|
B|-------------------------------------------------------------|
G|--5-------------5----------------5----------------5----------|
D|--5-------------5----------------5----------------5----------|
A|--3-------------3----------------3----------------3----------|
E|-------------------------------------------------------------|


Solo II

Guitar 1 chords (during solo) listen for strumming pattern
e|---------------------------------------------------------------------|
B|---------------------------------------------------------------------|
G|--8-----------------------5------------------------------------------|
D|--8-----------8-----------5-------------6----------------------------|
A|--6-----------8-----------3-------------6----------------------------|
E|--------------6-------------------------4----------------------------| repeat


Guitar 2 solo
e|---------------------------------------------------------------------|
B|--15-b16-b16~--16r15---16-------------------16-----------------------|
G|--------------------------15---12---15b17-------b17-15-12-15b17r15---|
D|---------------------------------------------------------------------|
A|---------------------------------------------------------------------|
E|---------------------------------------------------------------------|

e|---------------------------------------------------------------------------18-------------------|
B|--------------------------------------------------/11-11---9--/16~---18b20------b20r18--16------|
G|--10b12r10b12~~--8----8---10-8-10b12---8----8----------------------------------------------15---|
D|-------------------10--------------------10-----------------------------------------------------|
A|------------------------------------------------------------------------------------------------|
E|------------------------------------------------------------------------------------------------|

e|-------------------------------------------------------------------------------|
B|--20-16-15-20-15-16-15---------------------------------------------------------|
G|-----------------------15-19\15----15------15----------------------------------|
D|--------------------------------17----17-15------17----------------------------|
A|----------------------------------------------18----18-17-18-17----------------|
E|----------------------------------------------------------------18-13-11/15----|


e|---------------------------------------------------------------------|
B|---------------------------------------------------------------------|
G|--------------------------------15-------17-------19~---b20r19-17----|
D|--/13-12---13-12-13/15-----8/12----12/15----15/17--------------------|
A|---------------------------------------------------------------------|
E|---------------------------------------------------------------------|

e|-------15-18-b20--15------------------15-18-b20--r18p16p15-16b18-r16-16---18-----------15--16-15~|
B|----16---------------16------------16------------------------------------------16--18------------|
G|-17---------------------15-17~--17---------------------------------------------------------------|
D|-------------------------------------------------------------------------------------------------|
A|-------------------------------------------------------------------------------------------------|
E|-------------------------------------------------------------------------------------------------|

Chorus III

Guitars 1 and 2 
e|-----------------------------------------------------------------------|
B|-----------------------------------------------------------------------|
G|---5-5---5-5-5-5-5---5-5-5-5-5-5-5-5-5---5-5-5-5-5---5-5-5-5-5-5-5-----|
D|---5-5---5-5-5-5-5---5-5-5-5-5-5-5-5-5---5-5-5-5-5---5-5-5-5-5-5-5-----|
A|---3-3---3-3-3-3-3---3-3-3-3-3-3-3-3-3---3-3-3-3-3---3-3-3-3-3-3-3-----|
E|-----------------------------------------------------------------------|


e|------------------------------------------------------------------|
B|------------------------------------------------------------------|
G|---3-3----3-3-3-3-3---3-3-3-3-3-3-3-8---8-------------------------|
D|---3-3----3-3-3-3-3---3-3-3-3-3-3-3-8---8---x-5---5-5-5-5-5-5-----|
A|---1-1----1-1-1-1-1---1-1-1-1-1-1-1-6---6---x-5---5-5-5-5-5-5-----|
E|--------------------------------------------x-3---3-3-3-3-3-3-----|


e|-----------------------------------------------------------------------|
B|-----------------------------------------------------------------------|
G|---5-5---5-5-5-5-5---5-5-5-5-5-5-5-5-5---5-5-5-5-5---5-5-5-5-5-5-5-----|
D|---5-5---5-5-5-5-5---5-5-5-5-5-5-5-5-5---5-5-5-5-5---5-5-5-5-5-5-5-----|
A|---3-3---3-3-3-3-3---3-3-3-3-3-3-3-3-3---3-3-3-3-3---3-3-3-3-3-3-3-----|
E|-----------------------------------------------------------------------|


e|------------------------------------|----------------|
B|------------------------------------|----------------|
G|---3-3----3-3-3-3-3---3-3-3-3-3-3-3-|-8---8----------|
D|---3-3----3-3-3-3-3---3-3-3-3-3-3-3-|-8---8---x-5----|
A|---1-1----1-1-1-1-1---1-1-1-1-1-1-1-|-6---6---x-5----|
E|------------------------------------|---------x-3----|
                                      |---Repeat x3----|

Bridge IV

e|--------------------------|
B|---------6--4--3----------|
G|-------5------------------|
D|-----5------------------5-|
A|-3------------------------|
E|---3----------------------|

e|--------------------------|
B|---------6--4--3----------|
G|-------5------------------|
D|-----5------------------5-|
A|-3------------------------|
E|---3----------------------|

e|--------------------------|
B|---------6--4--3----------|
G|-------5------------------|
D|-----5------------------5-|
A|-3------------------------|
E|---3----------------------|

e|---------------------------|
B|---------6--4--3---3h4p3---|
G|-------5-----------------3-|
D|-----5---------------------|
A|-3-------------------------|
E|---3-----------------------|


Outro (It'd be A LOT easier with a capo on the 3rd fret)
 
e|---------------------------------------------------------------------------------------------|
B|--3h4p3-----------4----------------4---------------4---------------4---------------4---------|
G|--------3-----3-----3----------3-----3---3-----3-----3---------3-----3---------5-----5-------|
D|------------5---5-----5------5---5-----5-----5---5-----5-----5---5-----5-----5---5-----5-----|
A|----------6-------------6------------------6-------------6---------------6-3-------------6-3-|
E|---------------------------------------------------------------------------------------------|

e|-------------------------------------------------------------------------------------------------|
B|------3---------------4-------6-------4---------------4--------------4--------------4-----6-----4|
G|--5-----5---------5-----5---5---5---5---5---------3-----3--------3-----3---3-----3----3-----3----|
D|5---5-----5-----5---5-----5-------5-------5-----5---5-----5----5---5-----5-----5---5----5-----5--|
A|------------6-3-----------------------------3-6-------------6----------------6-------------------|
E|-------------------------------------------------------------------------------------------------|


e|-------------------------------------------------------------------------------------------------|
B|--4---------------4-------3-------3-------4-------4-------6-------6-------8-------8-------9------|
G|3---3---------5-----5-------5-------5-------5-------5-------5-------5-------8-------8-------8----|
D|------5-----5---5-----5-------5-------5-------5-------5-------5-------5-------8-------8-------8--|
A|--------6-3-------------3-------3-------3-------3-------3-------3-------3-------6-------6-------6|
E|-------------------------------------------------------------------------------------------------|


e|--------------------------------------------3---3---------------6-----------3---3---------------|
B|9-------8-------8-------6-------4-----------4-4---4---4-----6-----6---6-------4-4-4-3-4-6-3-----|
G|--8-------8-------8-------3---3---3---3---5---------5-----7---7-----7-7---5-------------7---5---|
D|----8-------8-------8-------5-------5-----------------------------------------------------------|
A|------6-------6-------6-----------------3---------------3---------------3---------------------3-|
E|------------------------------------------------------------------------------------------------|


e|--------3-------3-------4-------4-------6-------6-------|
B|6-3-----4-4-----4-4-----4-------4-------6-------6-------|
G|7---5-------3-------3-----3-------3-------3-------3-----|
D|--------------5-------5-----3-------3-------3-------3---|
A|------3-----------------------6-------6-------6-------6-|
E|--------------------------------------------------------|



e|--------------------|
B|---8-6---8-6---6-8~-|
G|---8-7-7-8-7-7-7-8~-|
D|-------8-----8------|
A|--------------------|
E|--------------------|



============================================================================
Song #9: Tonight the World Dies
Tuning: Standard
Length: 4:43
============================================================================


Intro

Guitar 1
e|------------------------------------------|
B|------------------------------------------|
G|------------------------------------------|
D|------------------------12b14---------r12/|
A|------------------------------------------|
E|------------------------------------------|
 |                                          |
 |Guitar 2                                  |
e|--0--0--0-00-0-00-----0--0--0-00-0-00-----|
B|--0--0--0-00-0-00-----0--0--0-00-0-00-----|
G|--4--4--4-44-4-44-----3--3--3-33-3-33-----|
D|--2--2--2-22-2-22-----2--2--2-22-2-22-----|
A|--2--2--2-22-2-22-----2--2--2-22-2-22-----|
E|--0--0--0-00-0-00-----0--0--0-00-0-00-----|


e|------------------------------------------|
B|------------------------------------------|
G|-----------------------------19----19-----|
D|-17--------------------17b19----21----21\-|
A|------------------------------------------|
E|------------------------------------------|
 |                                          |
e|--0--0--0-00-0-00-----0--0--0-00-0-00-----|
B|--0--0--0-00-0-00-----0--0--0-00-0-00-----|
G|--4--4--4-44-4-44-----3--3--3-33-3-33-----|
D|--2--2--2-22-2-22-----2--2--2-22-2-22-----|
A|--2--2--2-22-2-22-----2--2--2-22-2-22-----|
E|--0--0--0-00-0-00-----0--0--0-00-0-00-----|

e|--------------------------------------------------|
B|--------------------------------------------------|
G|----------------------14b15r14-12b13r12-12p11-----|
D|----------------------------------------------12--|
A|--------------------------------------------------|
E|--------------------------------------------------|
 |                                                  |
e|--0--0--0-00-0-00-----0--0--0-00-0-00-------------|
B|--0--0--0-00-0-00-----0--0--0-00-0-00-------------|
G|--4--4--4-44-4-44-----3--3--3-33-3-33-------------|
D|--2--2--2-22-2-22-----2--2--2-22-2-22-------------|
A|--2--2--2-22-2-22-----2--2--2-22-2-22-------------|
E|--0--0--0-00-0-00-----0--0--0-00-0-00-------------|


e|--------------------------------------------------|
B|----------------------19b20r19-17b18r17-17--------|
G|-------------------------------------------16/17~-|
D|-/14----------------------------------------------|
A|--------------------------------------------------|
E|--------------------------------------------------|
 |                                                  |
e|--0--0--0-00-0-00-----0--0--0-00-0-00-------------|
B|--0--0--0-00-0-00-----0--0--0-00-0-00-------------|
G|--4--4--4-44-4-44-----3--3--3-33-3-33-------------|
D|--2--2--2-22-2-22-----2--2--2-22-2-22-------------|
A|--2--2--2-22-2-22-----2--2--2-22-2-22-------------|
E|--0--0--0-00-0-00-----0--0--0-00-0-00-------------|


Verse I

Guitar 1                              
e|-----------------------------------------------|
B|-----------------------------------------------|
G|-(17~)---------------------14\12------11b12r11-|
D|-----------------------------------------------|
A|-----------------------------------------------|
E|-----------------------------------------------|
Rhythm Chords:
  C                       Em
Lyrics:
Lost the meaning of our stay

e|---------------------------------------|
B|------------------------17b19-19r17----|
G|-11\9-------------------------------16-|
D|---------------------------------------|
A|---------------------------------------|
E|---------------------------------------|
  C                     Em
Learn to live another day

e|---------------------------------------|
B|---------------------------------------|
G|-16b17~--------------------------16\12-|
D|---------------------------------------|
A|---------------------------------------|
E|---------------------------------------|
C                           Em
Doubt the choices that we've made

e|------------------------------------------------------------------|
B|------------------------------------------------------------------|
G|-\9---------------------------------------------------------------|
D|-----------------------------------------------------12\10--\7/9~-|
A|------------------------------------------------------------------|
E|------------------------------------------------------------------|
                     Am                              G
I know that we can't hide our shame, It's only in disguise


Bridge I

Guitar 1
e|---------------------------------------------|
B|------------------------------15~---15~--b17-|
G|----------------------14b16------15~---------|
D|-(~9)----------------------------------------|
A|---------------------------------------------|
E|---------------------------------------------|
 |                                             |
e|--0--0--0-00-0-00-----0--0--0-00-0-00--------|
B|--0--0--0-00-0-00-----0--0--0-00-0-00--------|
G|--4--4--4-44-4-44-----3--3--3-33-3-33--------|
D|--2--2--2-22-2-22-----2--2--2-22-2-22--------|
A|--2--2--2-22-2-22-----2--2--2-22-2-22--------|
E|--0--0--0-00-0-00-----0--0--0-00-0-00--------|


e|---------------------------------------------------|
B|------------------------17\15--15\13--12b14r12-12\-|
G|---------------------------------------------------|
D|---------------------------------------------------|
A|---------------------------------------------------|
E|---------------------------------------------------|
 |                                                   |
e|--0--0--0-00-0-00-----0--0--0-00-0-00--------------|
B|--0--0--0-00-0-00-----0--0--0-00-0-00--------------|
G|--4--4--4-44-4-44-----3--3--3-33-3-33--------------|
D|--2--2--2-22-2-22-----2--2--2-22-2-22--------------|
A|--2--2--2-22-2-22-----2--2--2-22-2-22--------------|
E|--0--0--0-00-0-00-----0--0--0-00-0-00--------------|


Verse II

Guitar 1

   Em
e|-------------------------------------------|
B|\8-------------------------12/17~-----\12/-|
G|-------------------------------------------|
D|-------------------------------------------|
A|-------------------------------------------|
E|-------------------------------------------|
Rhythm Chords:
  C                     Em
Lyrics:
  Drowning in our own debris

e|--------------------------------------15\12/19----19\15/-|
B|-13------------------------------------------------------|
G|---------------------------------------------------------|
D|---------------------------------------------------------|
A|---------------------------------------------------------|
E|---------------------------------------------------------|
  C                                Em
  Full of thoughts as though we're free

e|/20-------------------------------------------------------------|
B|----------------------------------------------------------------|
G|----------------------------------------------------------------|
D|-------------------------------------------------12b14~---------|
A|----------------------------------------------------------------|
E|----------------------------------------------------------------|
  C                        Em                      Am
  Close our eyes so we can see the depth of all we mean to be

e|------------------|
B|------------------|
G|------------------|
D|(~14)-------r12~--|
A|------------------|
E|------------------|
             G
If only in my eyes


Chorus I

Em        C
I don't mind (read the writing on the wall)

Em     C
Mother cries (tortured voices as we crawl)

Am
Find me on my better days

   C
To lose it once again, in a way


Bridge II

Guitar 1
e|---------------------------------------------|
B|-16/18~----------(16)/18\16--16\13--13b15r13~|
G|---------------------------------------------|
D|---------------------------------------------|
A|---------------------------------------------|
E|---------------------------------------------|
 |                                             |
 |Guitar 2                                     |
e|--0--0--0-00-0-00-----0--0--0-00-0-00--------|
B|--0--0--0-00-0-00-----0--0--0-00-0-00--------|
G|--4--4--4-44-4-44-----3--3--3-33-3-33--------|
D|--2--2--2-22-2-22-----2--2--2-22-2-22--------|
A|--2--2--2-22-2-22-----2--2--2-22-2-22--------|
E|--0--0--0-00-0-00-----0--0--0-00-0-00--------|


e|---------------------------------------------------|
B|-(13~)---------------------------------------------|
G|----------------14/16\12~-----------11b13r11~----\-|
D|---------------------------------------------------|
A|---------------------------------------------------|
E|---------------------------------------------------|
 |                                                   |
e|--0--0--0-00-0-00-----0--0--0-00-0-00--------------|
B|--0--0--0-00-0-00-----0--0--0-00-0-00--------------|
G|--4--4--4-44-4-44-----3--3--3-33-3-33--------------|
D|--2--2--2-22-2-22-----2--2--2-22-2-22--------------|
A|--2--2--2-22-2-22-----2--2--2-22-2-22--------------|
E|--0--0--0-00-0-00-----0--0--0-00-0-00--------------|


Verse III
e|---------------------------------------------|
B|----------------19b20r19---17---17\15--15\12-|
G|---------------------------------------------|
D|-7/9~----------------------------------------|
A|---------------------------------------------|
E|---------------------------------------------|
Rhythm Chords:
  C                             Em
Lyrics:
  So try and love me while you can
                              
e|--------------------------------|--------------------------------|
B|--------------------------------|--------------------------------|
G|-16-/-17------------------------|--------------------------------|
D|--------------------------------|--------------------------------|
A|--------------------------------|--------------------------------|
E|--------------------------------|--------------------------------|
                             
e|-------------------------------------------------------|
B|-12/13~----------------------12b13r12b13r12------------|
G|-------------------------------------------------------|
D|------------------------------------------------14b16r-|
A|-------------------------------------------------------|
E|-------------------------------------------------------|
  C                         Em
  And take the time to understand
                               
e|---------------------------------------------------------------------|
B|---------------------------------------------------------------------|
G|---------------------------------------------------------------------|
D|r14~---------------------------------------------------14b16~--------|
A|---------------------------------------------------------------------|
E|---------------------------------------------------------------------|
  C                          Em                          Am
  As long as I can touch your face, you know I'll never leave this place


e|--------------------------------------------|
B|--------------15b17r15~-----12b15r12b15r12~-|
G|--------------------------------------------|
D|--------------------------------------------|
A|--------------------------------------------|
E|--------------------------------------------|
            G
If only in my mind


Chorus II

Em        C
I don't mind (read the writing on the wall)

Em      C
Mother cries (tortured voices as we crawl)

Am
Find me on my better days

   C                       
To lose it once again,

      Am
But I seem to find no better ways,

   C
To consciously Pretend.


Interlude                               Bsus2 (Because I'm just so damn nice)
                                       e--2--|
E              Bsus2                   B--2--|
Silence, all I want to say             G--4--|
                                       D--4--|
            C                          A--2--|
Seems to run away                      D--2--|

              D
I'll run away with you tonight

E              Bsus2
Launder all my sins away

                      C
And just like that mistakes are made

(Solo starts)
Guitar 1
e|--------------------------------------15-|
B|-----------------------------15-17-18----|
G|-----------------14----14-16-------------|
D|-----------14-16----17-------------------|
A|--------17-------------------------------|
E|-----------------------------------------|
          D
You know, tonight the world...


Chorus III (Solo in background)

Guitar 1
e|-17/19~-19\17----------------------------------------------|
B|--------------17-17--17p15-17b20-17b20~r17p15-17b20-17b20~-|
G|-----------------------------------------------------------|
D|-----------------------------------------------------------|
A|-----------------------------------------------------------|
E|-----------------------------------------------------------|
Rhythm Chords:
  Em                 C
Lyrics:
  ... dies, I don't mind (read the writing on the wall)

e|-----------------------------|
B|-(~20)\15/17~-----20\15/17~--|
G|-----------------------------|
D|-----------------------------|
A|-----------------------------|
E|-----------------------------|
  Em                C
  Moooooooooooother cries (tortured voices as we crawl)

e|-----------------------------|
B|--------------------10--/12--|
G|-9/10~-----------------------|
D|-----------------------------|
A|-----------------------------|
E|-----------------------------|
  Am
  Find me on my better days

e|----------------10h12\----------|
B|-13-----------------------------|
G|--------------------------------|
D|--------------------------------|
A|--------------------------------|
E|--------------------------------|
     C                      
  To lose it once again, but I

e|-9~-------------10p9---------------|
B|-------------10-----------10-/12---|
G|-----------------------------------|
D|-----------------------------------|
A|-----------------------------------|
E|-----------------------------------|
  Am
  seem to find no better ways,

e|--------------------------------|
B|-/13--10b12---10-8--------------|
G|-------------------9-7----------|
D|-----------------------5-7------|
A|---------------------------5-7--|
E|--------------------------------|
    C
To consciously Pretend.

Outro

Guitar 1
e|---------------------------------------------|
B|---------------------------------------------|
G|-----------------------14b16~~~~~~~16r15b16~-|
D|---------------------------------------------|
A|---------------------------------------------|
E|---------------------------------------------|
 |                                             |
 |Guitar 2                                     |
e|--0--0--0-00-0-00-----0--0--0-00-0-00--------|
B|--0--0--0-00-0-00-----0--0--0-00-0-00--------|
G|--4--4--4-44-4-44-----3--3--3-33-3-33--------|
D|--2--2--2-22-2-22-----2--2--2-22-2-22--------|
A|--2--2--2-22-2-22-----2--2--2-22-2-22--------|
E|--0--0--0-00-0-00-----0--0--0-00-0-00--------|

e|---------------------------------------------|
B|-----------------------17\15--17/20~---------|
G|---------------------------------------------|
D|---------------------------------------------|
A|---------------------------------------------|
E|---------------------------------------------|
 |                                             |
e|--0--0--0-00-0-00-----0--0--0-00-0-00--------|
B|--0--0--0-00-0-00-----0--0--0-00-0-00--------|
G|--4--4--4-44-4-44-----3--3--3-33-3-33--------|
D|--2--2--2-22-2-22-----2--2--2-22-2-22--------|
A|--2--2--2-22-2-22-----2--2--2-22-2-22--------|
E|--0--0--0-00-0-00-----0--0--0-00-0-00--------|


e|---------------------------------------------|
B|---------------------------------------------|
G|------------------------------19~~~~19~~~~19/|
D|-----------------------12/16-----16~~~~16~---|
A|---------------------------------------------|
E|---------------------------------------------|
 |                                             |
e|--0--0--0-00-0-00-----0--0--0-00-0-00--------|
B|--0--0--0-00-0-00-----0--0--0-00-0-00--------|
G|--4--4--4-44-4-44-----3--3--3-33-3-33--------|
D|--2--2--2-22-2-22-----2--2--2-22-2-22--------|
A|--2--2--2-22-2-22-----2--2--2-22-2-22--------|
E|--0--0--0-00-0-00-----0--0--0-00-0-00--------|

e|-----------|
B|-----------|
G|-/21~------|
D|-----------|
A|-----------|
E|-----------|
 |           |
e|--0--------|
B|--0--------|
G|--4--------|
D|--2--------|
A|--2--------|
E|--0--------|


============================================================================
Song #11: Save Me (There's no guitar in Fiction)
Tuning: Dropped D
Length: 10:56
============================================================================

OK, I don't know how to play this tab and I'm too lazy to learn it so I just 
copied this tab from BLUCAS. I give full credit to him/her for this great 
tab of Save Me.

Intro:  (3/3 Time)

Bass Riff...

Lead 1:

e:-----------------------------------------------------------------------|
b:--------------10-11~-10-10h11p10p9h10~-------10-11~-10b11r10-8~--------|
g:------------10------------------------------9--------------------------|
d:---/12~--/12-----------------------------/11---------------------------|
a:-----------------------------------------------------------------------|
d:-----------------------------------------------------------------------|

e:----------------------------------------------------------------------------|
b:--8-10-8-7-5-3-5-7-8-3~----/15-15-14-/17~-15~---/15-15-14-/17-15-------14---|
g:-----------------------------------------------------------------14-16------|
d:----------------------------------------------------------------------------|
a:----------------------------------------------------------------------------|
d:----------------------------------------------------------------------------|

e:---/17-17-16-16--------------------------17-19-17~~---------------------|
b:------------------14/17\14-----13-17------------------------------------|
g:------------------------------------------------------------------------|
d:------------------------------------------------------------------------|
a:------------------------------------------------------------------------|
d:------------------------------------------------------------------------|

Lead 2:

e:--------------------------------------------------------------------------|
b:--------------------------------------------------------------------------|
g:--9--11---9---7--6--4--6--7--9--4-----------------------------------------|
d:--x---x---x---x--x--x--x--x--x--x-----------------------------------------|
a:--7---9---7---5--4--2--4--5--7--2-----------------------------------------|
d:--------------------------------------------------------------------------|

e:---/14~-14-12-/15-14--/13-13-12-/15-13-9-10-12~---------|
b:--------------------------------------------------------|
g:--------------------------------------------------------|
d:--------------------------------------------------------|
a:--------------------------------------------------------|
d:--------------------------------------------------------|

e:-------------------/17-17-16-16-------------------------------------|
b:---------------------------------14/17\14~-------10-13-13-15-13~~---|
g:--------------------------------------------------------------------|
d:--------------------------------------------------------------------|
a:--------------------------------------------------------------------|
d:--------------------------------------------------------------------|

Rhythm:

e:-----------------------------------------------------------------|
b:-----------------------------------------------------------------|
g:-----------------------------------------------------------------|
d:---0-------------7-----------2-------------9---------------------|
a:---0-------------7-----------2-------------9---------------------|
d:---0-------------7-----------2-------------9---------------------|

e:----------------------------------------------------------------|
b:----7------------6---------------2-----------1------------------|
g:----7------------7---------------2-----------2------------------|
d:----7------------7---------------2-----------2------------------|
a:----5------------5---------------0-----------0------------------|
d:----------------------------------------------------------------|

"Skull..."

Rhythm:

e:----------------------------------------------------------------------|
b:----------palm-mute-all-----------------------------------------------|
g:----------------------------------------------------------------------|
d:----------------------------------------------------------------------|
a:----0----------------0--------------0--------------------repeat-------|
d:----0---0-0-0-0------0---0-0-0-0----0---0-0-0-0-0-0-0-0---------------|

Guitar 1 & 2:

e:---------------------------------------------------------------------|
b:---------------------------------------------------------------------|
g:---------------------------------------------------------------------|
d:---7-0-7-8----5-0-5-7---------------------5--------------------------|
a:------------------------------8-5----4-7------------repeat-----------|
d:-----------------------------------7---------------------------------|

Guitar 1:

e:-------------------------------------------------------------------|
b:-------------------------------------------------------------------|
g:-------------------------------------------------------------------|
d:---7-0-7-8~--5-0-5-7~----------------------5-----------------------|
a:-------------------------------8-5----4-7--------------------------|
d:------------------------------------7------------------------------|

e:-----------------------------------------------------------------------|
b:-----------------------------------------------------------------------|
g:-------------------------------------------------------6-----7-----9~--|
d:---7-0-7-8~--5-0-5-7~-----------------------5--------------------------|
a:-------------------------------8-5-----4-7-----------------------------|
d:------------------------------------7----------------------------------|

Guitar 2:

e:------------------------------------------------------------------|
b:------------------------------------------------------------------|
g:------------------------------------------------------------------|
d:---15-0-15-17~--14-0-14-15~-----7---------5--8--------------------|
a:-----------------------------------8--4--7------------------------|
d:------------------------------------------------------------------|

e:-------------------------------------------------5---6----9~------|
b:------------------------------------------------------------------|
g:------------------------------------------------------------------|
d:---15-0-15-17~--14-0-14-15~----7-----------5--8-------------------|
a:----------------------------------8--4--7-------------------------|
d:------------------------------------------------------------------|

Rhythm:

e:------------------------------------------------------------------|
b:------------------------------------------------------------------|
g:------------------------------------------------------------------|
d:---0--------------0--------------6--------------11----------------|
a:---0--------------0--------------7--------------12----------------|
d:---0---0-0-0-0----0---0-0-0-0----6---6-6-6-6----11---11-11-11-11--|

Guitar 1:

e:---------------------------------------------------------------|
b:---------------------------------------------------------------|
g:---------------------------------------------------------------|
d:--------------7~-----8-7-6~------6-----------------------------|
a:----5~----5-8------5-----------7---8-7~----4-8-7---------------|
d:--------7------------------------------------------------------|

e:---------------------------------------------------------------|
b:---------------------------------------------------------------|
g:---------------------------------7---6--7---9h10p9h10p9h10-----|
d:-----------7~-----8-7-6~------7--------------------------------|
a:--5~--5-8-------5----------------------------------------------|
d:----7----------------------------------------------------------|

e:---------------------------------------------------------------|
b:---------------------------------------------------------------|
g:---------------------------------------------------------------|
d:--------------7~-----8-7-6~------6-----------------------------|
a:----5~----5-8------5----------7-----8-7~----4-8-7--------------|
d:--------7------------------------------------------------------|

e:---------------------------------------------------------------|
b:---------------------------------------------------------------|
g:-------------------------------------7----9h10p9h10---12~------|
d:--------------7~-------8-7-6~------7---------------------------|
a:---5~-----5-8--------5-----------------------------------------|
d:--------7------------------------------------------------------|

Guitar 2:

e:------------------------------------------------------------------|
b:------------------------8-6-5~------------------------------------|
g:--------------7~--------------------5-----------------------------|
d:------------7--------7------------7---7-5~-----7-5----------------|
a:---8~---5-8----------------------------------------7--------------|
d:------------------------------------------------------------------|

e:-----------------------------------------5--6----9h10p9h10p9h10---|
b:----------------------8-6-5~-------6--8---------------------------|
g:--------------7~--------------------------------------------------|
d:------------7-------7---------------------------------------------|
a:---8~---5-8-------------------------------------------------------|
d:------------------------------------------------------------------|

e:-------------------------------------------------------------------|
b:------------------------8-6-5~-------------------------------------|
g:--------------7~--------------------5------------------------------|
d:------------7--------7------------7---7-5~-----7-5-----------------|
a:---8~---5-8----------------------------------------7---------------|
d:-------------------------------------------------------------------|

e:------------------------------------------9h10p9h10---12~-----------|
b:----------------------8-6-5~------6--8------------------------------|
g:--------------7~----------------------------------------------------|
d:------------7-------7-----------------------------------------------|
a:---8~---5-8---------------------------------------------------------|
d:--------------------------------------------------------------------|


SOLO:

Rhythm:

e:-----------------------------------------------------------------|
b:-----------------------------------------------------------------|
g:-----------------------------------------------------------------|
d:---0------3-----5----2------------12----8----7-5-----6-7---------|
a:---0------3-----5----4------------12----8----7-5-----6-7---------|
d:---0------3-----5----2------------12----8----7-5-----6-7---------|

Lead:

e:---------------------------------------------------------|
b:----bunch-of-natural-harmonics-and-whammy-bar------------|
g:---------------------------------------------------------|
d:---------------------------------------------------------|
a:---------------------------------------------------------|
d:---------------------------------------------------------|

e:--------------------------------------------------9-10-9~------|
b:------------------------------------10---11-10-----------------|
g:-------7~----9--10-9-7-5-7~----7-10------------12--------------|
d:-----------------------------7---------12----------------------|
a:---------------------------------------------------------------|
d:---------------------------------------------------------------|

e:-----------13-15-17--13--15--13--12-13-15-18-17--21--22~~------|
b:--13-15-17-----------------------------------------------------|
g:---------------------------------------------------------------|
d:---------------------------------------------------------------|
a:---------------------------------------------------------------|
d:---------------------------------------------------------------|


POST SOLO/PRE VERSE

Rhythm:

e:---------------------------------------------------------------------|
b:---------------------------------------------------four-times--------|
g:---------------------------------------------------------------------|
d:-----0------5-----7----8---------------------------------------------|
a:-----0------3-----3----5---------------------------------------------|
d:-----0------2-----3----5---------------------------------------------|

Guitar 1:

e:---------------------------------------------------------------|
b:---------------------------------------------------------------|
g:---------------------------------------------5-7~--------------|
d:---------7-8-7-5~--7-8-7-5~--7-8-7-5-8-5-7-8-------------------|
a:---------------------------------------------------------------|
d:--------------------------------------three-times--------------|

e:------------------------------------------------------------|
b:------------------------------------------------------------|
g:------------------------------------------------------------|
d:---------7-8-7-5~--7-8-7-5~--7-8-7-5-8-5-7-5-7-5~-----------|
a:------------------------------------------------------------|
d:------------------------------------------------------------|

Guitar 2:

e:----------------------------------------------------------------|
b:----------------------------------------------------------------|
g:------------------------------------------------------8-12~-----|
d:------10-12-10-8~--10-12-10-8~--10-12-10-8-12-8-10-12-----------|
a:----------------------------------------------------------------|
d:--------------------------------------three-times---------------|

e:-------------------------------------------------------------|
b:-------------------------------------------------------------|
g:-------------------------------------------------------------|
d:------10-12-10-8~--10-12-10-8~--10-12-10-8-12-8-10-8-10-8~---|
a:-------------------------------------------------------------|
d:-------------------------------------------------------------|


VERSE:

Rhythm:

e:---------------------------------------------------------------------|
b:----------palm-mute-all----------------------------------------------|
g:---------------------------------------------------------------------|
d:---------------------------------------------------------------------|
a:----0----------------0--------------0--------------------repeat------|
d:----0---0-0-0-0------0---0-0-0-0----0---0-0-0-0-0-0-0-0--------------|

...drum fill...

e:-----------------------------------------------------------------|
b:-----------------------------------------------------------------|
g:-----------------------------------------------------------------|
d:-----7---------8---------7-------7---------8------7--------------|
a:-----5---------5---------5-------7---------7------7--------------|
d:---------------------------------7---------7------7--------------|

e:-----------------------------------------------------------------|
b:-----------------------------------------------------------------|
g:-----------------------------------------------------------------|
d:-----2---------------2-----------4-------------4-----------------|
a:-----2---------------2-----------2-------------2-----------------|
d:-----2---------------2-------------------------------------------|

e:----------------------------------------------------------------|
b:----7----------------6-------------2----------1-----------------|
g:----7----------------7-------------2----------2-----------------|
d:----7----------------7-------------2----------2-----------------|
a:----5----------------5-------------0----------0-----------------|
d:----------------------------------------------------------------|

"Is it something..."

e:------------------------------------------------two-times------------|
b:---------------------------------------------------------------------|
g:---------------------------------------------------------------------|
d:---0--------------0----------6----------------11---------------------|
a:---0--------------0----------7----------------12---------------------|
d:---0--0-0-0-0-----0-0-0-0----6----6-6-6-6-----11---11-11-11-11-------|

e:-----------------------------------------------------------------|
b:-----------------------------------------------------------------|
g:-----------------------------------------------------------------|
d:-----------------------------------------------------------------|
a:-----------------------------------------------------------------|
d:--0-0-12-0-11-0-8-0-11-0-8~---------0-0-8-0-7-0-6-0-7-0-7--------|

e:----------------------------------------------------------------------|
b:----------------------------------------------------------------------|
g:----------------------------------------------------------------------|
d:-----------------------------------8-8-8---7-7-7----------------------|
a:-----------------------------------8-8-8---7-7-7----------------------|
d:--0-0-12-0-11-0-8-0-11-0-8~--------8-8-8---7-7-7----------------------|


CHORUS:

Rhythm:

e:-------------------------------------------------------------|
b:-------------------------------------------------------------|
g:-------------------------------------------------------------|
d:-------------3----------------------------------7------------|
a:-------------3----------------------------------7------------|
d:-------------3----------------------------------7------------|

e:-------------------------------------------------------------|
b:-------------------------------------------------------------|
g:-------------------------------------------------------------|
d:------------7-----------------------------------5------------|
a:------------5-----------------------------------3------------|
d:-------------------------------------------------------------|

e:-------------------------------------------------------------|
b:-------------------------------------------------------------|
g:-------------------------------------------------------------|
d:-------------3----------------------------------7------------|
a:-------------3----------------------------------7------------|
d:-------------3----------------------------------7------------|

e:-------------------------------------------------------------|
b:-------------------------------------------------------------|
g:-------------------------------------------------------------|
d:------------7-----------------------------------5------------|
a:------------5-----------------------------------3------------|
d:-------------------------------------------------------------|

Lead 1:

e:--/13---15-13-15-17-----/8-9-12---/18-17-15-17----------------|
b:--------------------------------------------------------------|
g:--------------------------------------------------------------|
d:--------------------------------------------------------------|
a:--------------------------------------------------------------|
d:--------------------------------------------------------------|

e:--13-17-15-17-13-17-12-17-12-17-13-17-----8-10-8-10-12-13-15-15-17-18-----|
b:--------this-part-twice---------------------------------------------------|
g:--------------------------------------------------------------------------|
d:--------------------------------------------------------------------------|
a:--------------------------------------------------------------------------|
d:--------------------------------------------------------------------------|

e:--/13---15-13-15-17--------/8-9-12---18-17-15-17---------------|
b:---------------------------------------------------------------|
g:---------------------------------------------------------------|
d:---------------------------------------------------------------|
a:---------------------------------------------------------------|
d:---------------------------------------------------------------|

e:---13-17-15-17-13-17-12-17-12-17-13-17---------------------------|
b:-----------------------------------------------------------------|
g:-----------------------------------------------------twice-------|
d:-----------------------------------------------------------------|
a:-----------------------------------------------------------------|
d:-----------------------------------------------------------------|

e:----12-15-13-15-12-15-10-15-10-15-12-15---------------------------|
b:------------------------------------------------------------------|
g:------------------------------------------------------------------|
d:-------------------------------------------------------twice------|
a:------------------------------------------------------------------|
d:------------------------------------------------------------------|

Lead 2:

e:--/17---18-17-18-20----/12-12-15---22-21-19-21-------------|
b:-----------------------------------------------------------|
g:-----------------------------------------------------------|
d:-----------------------------------------------------------|
a:-----------------------------------------------------------|
d:-----------------------------------------------------------|

e:-----------------------------------------12-13-12-13-15-17-18-18-20-22------|
b:--15-18-17-18-15-18-13-18-13-18-15-18---------------------------------------|
g:-------this-part-twice------------------------------------------------------|
d:----------------------------------------------------------------------------|
a:----------------------------------------------------------------------------|
d:----------------------------------------------------------------------------|

e:--/17---18-17-18-20----/12-12-15---/22-21-19-21--------------|
b:-------------------------------------------------------------|
g:-------------------------------------------------------------|
d:-------------------------------------------------------------|
a:-------------------------------------------------------------|
d:-------------------------------------------------------------|

e:--------------------------------------------------------------|
b:----15-18-17-18-15-18-13-18-13-18-15-18-----------------------|
g:--------------------------------------------------------------|
d:--------------------------------------------------twice-------|
a:--------------------------------------------------------------|
d:--------------------------------------------------------------|

e:--------------------------------------------------------------|
b:----13-17-15-17-13-17-12-17-12-17-13-17-----------------------|
g:--------------------------------------------------------------|
d:--------------------------------------------------------------|
a:---------------------------------------------------twice------|
d:--------------------------------------------------------------|


PRE VERSE:

Rhythm:

e:------------------------------------------------------------------------|
b:---------------palm-mute-all--------------------------------------------|
g:------------------------------------------------------------------------|
d:------------------------------------------------------------------------|
a:----0-0----0-0----0-0----0-0-0-0--0-0-0-0-------0-0-----0-0----0-0------|
d:----0-0----0-0----0-0----0-0-0-0--0-0-0-0-------0-0-----0-0----0-0------|


REPEAT VERSE:

Rhythm:

e:-----------------------------------------------------------------|
b:-----------------------------------------------------------------|
g:-----------------------------------------------------------------|
d:-----7---------8---------7-------7---------8------7--------------|
a:-----5---------5---------5-------7---------7------7--------------|
d:---------------------------------7---------7------7--------------|

e:-----------------------------------------------------------------|
b:-----------------------------------------------------------------|
g:-----------------------------------------------------------------|
d:-----2---------------2-----------4-------------4-----------------|
a:-----2---------------2-----------2-------------2-----------------|
d:-----2---------------2-------------------------------------------|

e:-----------------------------------------------------------------|
b:----7----------------6-------------2----------1------------------|
g:----7----------------7-------------2----------2------------------|
d:----7----------------7-------------2----------2------------------|
a:----5----------------5-------------0----------0------------------|
d:-----------------------------------------------------------------|

"Is it something..."

e:------------------------------------------------two-times------------|
b:---------------------------------------------------------------------|
g:---------------------------------------------------------------------|
d:---0--------------0----------6----------------11---------------------|
a:---0--------------0----------7----------------12---------------------|
d:---0--0-0-0-0-----0-0-0-0----6----6-6-6-6-----11---11-11-11-11-------|

e:-------------------------------------------------------------------|
b:-------------------------------------------------------------------|
g:-------------------------------------------------------------------|
d:-------------------------------------------------------------------|
a:-------------------------------------------------------------------|
d:--0-0-12-0-11-0-8-0-11-0-8~---------0-0-8-0-7-0-6-0-7-0-7----------|

e:----------------------------------------------------------------------|
b:----------------------------------------------------------------------|
g:----------------------------------------------------------------------|
d:-----------------------------------8-8-8---7-7-7----------------------|
a:-----------------------------------8-8-8---7-7-7----------------------|
d:--0-0-12-0-11-0-8-0-11-0-8~--------8-8-8---7-7-7----------------------|


REPEAT CHORUS...but with additional ending...

Rhythm:

e:-------------------------------------------------------------|
b:-------------------------------------------------------------|
g:-------------------------------------------------------------|
d:-------------3----------------------------------7------------|
a:-------------3----------------------------------7------------|
d:-------------3----------------------------------7------------|

e:-------------------------------------------------------------|
b:-------------------------------------------------------------|
g:-------------------------------------------------------------|
d:------------7-----------------------------------5------------|
a:------------5-----------------------------------3------------|
d:-------------------------------------------------------------|

e:-------------------------------------------------------------|
b:-------------------------------------------------------------|
g:-------------------------------------------------------------|
d:-------------3----------------------------------7------------|
a:-------------3----------------------------------7------------|
d:-------------3----------------------------------7------------|

e:-------------------------------------------------------------|
b:-------------------------------------------------------------|
g:-------------------------------------------------------------|
d:------------7-----------------------------------5------------|
a:------------5-----------------------------------3------------|
d:-------------------------------------------------------------|

Lead 1:

e:--/13---15-13-15-17-----/8-9-12---/18-17-15-17----------------|
b:--------------------------------------------------------------|
g:--------------------------------------------------------------|
d:--------------------------------------------------------------|
a:--------------------------------------------------------------|
d:--------------------------------------------------------------|

e:--13-17-15-17-13-17-12-17-12-17-13-17-----8-10-8-10-12-13-15-15-17-18-----|
b:--------this-part-twice---------------------------------------------------|
g:--------------------------------------------------------------------------|
d:--------------------------------------------------------------------------|
a:--------------------------------------------------------------------------|
d:--------------------------------------------------------------------------|

e:--/13---15-13-15-17--------/8-9-12---18-17-15-17---------------|
b:---------------------------------------------------------------|
g:---------------------------------------------------------------|
d:---------------------------------------------------------------|
a:---------------------------------------------------------------|
d:---------------------------------------------------------------|

e:---13-17-15-17-13-17-12-17-12-17-13-17---------------------------|
b:-----------------------------------------------------------------|
g:-----------------------------------------------------twice-------|
d:-----------------------------------------------------------------|
a:-----------------------------------------------------------------|
d:-----------------------------------------------------------------|

e:----12-15-13-15-12-15-10-15-10-15-12-15---------------------------|
b:------------------------------------------------------------------|
g:------------------------------------------------------------------|
d:-------------------------------------------------------twice------|
a:------------------------------------------------------------------|
d:------------------------------------------------------------------|

Lead 2:

e:--/17---18-17-18-20----/12-12-15---22-21-19-21-----------|
b:---------------------------------------------------------|
g:---------------------------------------------------------|
d:---------------------------------------------------------|
a:---------------------------------------------------------|
d:---------------------------------------------------------|

e:-----------------------------------------12-13-12-13-15-17-18-18-20-22------|
b:--15-18-17-18-15-18-13-18-13-18-15-18---------------------------------------|
g:-------this-part-twice------------------------------------------------------|
d:----------------------------------------------------------------------------|
a:----------------------------------------------------------------------------|
d:----------------------------------------------------------------------------|

e:--/17---18-17-18-20----/12-12-15---/22-21-19-21--------------|
b:-------------------------------------------------------------|
g:-------------------------------------------------------------|
d:-------------------------------------------------------------|
a:-------------------------------------------------------------|
d:-------------------------------------------------------------|

e:--------------------------------------------------------------|
b:----15-18-17-18-15-18-13-18-13-18-15-18-----------------------|
g:--------------------------------------------------------------|
d:--------------------------------------------------twice-------|
a:--------------------------------------------------------------|
d:--------------------------------------------------------------|

e:--------------------------------------------------------------|
b:----13-17-15-17-13-17-12-17-12-17-13-17-----------------------|
g:--------------------------------------------------------------|
d:--------------------------------------------------------------|
a:---------------------------------------------------twice------|
d:--------------------------------------------------------------|

Additional Ending...

Rhythm:

e:------------------------------------------------------------------------|
b:------------------------------------------------------------------------|
g:------------------------------------------------------------------------|
d:---3------------------------------0--------------\\\\\\\--pick----------|
a:---1------------------------------0--------------\\\\\\\--slide---------|
d:----------------------------------0--------------\\\\\\\----------------|

Lead 1:

e:------6--8--6--8--10--12--13--12--10----------------|
b:----------------------------------------------------|
g:----------------------------------------------------|
d:----------------------------------------------------|
a:----------------------------------------------------|
d:----------------------------------------------------|

Lead 2:

e:-------10--12--10--12--13--15--17--15--13--------|
b:-------------------------------------------------|
g:-------------------------------------------------|
d:-------------------------------------------------|
a:-------------------------------------------------|
d:-------------------------------------------------|


NEW SECTION: (4/4 Time)

Rhythm 1:

e:-------------------------------------------------------------------|
b:-------------------------------------------------------------------|
g:-------------------------------------------------------------------|
d:---0----------------0----------------0--------------0--------------|
a:---0----------------0----------------0--------------0--------------|
d:---0----0-0-0-0-----0-----0-0-0-0----0---0-0-0-0----0---0-0-0-0----|

e:-------------------------------------------------------------------|
b:-------------------------------------------------------------------|
g:-------------------------------------------------------------------|
d:---8----------------8----------------8---------------8-------------|
a:---8----------------8----------------8---------------8-------------|
d:---8----8-8-8-8-----8-----8-8-8-8----8---8-8-8-8-----8---8-8-8-8---|

Rhythm 2:

e:-------------------------------------------------------------------|
b:------------------------------------------------twice--------------|
g:-------------------------------------------------------------------|
d:--------7-------5-------8-------7-------5-7------------------------|
a:-------------------------------------------------------------------|
d:---0-0-----0-0-----0-0-----0-0-----0-0-----------------------------|

e:------------------------------------------------------------------|
b:------------------------------------------------twice-------------|
g:------------------------------------------------------------------|
d:--------7------5-------8--------7-------5-7-----------------------|
a:------------------------------------------------------------------|
d:---8-8----8-8-----8-8------8-8-----8-8----------------------------|

Rhythm 1:

e:------------------------------------------------------------|
b:------------------------------------------------------------|
g:------------------------------------------------------------|
d:----0---------------------------------------8---------------|
a:----0---------------------------------------8---------------|
d:----0---------------------------------------8---------------|

Rhythm 2:

e:---------------------------------------------------------------|
b:------------------------------------------------twice----------|
g:---------------------------------------------------------------|
d:--------7-------5------8-------7-------5-7---------------------|
a:---------------------------------------------------------------|
d:---0-0----0-0-----0-0-----0-0-----0-0--------------------------|

e:-------------------------------------------------------------------|
b:------------------------------------------------twice--------------|
g:-------------------------------------------------------------------|
d:--------7------5-------8-------7-------5-7-------------------------|
a:-------------------------------------------------------------------|
d:---8-8----8-8-----8-8-----8-8-----8-8------------------------------|

Lead:

e:-------------------------------------------------------------------|
b:--------------------------11-10-----10-----------------------------|
g-7--9-10-7--9-10-7--9-10----------12--------------------------------|
d:-------------------------------------------------------------------|
a:-------------------------------------------------------------------|
d:-------------------------------------------------------------------|

e:------------------------------------------------------------------|
b:-----------10---------10----------10-13-13-10-13------------------|
g:---- 10-12-----10-12-----10-12------------------------------------|
d:------------------------------------------------------------------|
a:------------------------------------------------------------------|
d:------------------------------------------------------------------|

Rhythm 1 & 2:

e:--------------------------strum quickly---------------------------------|
b:------------------------------------------------------------------------|
g:------------------------------------------------------------------------|
d:----0---------------------------------------8---------------------------|
a:----0---------------------------------------8---------------------------|
d:----0---------------------------------------8---------------------------|

Lead 1:

e:-10-12-13-10-12-13-10-12-13-15-13-12-13-----------------------|
b:--------------------------------------------------------------|
g:--------------------------------------------------------------|
d:----------------------------------------tremolo-pick----------|
a:--------------------------------------------------------------|
d:--------------------------------------------------------------|

e:-10-12-13-10-12-13-10-12-13---17~--------------------------------|
b:-----------------------------------------------------------------|
g:-----------------------------------------------------------------|
d:----------------------------------------tremolo-pick-------------|
a:-----------------------------------------------------------------|
d:-----------------------------------------------------------------|

Lead 2:

e:-13-15-17-13-15-17-13-15-17-18-17-15-17----------------------|
b:-------------------------------------------------------------|
g:-------------------------------------------------------------|
d:-----------------------------------------tremolo-pick--------|
a:-------------------------------------------------------------|
d:-------------------------------------------------------------|

e:-13-15-17-13-15-17-13-15-17-20~---------------------------------|
b:----------------------------------------------------------------|
g:----------------------------------------------------------------|
d:-----------------------------------------tremolo-pick-----------|
a:----------------------------------------------------------------|
d:----------------------------------------------------------------|


SOLO:

Rhythm:

e:-----------------------------------------------------------------------|
b:-----------------------------------------------------------------------|
g:-----------------------------------------------------------------------|
d:---0----2----3----5----3----2------------12----8----7----5----3----2---|
a:---0----2----3----5----3----2------------12----8----7----5----3----2---|
d:---0----2----3----5----3----2------------12----8----7----5----3----2---|

e:--------------------------------------------------------------------------|
b:-------------------really-fast--------------------------------------------|
g:--------------------------------------------------------------------------|
d:-7-----------7-----------7----------7-----------7-----------7-------------|
a:-5-5-5-5-5-5-5-5-5-5-5-5-5-5-5-5----4-4-4-4-4-4-4-4-4-4-4-4-4-4-4-4-------|
d:-------------------------------------------------------------------|------|

e:----------------------------------------------------------------------|
b:----------------------------------------------------------------------|
g:----------------------------------------------------------------------|
d:-5-----------5-----------5----------5-----------5-----------5---------|
a:-3-3-3-3-3-3-3-3-3-3-3-3-3-3-3-3----2-2-2-2-2-2-2-2-2-2-2-2-2-2-2-2---|
d:----------------------------------------------------------------------|

e:------------------------------------------------------------|
b:------------------------------------------------------------|
g:---------------------------------------2--------------------|
d:-3-----------3-----------3-------------2--------3----2------|
a:-1-1-1-1-1-1-1-1-1-1-1-1-1-1-1-1-------0--------3----2------|
d:------------------------------------------------3----2------|

Lead:

Too fast to figure out for now.


DUEL SOLO:

Rhythm 1:

e:-----------twice-----------------------------------------------------|
b:--------------------------palm-mute----------------------------------|
g:---------------------------------------------------------------------|
d:--0-0---0-0---0-0----------------------0-0---0-0---0-0---------------|
a:--0-0---0-0---0-0----------------------0-0---0-0---0-0---------------|
d:--0-0---0-0---0-0----------------------0-0---0-0---0-0---------------|

Rhythm 2:

e:---------------------------------------------twice--------------------|
b:------------------6-5---6-5---------------------6-5---6-5-------------|
g:----------------------------------------------------------------------|
d:----------------------7------7-6--------------------7------7-6--------|
a:----------------------------------------------------------------------|
d:----------------------------------------------------------------------|

Leads:

Too fast to figure out for now


DUEL SOLO 2:

Rhythm:

e:----------------------------------------------------------------------|
b:-----------------------palm-mute--------------------------------------|
g:----------------------------------------------------------------------|
d:--------0-0---0-0---0-0---0-0---0-0----5-5---5-5---5-5---5-5---5-5----|
a:--------0-0---0-0---0-0---0-0---0-0----5-5---5-5---5-5---5-5---5-5----|
d:--------0-0---0-0---0-0---0-0---0-0----5-5---5-5---5-5---5-5---5-5----|

e:------------------------palm-mute-----------------------------------------|
b:--------------------------------------------------------------------------|
g:--------------------------------------------------------------------------|
d:----3-3---3-3---3-7---7-7---7-7------0-0---0-0---0-0----------------------|
a:----5-5---5-5---5-7---7-7---7-7------0-0---0-0---0-0----------------------|
d:----3-3---3-3---3-7---7-7---7-7------0-0---0-0---0-0----5b6r5-0-6-7-0-3~--|

e:-----------------------------------------------------------------------|
b:-----------------------palm-mute---------------------------------------|
g:-----------------------------------------------------------------------|
d:--------0-0---0-0---0-0---0-0---0-0----5-5---5-5---5-5---5-5---5-5-----|
a:--------0-0---0-0---0-0---0-0---0-0----5-5---5-5---5-5---5-5---5-5-----|
d:--------0-0---0-0---0-0---0-0---0-0----5-5---5-5---5-5---5-5---5-5-----|

e:------------------------palm-mute---------------------------------------|
b:------------------------------------------------------------------------|
g:------------------------------------------------------------------------|
d:------3-3---3-3---3-7---7-7---7-7--------0---7---8---5---7-5-3----0-----|
a:------5-5---5-5---5-7---7-7---7-7--------0---7---8---5---7-5-3----0-----|
d:------3-3---3-3---3-7---7-7---7-7--------0---7---8---5---7-5-3----0-----|

Lead 1:

e:----------------------------10-10-10-12b13r12-10------------------------|
b:-------------------10-10-10---------------------------------------------|
g:----------10-10-10------------------------------------------------------|
d:-12-12-12---------------------------------------------------------------|
a:------------------------------------------------------------------------|
d:------------------------------------------------------------------------|

e:----------------------------15-15-15-17b18r17-15----------------------|
b:-------------------15-15-15-------------------------------------------|
g:----------15-15-15----------------------------------------------------|
d:-17-17-17-------------------------------------------------------------|
a:----------------------------------------------------------------------|
d:----------------------------------------------------------------------|

e:-13-13-13----------13-13-13-12-12-12--------------------------------|
b:----------15-15-15-------------------14-14-14-10-10-10--------------|
g:--------------------------------------------------------------------|
d:--------------------------------------------------------------------|
a:--------------------------------------------------------------------|
d:--------------------------------------------------------------------|

e:-10-10-10------------------------------------------------------------|
b:----------10-10-10---------------------------------------------------|
g:-------------------10-10-10-12b13r12-10-12---------------------------|
d:-------------------------------------------12-10---------------------|
a:---------------------------------------------------------------------|
d:---------------------------------------------------------------------|

e:----------------------------10-10-10-12b13r12-10---------------------|
b:-------------------10-10-10------------------------------------------|
g:----------10-10-10---------------------------------------------------|
d:-12-12-12------------------------------------------------------------|
a:---------------------------------------------------------------------|
d:---------------------------------------------------------------------|

e:----------------------------15-15-15-17b18r17-15---------------------|
b:-------------------15-15-15------------------------------------------|
g:----------15-15-15---------------------------------------------------|
d:-17-17-17------------------------------------------------------------|
a:---------------------------------------------------------------------|
d:---------------------------------------------------------------------|

e:-13-13-13--------------------------------9-12-10-9------------------|
b:---------15-15-15-10-10-10-------------10---------------------------|
g:---------------------------10-10-10---9-----------------------------|
d:--------------------------------------------------------------------|
a:--------------------------------------------------------------------|
d:--------------------------------------------------------------------|

e:---10-------------------------------------------------------------|
b:-----10-11------10------------------------------------------------|
g:------------12------12-10-9---------------------------------------|
d:-----------------------------12~----------------------------------|
a:------------------------------------------------------------------|
d:------------------------------------------------------------------|

Lead 2:

e:-----------------------------10-10-10-12b13r12-10----------------|
b:--------------------10-10-10-------------------------------------|
g:----------10-10-10-----------------------------------------------|
d:-12-12-12--------------------------------------------------------|
a:-----------------------------------------------------------------|
d:-----------------------------------------------------------------|

e:----------------------------15-15-15-17b18r17-15-------------------|
b:-------------------15-15-15----------------------------------------|
g:----------15-15-15-------------------------------------------------|
d:-17-17-17----------------------------------------------------------|
a:-------------------------------------------------------------------|
d:-------------------------------------------------------------------|

e:-13-13-13----------13-13-13-12-12-12----------12-12-12--------------|
b:----------15-15-15-------------------14-14-14-----------------------|
g:--------------------------------------------------------------------|
d:--------------------------------------------------------------------|
a:--------------------------------------------------------------------|
d:--------------------------------------------------------------------|

e:-10-10-10-----------------------------------------------------------|
b:----------10-10-10--------------------------------------------------|
g:-------------------10-10-10-12b13r12-10-12--------------------------|
d:-------------------------------------------12-10--------------------|
a:--------------------------------------------------------------------|
d:--------------------------------------------------------------------|

e:-------------------10-10-10-13-13-13-15b17r15-13---------------------|
b:----------10-10-10---------------------------------------------------|
g:-10-10-10------------------------------------------------------------|
d:---------------------------------------------------------------------|
a:---------------------------------------------------------------------|
d:---------------------------------------------------------------------|

e:-------------------15-15-15-18-18-18-20b22r20-18--------------------|
b:----------15-15-15--------------------------------------------------|
g:-15-15-15-----------------------------------------------------------|
d:--------------------------------------------------------------------|
a:--------------------------------------------------------------------|
d:--------------------------------------------------------------------|

e:-17-17-17-13-13-13-10-10-10-----------------12-15-13-12------------|
b:----------------------------10-10-10------14-----------------------|
g:----------------------------------------14-------------------------|
d:-------------------------------------------------------------------|
a:-------------------------------------------------------------------|
d:-------------------------------------------------------------------|

e:--13---------9----------------------------------------------------|
b:----------------11-10-12-10~--------------------------------------|
g:----10-12-9-------------------------------------------------------|
d:------------------------------------------------------------------|
a:------------------------------------------------------------------|
d:------------------------------------------------------------------|


CLEAN SECTION: (3/4 Time)

Clean Guitar:

(let ring)
e:------------------------------------------------------------------|
b:------------------------------------------------------------------|
g:------------------------------------------------------0h2~--------|
d:------2-3-2-0-------2-3-2-0-------2-3-2-0--------0----------------|
a:----0-------------0-------------0--------------0---0--------------|
d:--0-------------2-------------3--------------5--------------------|

e:-----------------------------------------------------------------|
b:-----------------------------------------------------------------|
g:-------------------------------------------------------5p2~------|
d:------2-3-2-0-------2-3-2-0-------2-3-2-0--------0---------------|
a:----0-------------0-------------0--------------0---0-------------|
d:--0-------------2-------------3--------------5-------------------|

Play both of those together four times.

e:-----------------------------------play-four-times------------------|
b:--------------------------------------------------------------------|
g:------4---4-------4----4---------6----6-------6----6----------------|
d:----2-------2---2--------2----4---------4---4---------4-------------|
a:--0-----0-----0------0------0-------0-----0------0------------------|
d:--------------------------------------------------------------------|

e:------------------------------------------------------------------------|
b:------------------------------------------------------------------------|
g:-----------------not-quite-sure-about-this-next-part--------------------|
d:------------------------------------------------------------------------|
a:------------------------------------------------------------------------|
d:------------------------------------------------------------------------|


MAIN CLEAN SECTION:

"He may be out of his mind..."

e:--------------------------------------------------------------------|
b:--------------------------------------------------------------------|
g:--------------------------------------------------------------------|
d:---------15----15---------15----15----------------------------------|
a:------12----------12---12----------12-------------------------------|
d:---12-------12------12-------12-------------------------------------|

e:--------------------------------------------------------------------|
b:--------------------------------------------------------------------|
g:--------------------------------------------------------------------|
d:--------12---12-------12----12--------------------------------------|
a:------8---------8---8-----------8-----------------------------------|
d:----8------8------8------8------------------------------------------|

e:--------------------------------------------------------------------|
b:--------------------------------------------------------------------|
g:--------------------------------------------------------------------|
d:---------12----12---------12------12--------------------------------|
a:------10----------10----10------------10----------------------------|
d:----9--------9-------9--------9-------------------------------------|

e:--------------------------------------------------------------------|
b:--------------------------------------------------------------------|
g:--------------------------------------------------------------------|
d:--------14-----14-----------14----14--------------------------------|
a:------10----------10-----12-----------12----------------------------|
d:---10-------10-------11--------11-----------------------------------|

Play four times

"I say it just moves on..."

Rhythm:

e:----------------------------------------------------------------|
b:----------palm-mute-all-----------------------------------------|
g:----------------------------------------------------------------|
d:----------------------------------------------------------------|
a:----0-------------0-------------0-------------------------------|
d:----0---0-0-0-0---0---0-0-0-0---0---0-0-0-0-0-0-0-0-------------|

e:---------------------------------------------------------------|
b:----------palm-mute-all----------------------------------------|
g:---------------------------------------------------------------|
d:---------------------------------------------------------------|
a:----0------------0--------------0------------------------------|
d:----0---0-0-0-0--0---0-0-0-0----0------------------------------|

Guitar 1 & 2:

e:--------------------------------------------------------------|
b:--------------------------------------------------------------|
g:--------------------------------------------------------------|
d:---7-0-7-8----5-0-5-7---------------------5-------------------|
a:------------------------------8-5-----4-7---------------------|
d:-----------------------------------7--------------------------|

e:----------------------------------------------------------------|
b:----------------------------------------------------------------|
g:----------------------------------------------------------------|
d:---7-0-7-8----5-0-5-7-------------------------------------------|
a:-----------------------------------0---DIVE-BOMB----------------|
d:-----------------------------------0----------------------------|

"If you'd only open your mind..."

Rhythm:

e:------------------------------------------------------------------|
b:----------------------------------------------twice---------------|
g:------------------------------------------------------------------|
d:--0-----8-----5-----10-----7--------------------------------------|
a:--0-----8-----5-----10-----7--------------------------------------|
d:--0-----8-----5-----10-----7--------------------------------------|

e:-----------------------------------------------------------------|
b:----------------------------------------------twice--------------|
g:-----------------------------------------------------------------|
d:--0-----3-----5-----5-----7--------------------------------------|
a:--0-----1-----2-----3-----4--------------------------------------|
d:--0--------------------------------------------------------------|

Lead 1:

e:------------------------------------------------------------------|
b:------------------------------------------------------------------|
g:--/7-10-9-10-------/10-9-10-------/10-9-10--------/10-9-10-9------|
d:--------------7-8------------8-9------------9-10------------------|
a:------------------------------------------------------------------|
d:----------------------------------------four-times----------------|

Lead 2:

e:--------------------------------------------------------------------|
b:-------10-8-10-------/10-8-10-------/10-8-10------/10-8-10-8--------|
g:--/10-----------5-7------------5-7------------7-9-------------------|
d:--------------------------------------------------------------------|
a:--------------------------------------------------------------------|
d:-----------------------------------------four-times-----------------|


REPEAT FULL CHORUS:

Rhythm:

e:-------------------------------------------------------------|
b:-------------------------------------------------------------|
g:-------------------------------------------------------------|
d:-------------3----------------------------------7------------|
a:-------------3----------------------------------7------------|
d:-------------3----------------------------------7------------|

e:-------------------------------------------------------------|
b:-------------------------------------------------------------|
g:-------------------------------------------------------------|
d:------------7-----------------------------------5------------|
a:------------5-----------------------------------3------------|
d:-------------------------------------------------------------|

e:-------------------------------------------------------------|
b:-------------------------------------------------------------|
g:-------------------------------------------------------------|
d:-------------3----------------------------------7------------|
a:-------------3----------------------------------7------------|
d:-------------3----------------------------------7------------|

e:-------------------------------------------------------------|
b:-------------------------------------------------------------|
g:-------------------------------------------------------------|
d:------------7-----------------------------------5------------|
a:------------5-----------------------------------3------------|
d:-------------------------------------------------------------|

Lead 1:

e:--/13---15-13-15-17-----/8-9-12---/18-17-15-17----------------|
b:--------------------------------------------------------------|
g:--------------------------------------------------------------|
d:--------------------------------------------------------------|
a:--------------------------------------------------------------|
d:--------------------------------------------------------------|

e:--13-17-15-17-13-17-12-17-12-17-13-17-----8-10-8-10-12-13-15-15-17-18-----|
b:--------this-part-twice---------------------------------------------------|
g:--------------------------------------------------------------------------|
d:--------------------------------------------------------------------------|
a:--------------------------------------------------------------------------|
d:--------------------------------------------------------------------------|

e:--/13---15-13-15-17--------/8-9-12---18-17-15-17---------------|
b:---------------------------------------------------------------|
g:---------------------------------------------------------------|
d:---------------------------------------------------------------|
a:---------------------------------------------------------------|
d:---------------------------------------------------------------|

e:---13-17-15-17-13-17-12-17-12-17-13-17---------------------------|
b:-----------------------------------------------------------------|
g:-----------------------------------------------------twice-------|
d:-----------------------------------------------------------------|
a:-----------------------------------------------------------------|
d:-----------------------------------------------------------------|

e:----12-15-13-15-12-15-10-15-10-15-12-15---------------------------|
b:------------------------------------------------------------------|
g:------------------------------------------------------------------|
d:-------------------------------------------------------twice------|
a:------------------------------------------------------------------|
d:------------------------------------------------------------------|

Lead 2:

e:--/17---18-17-18-20----/12-12-15---22-21-19-21-------------|
b:-----------------------------------------------------------|
g:-----------------------------------------------------------|
d:-----------------------------------------------------------|
a:-----------------------------------------------------------|
d:-----------------------------------------------------------|

e:-----------------------------------------12-13-12-13-15-17-18-18-20-22------|
b:--15-18-17-18-15-18-13-18-13-18-15-18---------------------------------------|
g:-------this-part-twice------------------------------------------------------|
d:----------------------------------------------------------------------------|
a:----------------------------------------------------------------------------|
d:----------------------------------------------------------------------------|

e:--/17---18-17-18-20----/12-12-15---/22-21-19-21--------------|
b:-------------------------------------------------------------|
g:-------------------------------------------------------------|
d:-------------------------------------------------------------|
a:-------------------------------------------------------------|
d:-------------------------------------------------------------|

e:--------------------------------------------------------------|
b:----15-18-17-18-15-18-13-18-13-18-15-18-----------------------|
g:--------------------------------------------------------------|
d:--------------------------------------------------twice-------|
a:--------------------------------------------------------------|
d:--------------------------------------------------------------|

e:--------------------------------------------------------------|
b:----13-17-15-17-13-17-12-17-12-17-13-17-----------------------|
g:--------------------------------------------------------------|
d:--------------------------------------------------------------|
a:---------------------------------------------------twice------|
d:--------------------------------------------------------------|

Rhythm:

e:-----------------------------------------------------------------------|
b:-----------------------------------------------------------------------|
g:-----------------------------------------------------------------------|
d:---3------------------------------0--------------\\\\\\\--pick---------|
a:---1------------------------------0--------------\\\\\\\--slide--------|
d:----------------------------------0--------------\\\\\\\---------------|

Lead 1:

e:------6--8--6--8--10--12--13--12--10----------------|
b:----------------------------------------------------|
g:----------------------------------------------------|
d:----------------------------------------------------|
a:----------------------------------------------------|
d:----------------------------------------------------|

Lead 2:

e:-------10--12--10--12--13--15--17--15--13--------|
b:-------------------------------------------------|
g:-------------------------------------------------|
d:-------------------------------------------------|
a:-------------------------------------------------|
d:-------------------------------------------------|


REPEAT OF INTRO:

Lead 1:

e:-----------------------------------------------------------------------|
b:--------------10-11~-10-10h11p10p9h10~-------10-11~-10b11r10-8~--------|
g:------------10------------------------------9--------------------------|
d:---/12~--/12-----------------------------/11---------------------------|
a:-----------------------------------------------------------------------|
d:-----------------------------------------------------------------------|

e:---------------------------------------------------------------------------|
b:--8-10-8-7-5-3-5-7-8-3~----/15-15-14-/17~-15~---/15-15-14-/17-15-------14--|
g:-----------------------------------------------------------------14-16-----|
d:---------------------------------------------------------------------------|
a:---------------------------------------------------------------------------|
d:---------------------------------------------------------------------------|

e:---/17-17-16-16--------------------------17-19-17~~---------------------|
b:------------------14/17\14-----13-17------------------------------------|
g:------------------------------------------------------------------------|
d:------------------------------------------------------------------------|
a:------------------------------------------------------------------------|
d:------------------------------------------------------------------------|

Lead 2:

e:--------------------------------------------------------------------------|
b:--------------------------------------------------------------------------|
g:--9--11---9---7--6--4--6--7--9--4-----------------------------------------|
d:--x---x---x---x--x--x--x--x--x--x-----------------------------------------|
a:--7---9---7---5--4--2--4--5--7--2-----------------------------------------|
d:--------------------------------------------------------------------------|

e:---/14~-14-12-/15-14--/13-13-12-/15-13-9-10-12~---------|
b:--------------------------------------------------------|
g:--------------------------------------------------------|
d:--------------------------------------------------------|
a:--------------------------------------------------------|
d:--------------------------------------------------------|

e:-------------------/17-17-16-16-------------------------------------|
b:---------------------------------14/17\14~-------10-13-13-15-13~~---|
g:--------------------------------------------------------------------|
d:--------------------------------------------------------------------|
a:--------------------------------------------------------------------|
d:--------------------------------------------------------------------|

Rhythm:

e:-----------------------------------------------------------------|
b:-----------------------------------------------------------------|
g:-----------------------------------------------------------------|
d:---0-------------7-----------2-------------9---------------------|
a:---0-------------7-----------2-------------9---------------------|
d:---0-------------7-----------2-------------9---------------------|

e:----------------------------------------------------------------|
b:----7------------6---------------2-----------1------------------|
g:----7------------7---------------2-----------2------------------|
d:----7------------7---------------2-----------2------------------|
a:----5------------5---------------0-----------0------------------|
d:----------------------------------------------------------------|

Then...

e:-----------------------------------------------------------------|
b:-----------------------------------------------------------------|
g:-----------------------------------------------------------------|
d:----3-3-3-3----3-3-3-3----0-0-0-0----0-0-0-0----7----------------|
a:----3-3-3-3----3-3-3-3----0-0-0-0----0-0-0-0----7----------------|
d:----3-3-3-3----3-3-3-3----0-0-0-0----0-0-0-0----7----------------|


OUTRO:

"Tonight we all die young..." (4/4 Time)

Piano...

e:-----------------------------------------------------------------|
b:-----------------------------------------------------------------|
g:-----------------------------------------------------------------|
d:--3-3-3-------5-5-5-------7-7-7----------------------------------|
a:--1-1-1-------3-3-3-------5-5-5----------------------------------|
d:-----------------------------------------------------------------|

Once drum beat starts...

e:-----------------------------------------------------------------|
b:-----------------------------------------------------------------|
g:-----------------------------------------------------------------|
d:--3-3-3-3----5-5-5-5----0-0-0-0----------------------------------|
a:--1-1-1-1----3-3-3-3----0-0-0-0----------------------------------|
d:------------------------0-0-0-0----------------------------------|


ENDING:

e:-------------------------------------------------------------------|
b:----------palm-mute-all--------------------------------------------|
g:-------------------------------------------------------------------|
d:-------------------------------------------------------------------|
a:----0-------------0-------------0----------------------------------|
d:----0---0-0-0-0---0---0-0-0-0---0---0-0-0-0-0-0-0-0----------------|

e:---------------------------------------------------------------------|
b:----------palm-mute-all-but-the-last-not-----------------------------|
g:---------------------------------------------------------------------|
d:--------------------------------------------------------0------------|
a:----0-------------0-------------0-----------------------0------------|
d:----0---0-0-0-0---0---0-0-0-0---0---0-0-0-0-0-0-0-0-----0------------|

I hope you like this tab of Nightmare because it took a LONG TIME TO MAKE. I 
am open to any criticism anyone may have. Please Comment. Thank you.
comments
print report bad tab
I want to post or [tab]
guest
You may want to rate the tab now too:
select rating
Please do not post tabs as comments. Select "correction" instead!