Oops, an error
Loading. Please wait.

Remenissions Bass Tab

ver2
ver2

Whole song

More versions @911Tabs.com
205 views 6 this week
no commentswrite comment
1 2 3 4 5
excellent!
x 2
Autoscroll
+/-
esc
set tempo
stop
Contributor
Difficulty
Tuning
novice
D A D G B E
Hey! There's an official Ultimate Guitar app which is ideal
for learning songs when you're away from computer. Get the app
WARNING: You are trying to view
                                    content from Ultimate-Guitar.com
                                    in an unauthorized application,
                                    which is prohibited.

                                    Please use an official Ultimate
                                    Guitar Tabs application for iPhone,
                                    iPad or Android to access legitimate
                                    chords, guitar, bass, and drum tabs
                                    from Ultimate-Guitar.com database.

                                    Type "ultimate guitar tabs" in Apple
                                    App Store's or Android Market's
                                    search to find the application.
G|-----------------------------------------------------------------|
D|-----------------------------------------------------------------|
A|-----------------------------------------------------------------|
D|-0-r-----------------------------0-0-0-0-0-----------------------|
   1 + 2 + 3 + 4 + 1 + 2 + 3 + 4 + 1 + 2 + 3 + 4 + 1 + 2 + 3 + 4 +

G|------------------------------------------------------------------|
D|o-----------------------------------------------------------------|
A|o-5-5-5-5-5-5-5-5-5-5-5-5-5-5-5-5-0-0-0-0-0-0-0-0-0-0-0-0-0-0-0-0-|
D|------------------------------------------------------------------|
    1 + 2 + 3 + 4 + 1 + 2 + 3 + 4 + 1 + 2 + 3 + 4 + 1 + 2 + 3 + 4 +

G|------------------------------------------------------------------|
D|-----------------------------------------------------------------o|
A|-1-1-1-1-1-1-1-1-1-1-1-1-1-1-1-1-0-0-0-0-0-0-0-0-4---4---4---4---o|
D|------------------------------------------------------------------|
   1 + 2 + 3 + 4 + 1 + 2 + 3 + 4 + 1 + 2 + 3 + 4 + 1 + 2 + 3 + 4 +

0:28
G|-----------------------------------------------------------------|
D|-----------------------------------------------------------------|
A|---------5-------------------------------6-----------------------|
D|-0-0---0-------------------------0-0---0-------------------------|
   1 + 2 + 3 + 4 + 1 + 2 + 3 + 4 + 1 + 2 + 3 + 4 + 1 + 2 + 3 + 4 +

G|-----------------------------------------------------------------|
D|-----------------------------------------------------------------|
A|---------1-----------------------0---------------0-r-------------|
D|-0-0---0---------------------------------------------------------|
   1 + 2 + 3 + 4 + 1 + 2 + 3 + 4 + 1 + 2 + 3 + 4 + 1 + 2 + 3 + 4 +

0:38
G|-----------------------------------------------------------------|
D|-----------------------------------------------------------------|
A|---------------------------------1---111/5-----1---1-1-1-5-------|
D|-0---0-0-3p2-0-0-----0-0-3p2-0-----------------------------------|
   1 + 2 + 3 + 4 + 1 + 2 + 3 + 4 + 1 + 2 + 3 + 4 + 1 + 2 + 3 + 4 +

G|-----------------------------------------------------------------|
D|---------5-3-2-0---2---------------------------------------------|
A|-3---3-3-------------3-------3-3-1-1-1-----------3-3-3-0---0-0---|
D|---------------------------------------5---5-5-------------------|
   1 + 2 + 3 + 4 + 1 + 2 + 3 + 4 + 1 + 2 + 3 + 4 + 1 + 2 + 3 + 4 +

G|-----------------------------------------------------------------|
D|-----------------------------------------------------------------|
A|---------------------------------1---111/5-----1---1-111/5-------|
D|-0---0-0-3p2-0-0-----0-0-3p2-0-----------------------------------|
   1 + 2 + 3 + 4 + 1 + 2 + 3 + 4 + 1 + 2 + 3 + 4 + 1 + 2 + 3 + 4 +

G|-----------------------------------------------------------------|
D|---------5-3-2-0---2---------------------------------------------|
A|-3---3-3-------------3-------3-3-1-1-1-----------3-3-3-0---0-0---|
D|---------------------------------------5---5-5-------------------|
   1 + 2 + 3 + 4 + 1 + 2 + 3 + 4 + 1 + 2 + 3 + 4 + 1 + 2 + 3 + 4 +

G|---------------------------------|
D|---------------------------------|
A|---------------------------------|
D|-0-------0-------0-------0-------|
   1 + 2 + 3 + 4 + 1 + 2 + 3 + 4 +

1:02
G|------------------------------------------------------------------|
D|o-----------------------------------------------------------------|
A|o---------------------------------1---111/5-----1---1-111/5-------|
D|--0---0-0-3p2-0-0-----0-0-3p2-0-----------------------------------|
    1 + 2 + 3 + 4 + 1 + 2 + 3 + 4 + 1 + 2 + 3 + 4 + 1 + 2 + 3 + 4 +

G|------------------------------------------------------------------|
D|---------5-3-2-0---2---------------------------------------------o|
A|-3---3-3-------------3-------3-3-1---------------3-----0---0-0---o|
D|---------------------------------------5---5-5--------------------|
   1 + 2 + 3 + 4 + 1 + 2 + 3 + 4 + 1 + 2 + 3 + 4 + 1 + 2 + 3 + 4 +

1:23
G|-------------------------------------------------------------------------|
D|-------------------------------------------------------------------------|
A|-------------------------------------------------------------------------|
D|-0---1---0-0---0---0-0-0---0-0-0-0---1---0-0---0---0-0-0---0-0-0---0-0-0-|
   1 + 2 + 3 + 4 + 1 + 2 + 3 + 4 + 1 + 2 + 3 + 4 + 1 + 2 + 3 + 4 + 5 + 6 +

G|-----------------------------------------------------------------|
D|-----------------------------------------------------------------|
A|-----------------------------------------------------------------|
D|-0---1---0-0---0---0-0-0---0-0-0-0---1---0-0---0---0-0-0---0-0-0-|
   1 + 2 + 3 + 4 + 1 + 2 + 3 + 4 + 1 + 2 + 3 + 4 + 1 + 2 + 3 + 4 +

1:35
G|-----------------------------------------------------------------|
D|-----------------------------------------------------------------|
A|---------------------------------1-----1-1-----1-----1-1-1-1-----|
D|-0-------------0---0-0-0---0-0-0-----------------------------2h3-|
   1 + 2 + 3 + 4 + 1 + 2 + 3 + 4 + 1 + 2 + 3 + 4 + 1 + 2 + 3 + 4 +

G|-----------------------------------------------------------------|
D|-------------------------------------------------3-2-0---0-------|
A|-------------------------------5-3---3-3-3---3-3-------3---3-2-0-|
D|-5-----5-5-----5-----5-5-5---5-----------------------------------|
   1 + 2 + 3 + 4 + 1 + 2 + 3 + 4 + 1 + 2 + 3 + 4 + 1 + 2 + 3 + 4 +

1:45
G|-----------------------------------------------------------------|
D|-----------------------------------------------------------------|
A|---------------------------------1-----1-1-----1-----1-1-1-1-----|
D|-0---0-0-0---------------------------------------------------2h3-|
   1 + 2 + 3 + 4 + 1 + 2 + 3 + 4 + 1 + 2 + 3 + 4 + 1 + 2 + 3 + 4 +

G|-----------------------------------------------------------------|
D|-------------------------------------------------3-2-0---0-------|
A|-------------------------------5-3---3-3-3---3-3-------3---3-2-0-|
D|-5-----5-5-----5-----5-5-5---5-----------------------------------|
   1 + 2 + 3 + 4 + 1 + 2 + 3 + 4 + 1 + 2 + 3 + 4 + 1 + 2 + 3 + 4 +

1:56
G|-----------------------------------------------------------------|
D|-----------------------------------------------------------------|
A|---------5---------------------------------------0-----1-----3h5-|
D|-0---0-----------0-----3-----4---5-------------------------------|
   1 + 2 + 3 + 4 + 1 + 2 + 3 + 4 + 1 + 2 + 3 + 4 + 1 + 2 + 3 + 4 +

G|-----------------------------------------------------------------|
D|-----------------------------------------------------------------|
A|-3---3---3-----3-3-3-3---5---3-2-----------------0---0---3---3---|
D|---------------------------------3---3---3---3-------------------|
   1 + 2 + 3 + 4 + 1 + 2 + 3 + 4 + 1 + 2 + 3 + 4 + 1 + 2 + 3 + 4 +

G|-----------------------------------------------------------------|
D|-----------------------------------------------------------------|
A|-5---5-------------------------------------------------0-----1---|
D|---------0-------0-----3-----4---5---5---5-------5---------------|
   1 + 2 + 3 + 4 + 1 + 2 + 3 + 4 + 1 + 2 + 3 + 4 + 1 + 2 + 3 + 4 +

G|-----------------------------------------------------------------|
D|-----------------------------------------------------------------|
A|-3---3---3---3---3-3-3---5---3-2-------------------------0-0-0---|
D|---------------------------------3---3-3-3-3-3-3-5-5-5-5---------|
   1 + 2 + 3 + 4 + 1 + 2 + 3 + 4 + 1 + 2 + 3 + 4 + 1 + 2 + 3 + 4 +

2:17
G|-----------------------------------------------------------------|
D|-----------------------------------------------------------------|
A|-----------------------------------------------------------------|
D|-0---0-0-0-0-0-0-0-0-0-0-0-0-0-0-5---5-5-5-5-5-5-5-5-5-5-5-5-5-5-|
   1 + 2 + 3 + 4 + 1 + 2 + 3 + 4 + 1 + 2 + 3 + 4 + 1 + 2 + 3 + 4 +

G|-----------------------------------------------------------------|
D|-----------------------------------------------------------------|
A|-3---3-3-3-3-3-3-3-3-3-3-3-3-3-3-----------------0---0-0-0-0-0-0-|
D|---------------------------------3---3-3-3-3-3-3-----------------|
   1 + 2 + 3 + 4 + 1 + 2 + 3 + 4 + 1 + 2 + 3 + 4 + 1 + 2 + 3 + 4 +

G|-----------------------------------------------------------------|
D|-----------------------------------------------------------------|
A|-----------------------------------------------------------------|
D|-0---0-0-0-0-0-0-0-0-0-0-0-0-0-0-5---5-5-5-5-5-5-5-5-5-5-5-5-5-5-|
   1 + 2 + 3 + 4 + 1 + 2 + 3 + 4 + 1 + 2 + 3 + 4 + 1 + 2 + 3 + 4 +

G|-----------------------------------------------------------------|
D|-----------------------------------------------------------------|
A|-3---3-3-3-3-3-3-3-3-3-3-3-3-3-3-1---------------3---------------|
D|-----------------------------------------------------------------|
   1 + 2 + 3 + 4 + 1 + 2 + 3 + 4 + 1 + 2 + 3 + 4 + 1 + 2 + 3 + 4 +

2:39
G|-----------------------------------------------------------------|
D|-----------------------------------------------------------------|
A|-5-5-\---5-5-\---5-5-\---5-5-\---1-1-----------------------------|
D|-------------------------------------------------3-3-------------|
   1 + 2 + 3 + 4 + 1 + 2 + 3 + 4 + 1 + 2 + 3 + 4 + 1 + 2 + 3 + 4 +

2:44
G|-----------------------------------------------------------------|
D|-------2-3-2-0---------------------------------------------------|
A|---------------0-1-1-1-1-1-1-1-1-3-3-3-3-3-3-3-3-----------------|
D|-0-0-0-------------------------------------------3-3-3-3-2-2-2-2-|
   1 + 2 + 3 + 4 + 1 + 2 + 3 + 4 + 1 + 2 + 3 + 4 + 1 + 2 + 3 + 4 +

G|-----------------------------------------------------------------|
D|-------2-3-2-0-----------------------------------3-3-3-3---------|
A|---------------0-1-1-1-1-1-1-1-1-3-3-3-3-3-3-3-3---------3-3-3-3-|
D|-0-2-3-----------------------------------------------------------|
   1 + 2 + 3 + 4 + 1 + 2 + 3 + 4 + 1 + 2 + 3 + 4 + 1 + 2 + 3 + 4 +

G|-----------------------------------------------------------------|
D|-------2-3-2-0---------------------------------------------------|
A|---------------0-1-1-1-1-1-1-1-1-3-3-3-3-3-3-3-3-----------------|
D|-0-0-0-------------------------------------------3-3-3-3-2-2-2-2-|
   1 + 2 + 3 + 4 + 1 + 2 + 3 + 4 + 1 + 2 + 3 + 4 + 1 + 2 + 3 + 4 +

G|---------------------------------------------------------------------------------|
D|-------2-3-2-0-------------------------------------------------------------------|
A|---------------0-1-1-1-1-1-1-1-1-3-3-3-3-3--1--3-5-------------------------------|
D|-0-2-3---------------------------------------------------------------------------|
   1 + 2 + 3 + 4 + 1 + 2 + 3 + 4 + 1 + 2 + Triplet 1 + 2 + 3 + 4 + 1 + 2 + 3 + 4 +

3:07
G|---------------------------------------------------------------------------------------------------|
D|o--------------------------------------------------------------------------------/7-77-77-7-77-77-o|
A|o-5-55-55-3-33-33-1-11-11-0-00-00-1-11-11-1-11-11-1-11-11-1-11-11-0-00-00-0-00-00-----------------o|
D|---------------------------------------------------------------------------------------------------|
    1 + 2 + 3 + 4 + 1 + 2 + 3 + 4 + 1 + 2 + 3 + 4 + 1 + 2 + 3 + 4 + 1 + 2 + 3 + 4 + 1 + 2 + 3 + 4 +

3:23
G|-----------------------------------------------------------------|
D|-----------------------------------------------------------------|
A|-3-33-33-3-33-33-3-33-3-33-3-3-3-1-11-11-1-11-11-1-11-11-1-11-11-|
D|-----------------------------------------------------------------|
   1 + 2 + 3 + 4 + 1 + 2 + 3 + 4 + 1 + 2 + 3 + 4 + 1 + 2 + 3 + 4 +

G|-----------------------------------------------------------------|
D|-----------------------------------------------------------------|
A|-0-0-0-0-0-0-0-0-0-0-0-0-0-0-0-0-0-0-0-0-0-0-0-0-0-0-0-0-0-0-0-0-|
D|-----------------------------------------------------------------|
   1 + 2 + 3 + 4 + 1 + 2 + 3 + 4 + 1 + 2 + 3 + 4 + 1 + 2 + 3 + 4 +

3:33
G|---------------------------------|-----------------------------------|
D|---------7h8p7-------------8p7---|o-----------8p7-------------8p7---o|
A|---------------------------------|o---------------------------------o|x5
D|-0---------------0-0-0-----------|--0---------------0-0-0------------|
   1 + 2 + 3 + 4 + 1 + 2 + 3 + 4 +    1 + 2 + 3 + 4 + 1 + 2 + 3 + 4 +

4:05
G|-------------------------------------------------------------------|
D|o-----------------------------------------------------------------o|
A|o-----------------------------------------------------------------o|
D|--0-------1-------2-------3-------0-------1-------2-------3--------|
    1 + 2 + 3 + 4 + 1 + 2 + 3 + 4 + 1 + 2 + 3 + 4 + 1 + 2 + 3 + 4 +

4:17
G|-------------------------------------------------------------------|
D|o------------------------------------------------------------------|
A|o-----------------------------------1-1-------------1-1---1-1-1111-|
D|--0-0---------------0-0---0-0-000000-------------------------------|
    1 + 2 + 3 + 4 + 1 + 2 + 3 + 4 + 1 + 2 + 3 + 4 + 1 + 2 + 3 + 4 +

G|------------------------------------------------------------------|
D|-----------------------------------------------------------------o|
A|-113-3-------------3-3---3-3-3-3---------------------------------o|
D|---------------------------------3-3-3-3-3-3-3-3-2-2-2-2-2-2-2-2--|
   1 + 2 + 3 + 4 + 1 + 2 + 3 + 4 + 1 + 2 + 3 + 4 + 1 + 2 + 3 + 4 +

4:38
G|-----------------------------------------------------------------|
D|-----------------------------------------------------------------|
A|-------------------------------------------------------0-----1---|
D|-0---0-0-0-0-----0---0-3---3-4---5-----5-5-5-----5---------------|
   1 + 2 + 3 + 4 + 1 + 2 + 3 + 4 + 1 + 2 + 3 + 4 + 1 + 2 + 3 + 4 +

G|-----------------------------------------------------------------|
D|-----------------------------------------------------------------|
A|-3---3-3-3-3---3-3---3---5---3-2-----------------0---0---3---3---|
D|---------------------------------3---3---3---3-------------------|
   1 + 2 + 3 + 4 + 1 + 2 + 3 + 4 + 1 + 2 + 3 + 4 + 1 + 2 + 3 + 4 +

G|-----------------------------------------------------------------|
D|-----------------------------------------------------------------|
A|-5---5---5-----------------------------------------------0-0-1-1-|
D|-----------------0-----3-----4---5---5-5-5-5-----5-----5---------|
   1 + 2 + 3 + 4 + 1 + 2 + 3 + 4 + 1 + 2 + 3 + 4 + 1 + 2 + 3 + 4 +

G|-----------------------------------------------------------------|
D|-----------------------------------------------------------------|
A|-3---3-3-3-3---3-3-3-3-3-5---3-2-----------------0---0-----------|
D|---------------------------------3---3---3---3-----------3---3---|
   1 + 2 + 3 + 4 + 1 + 2 + 3 + 4 + 1 + 2 + 3 + 4 + 1 + 2 + 3 + 4 +

5:00
G|-----------------------------------------------------------------|
D|-----------------------------------------------------------------|
A|-------------------------------------------------------0-1-1-3h5-|
D|-0---0-0-0-0-----0-----3-----4---5-----5-5-5-----5---------------|
   1 + 2 + 3 + 4 + 1 + 2 + 3 + 4 + 1 + 2 + 3 + 4 + 1 + 2 + 3 + 4 +

G|-----------------------------------------------------------------|
D|-----------------------------------------------------------------|
A|-3---3-3-3-3---3-3-3-3---5---3-2-----------------0---0---3---3---|
D|---------------------------------3---3---3---3-------------------|
   1 + 2 + 3 + 4 + 1 + 2 + 3 + 4 + 1 + 2 + 3 + 4 + 1 + 2 + 3 + 4 +

G|-----------------------------------------------------------------|
D|-----------------------------------------------------------------|
A|-5---5---5-------5-------------------------------------0-1-1-3h5-|
D|-----------------------3-----4---5---5-5-5-------5---------------|
   1 + 2 + 3 + 4 + 1 + 2 + 3 + 4 + 1 + 2 + 3 + 4 + 1 + 2 + 3 + 4 +

G|-----------------------------------------------------------------|
D|-----------------------------------------------------------------|
A|-3---3-3-3-3---3-3-3-3---5---3---0---0---0---0---0---0-----------|
D|---------------------------------------------------------7---\---|
   1 + 2 + 3 + 4 + 1 + 2 + 3 + 4 + 1 + 2 + 3 + 4 + 1 + 2 + 3 + 4 +

G|-----------------------------------------------------------------------|
D|-----------------------------------------------------------------------|
A|-----------------------------------------------------------------*-----|
D|-1---1---1---1---1---1---1---1---3---3---3---3---3---3---3---3---0-----|
   1 + 2 + 3 + 4 + 1 + 2 + 3 + 4 + 1 + 2 + 3 + 4 + 1 + 2 + 3 + 4 +

5:35    
G|-----------------------------------| 
D|o---------------------------------o|
A|o---------------------------------o|repeat and fade out
D|--0-0-0-0-0-0-0-0-0-0-0-0-0-0-0-0--|
    1 + 2 + 3 + 4 + 1 + 2 + 3 + 4 + 
Tabbed by Dave Vucko
comments
We did not receive enough feedback on this tab! Please rate:
print report bad tab
1 2 3 4 5
I want to post or [tab]
guest
You may want to rate the tab now too:
select rating
Please do not post tabs as comments. Select "correction" instead!