Oops, an error
Loading. Please wait.

Save Me Tab

ver4
ver4

Intro

Solo

Whole song

More versions @911Tabs.com
8,471 views 1 this week
7 commentsread comments
1 2 3 4 5
accurate
x 11
Autoscroll
+/-
esc
set tempo
stop
Contributor
Difficulty
Tuning
advanced
D A D G B E
WARNING: You are trying to view
                                    content from Ultimate-Guitar.com
                                    in an unauthorized application,
                                    which is prohibited.

                                    Please use an official Ultimate
                                    Guitar Tabs application for iPhone,
                                    iPad or Android to access legitimate
                                    chords, guitar, bass, and drum tabs
                                    from Ultimate-Guitar.com database.

                                    Type "ultimate guitar tabs" in Apple
                                    App Store's or Android Market's
                                    search to find the application.
Save Me
Avenged Sevenfold
Nightmare.

Transcribed by Seth Sanders.

 Intro - done on bass but w/e
  Q=98
 3/4
  Gtr I
   \6_____________________________________________________________________
|-------------------|-----------------|---------------|------------------|
|-------------------|-----------------|---------------|------------------|
|-------------------|-----------------|---------------|------------------|
|-------------------|-----------------|---------------|------------------|
|-------------------|-----------------|---------------|------------------|
|-(0)--0-0-0-0--0-0-|-0---0-0-0-0-0-0-|-0--0-0-0--0-0-|-0---0-0-0-0-0-0--|


                                                            /
|---------------|-----------------|---------------|---------------------||
|---------------|-----------------|---------------|---------------------||
|---------------|-----------------|---------------|---------------------||
|---------------|-----------------|---------------|---------------------||
|---------------|-----------------|---------------|---------------------||
|-0--0-0-0--0-0-|-0---0-0-0-0-0-0-|-0--0-0-0--0-0-|-0--(0)-(0)---(0)----||
|
| Gtr II
|                                                              <
|---------------|-----------------|---------------|------------1--------||
|---------------|-----------------|---------------|------------3--------||
|---------------|-----------------|---------------|------------2--------||
|---------------|-----------------|---------------|------------0--------||
|---------------|-----------------|---------------|---------------------||
|---------------|-----------------|---------------|---------------------||


 Guitar Solo I
  Gtrs I, II
|----------------------|-------------------------|
|----------------------|-------------------------|
|----------------------|-------------------------|
|---0----------0----(0)|---0-----0------------(0)|
|---0----------0----(0)|---0-----0------------(0)|
|---0----------0-----0-|---3-----3-------------3-|
|
| Gtr III
|   ~~~                    ~~~~~~~~
|----------------------|-------------------------|
|-------------------10h|==11----10-(10)h11p10p=9s|
|----------------10----|-------------------------|
|-/12--(12)\-/12-------|-------------------------|
|----------------------|-------------------------|
|----------------------|-------------------------|
|
| Gtr VI
|--10------------------|-(10)--------------------|
|---x------------------|-------------------------|
|---7------------------|--(7)--------------------|
|----------------------|-------------------------|
|----------------------|-------------------------|
|----------------------|-------------------------|


|----------------------|--------------------------|
|----------------------|--------------------------|
|--2----------2-----(2)|--2--------2----------(2)-|
|--2----------2-----(2)|--2--------2----------(2)-|
|--0----------0------0-|--4--------4-----------4--|
|----------------------|--------------------------|
|
|  ~~                     ~~~~~~~~~~~
|----------------------|--------------------------|
|-10--(10)\---------10h|=11-------10-(10)b11r(10)-|
|----------------9-----|--------------------------|
|-----------/11--------|--------------------------|
|----------------------|--------------------------|
|----------------------|--------------------------|
|
| Gtr V
|----------------------|--------------------------|
|------(6)-------------|--------------------------|
|-------------6-(6)----|-(6)--(6)-----(7)---------|
|-------------x--------|--------------------------|
|-/4---(4)----0-(0)----|--------------------------|
|----------------------|--------------------------|


|-------------------|---------------|-----------------|-------------------||
|-------------------|---------------|-----------------|-------------------||
|-------------------|--6----6---(6)-|-----------------|-------------------||
|--2-----2------(2)-|--7----7---(7)-|-12---12----(12)-|-12---12------(12)-||
|--4-----4-------4--|--4----4----4--|--9----9-----(9)-|--9----9-------(9)-||
|--5-----5------(5)-|---------------|--9----9------9--|--0----0--------0--||
|
| Gtr III
|  ~~~                 ~~~~~~~~~~~~~~~~~~~~~~~~~~~~~~~~~~~~
|-------------------|---------------|-----------------|-------------------||
|--8----(8)\--5s=8--|-10--8-7-------|-------7-8-------|---------------10S=||
|-------------------|---------9-----|--7-9------------|--7------(7)\------||
|-------------------|---------------|-----------------|-------------------||
|-------------------|---------------|-----------------|-------------------||
|-------------------|---------------|-----------------|-------------------||
|
| Gtr IV
|  ~~~                 ~~~~~  ~~~~~~~~~~~~~~~~                   PM
|-------------------|---------------|-----------------|-------------------||
|-------------------|---------------|-----------------|---------------14S=||
|-(9)---------6s=9--|-11-\9---------|-----------------|-------------------||
|-------------------|-------0-------|-------4-5\------|--0----------------||
|-------------------|---------4-----|--5-7------------|----------0--------||
|-------------------|---------------|-----------------|----------0--------||


 Guitar Duet I
|------------------|---------------|
|------------------|---------------|
|--2---2--2-(2)----|--2--2--2-(2)--|
|--0---0--0-(0)----|--0--0--0-(0)--|
|--0---0--0-(0)----|--0--0--0-(0)--|
|--0---0--0-(0)----|--0--0--0-(0)--|
|
|  ~~~~~~~~~          ~~~~~~~~~~~~~~
|------------------|---------------|
|-15-----15-----14S|=17----15------|
|------------------|---------------|
|------------------|---------------|
|------------------|---------------|
|------------------|---------------|
|
|  ~~~~~~~~~          ~~~~~~~~~~~~~~
|------------------|---------------|
|-19--19-19-----17S|=20----19------|
|------------------|---------------|
|------------------|---------------|
|------------------|---------------|
|------------------|---------------|


|----------------------|---------------------|
|----------------------|---------------------|
|---7------7--7-(7)----|--7----7---7-(7)-----|
|---3------3--3-(3)----|--3----3---3-(3)-----|
|---5------5--5-(5)----|--5----5---5-(5)-----|
|---3------3--3-(3)----|--3----3---3-(3)-----|
|
|~~~~~~~~~~          ~~      ~~           ~~
|----------------------|---------------------|
|--15-(15)---15S====14-|-17S15---\10h====12--|
|----------------------|---------------------|
|----------------------|---------------------|
|----------------------|---------------------|
|----------------------|---------------------|
|
|~~~~~~~~~~          ~~      ~~           ~~
|----------------------|---------------------|
|-/18-(18)---18S====17-|-20S18---\14-----15--|
|----------------------|---------------------|
|----------------------|---------------------|
|----------------------|---------------------|
|----------------------|---------------------|


|-------------------------------|----------------------------------|
|-------------------------------|----------------------------------|
|---6-------------6-------(6)---|--6---------------6-----------(6)-|
|---2-------------2-------(2)---|--2---------------2-----------(2)-|
|---4-------------4-------(4)---|--4---------------4-----------(4)-|
|---2-------------2-------(2)---|--2---------------2-----------(2)-|
|
|   ~~~
|-------------------------------|------------------------12--------|
|-/14-(14)S22-22-22s=21---21S===|=14s17s===14-(14)------(14)-------|
|-------------------------------|----------------------------------|
|-------------------------------|----------------------------------|
|-------------------------------|----------------------------------|
|-------------------------------|----------------------------------|
|
|   ~~~
|------------------------/17-17-|-17s===16----(16)S9s12s=====9-(9)-|
|--17---------------(17)--------|----------------------------------|
|-------------------------------|----------------------------------|
|-------------------------------|----------------------------------|
|-------------------------------|----------------------------------|
|-------------------------------|----------------------------------|


                         PM----|
|------------------|-------------||
|------------------|-------------||
|---2-----2----(2)-|--2----------||
|---2-----2----(2)-|--2----------||
|---0-----0-----0--|--0--0-0-0-0-||
|------------------|-------------||
|
|   ~~~~~~~~          ~~
|------------------|-------------||
|-----13-13-15-----|-------------||
|-/14--------------|-14----------||
|------------------|-------------||
|------------------|-------------||
|------------------|-------------||
|
|   ~~~~~~~~          ~~
|--------17-19-----|-17----------||
|-----17-----------|-------------||
|-/17--------------|-------------||
|------------------|-------------||
|------------------|-------------||
|------------------|-------------||


 Pre-Solo
  Gtrs I, II
  PM-----------------------------------------
|-------------------|-----------------------|
|-------------------|-----------------------|
|-------------------|-----------------------|
|-------------------|-----------------------|
|-0--0-0-0-0--0-0-0-|-0---0-0-0-0-0-0-0-0-0-|
|-0--0-0-0-0--0-0-0-|-0---0-0-0-0-0-0-0-0-0-|


 -----------------------------------------|
|-------------------|-----------------------|
|-------------------|-----------------------|
|-------------------|-----------------------|
|-------------------|-----------------------|
|-0--0-0-0-0--0-0-0-|-0---0-0-0-0-0-0-0-0-0-|
|-0--0-0-0-0--0-0-0-|-0---0-0-0-0-0-0-0-0-0-|


  PM-------------------------------------------------------------
|-----------------------------|---------------------------------|
|-----------------------------|---------------------------------|
|-----------------------------|---------------------------------|
|-----------------------------|---------------------------------|
|-0-------0-0-0-0-------0-0-0-|-0-----------0-0-0-0-0-0-0-0---0-|
|-0-------0-0-0-0-------0-0-0-|-0-----------0-0-0-0-0-0-0-0---0-|
|
| Gtr V
|                                           PM--------------|
|-----------------------------|---------------------------------|
|-----------------------------|---------------------------------|
|-----------------------------|---------------------------------|
|-7p0h7h8-x-----5p0h5h7-x-----|-3p0-----2h5---------------------|
|-----------------------------|-----0h4-------------------------|
|-----------------------------|-------------0-0-0-0-0-0-0---0---|


 -------------------------------------------------------------|
|-----------------------------|-----------------------------------|
|-----------------------------|-----------------------------------|
|-----------------------------|-----------------------------------|
|-----------------------------|-----------------------------------|
|-0-------0-0-0-0-------0-0-0-|-0-----------0-0-0-0-0-0-0-0---0---|
|-0-------0-0-0-0-------0-0-0-|-0-----------0-0-0-0-0-0-0-0---0---|
|
|                                           PM--------------|
|-----------------------------|-----------------------------------|
|-----------------------------|-----------------------------------|
|-----------------------------|-----------------------------------|
|-7p0h7h8-x-----5p0h5h7-x-----|-3p0-----2h5-----------------------|
|-----------------------------|-----0h4---------------------------|
|-----------------------------|-------------0-0-0-0-0-0-0---0-----|


   PM---------------------------------------------------------------------------------------
|--------------------------------------------|---------------------------------------------|
|--------------------------------------------|---------------------------------------------|
|--------------------------------------------|---------------------------------------------|
|--------------------------------------------|---------------------------------------------|
|--0------------0---0-0--0-----------0---0-0-|--0---------------0--0--0--0--0--0--0-0----0-|
|--0------------0---0-0--0-----------0---0-0-|--0---------------0--0--0--0--0--0--0-0----0-|
|
| Gtr III
|               ~~~~~                ~~~~~                   ~~ PM--------------------|
|--------------------------------------------|---------------------------------------------|
|--------------------------------------------|---------------------------------------------|
|--------------------------------------------|---------------------------------------------|
|--7p=0h=7h=8--(8)\------5p0h=5h=7--(7)\-----|--3p=0------2h=5-----------------------------|
|--------------------------------------------|--------0h4----------------------------------|
|--------------------------------------------|------------------0--0--0--0--0--0--0----0---|
|
| Gtr IV
|               ~~~~~                ~~~~~                   ~~ PM--------------------|
|--------------------------------------------|---------------------------------------------|
|--------------------------------------------|---------------------------------------------|
|----------15-(15)\-------------14-(14)\-----|-10---------9h12-----------------------------|
|-14p12h14--------------12p0h12--------------|----12---------------------------------------|
|--------------------------------------------|-------12S8----------------------------------|
|--------------------------------------------|-----------------12-12-12-12-12-12-12---12---|


 ----------------------------------------------------------------------------------|
|--------------------------------------------|------------------------------------------||
|--------------------------------------------|------------------------------------------||
|--------------------------------------------|------------------------------------------||
|--------------------------------------------|------------------------------------------||
|--0------------0---0-0--0-----------0---0-0-|--0---------------0-0-0--0-0-0--0--0-0----||
|--0------------0---0-0--0-----------0---0-0-|--0---------------0-0-0--0-0-0--0--0-0----||
|
|               ~~~~~                ~~~~~                      ~~~~~~~~~
|--------------------------------------------|------------------------------------------||
|--------------------------------------------|--------------------------------6\--------||
|--------------------------------------------|-----------------/6------7----------------||
|--7p=0h=7h=8--(8)\------5p0h=5h=7--(7)\-----|--3p=0------2h=5--------------------------||
|--------------------------------------------|--------0h4-------------------------------||
|--------------------------------------------|------------------------------------------||
|
|               ~~~~~                ~~~~~                   ~~~~~~~~~~~~
|--------------------------------------------|------------------------------------------||
|--------------------------------------------|------------------------------------------||
|----------15-(15)\-------------14-(14)\-----|-10---------9h12--9-----10-----14\--------||
|-14p12h14--------------12p0h12--------------|----12------------------------------------||
|--------------------------------------------|-------12S8-------------------------------||
|--------------------------------------------|------------------------------------------||


 Guitar Duet II
  D5 D      C#E/E       G5G       C#mEE
  Gtrs I, II
   | || | | | ||  | |   | ||  | |  | | |  | |
   / o/ / / / o/  / /   / o/  / /  / o /  / /

  Gtr III
   ~~~      ~           ~          ~~
|---------------------|-----------------------|
|---------------------|-----------------------|
|-/7--------7----10p9-|-7----------------10p9-|
|-----0---7----7------|----7h10p7-----11------|
|-------8-------------|-----------10----------|
|---------------------|-----------------------|
|
| Gtr IV
|  ~~~      ~                      ~~
|---------------------|-----------------------|
|---------------------|-----------------------|
|-----------2-----3p2p|=0-----2---------------|
|---------3----3------|----3----3p=2------3p2-|
|--5p=0-5-------------|----------------4------|
|---------------------|-----------------------|


  D5D      BbBb5A5ype 2G5G         C#m/E
  | || | | | |   |     |   | |  | |  |   | ||    |
  / o/ / / / /   /     /   o /  / /  /   o //    /

  ~~       ~
|--------------------|----------------------9h10p9h10---|
|--------------------|-------------/10-/11--------------|
|-7--------7----10p9-|-9-/10--/12-----------------------|
|----0---7----7------|----------------------------------|
|------8-------------|----------------------------------|
|--------------------|----------------------------------|
|
| ~~       ~
|--------------------|----------------------5h=6p5h=6---|
|--------------------|------------------/5--------------|
|----------2-----3p2-|-0--/3---/7---/6------------------|
|--------3----3------|----------------------------------|
|-5p=0-5-------------|----------------------------------|
|--------------------|----------------------------------|


  D5    D           C#m/E E             G5    G           C#m/E E
   |     |  |  |  |  |     |  |  |  |    |     |  |  |  |  |     |  |  |  |
   /     o  /  /  /  /     o  /  /  /    /     o  /  /  /  /     o  /  /  /

   ~~~               ~~                  ~~                ~~
|-------------------------------------|-------------------------------------|
|-------------------------------------|-------------------------------------|
|--7-----------------7----------10p=9-|--7----------------------------10p=9-|
|-----------0-----7-----------7-------|-----------7h10p=7----------10-------|
|--------------8----------------------|-------------------10----------------|
|-------------------------------------|-------------------------------------|
|
|  ~~~               ~~                                    ~~
|-------------------------------------|-------------------------------------|
|-------------------------------------|-------------------------------------|
|--------------------2-----------3p=2p|==0-----------2----------------------|
|-----------------3-----------3-------|-----------3-----3p=2-----------3p=2-|
|--5p=======0--5----------------------|-----------------------------4-------|
|-------------------------------------|-------------------------------------|
|
| Gtr VI Actually done by orchestra
|----------10----------------10-------|----------12-------------12h13p12----|
|-------11----11----------11----11----|-------11----11-------14----------14-|
|----10----------10----10----------10-|----12----------12h14----------------|
|-12----------------12----------------|-14----------------------------------|
|-------------------------------------|-------------------------------------|
|-------------------------------------|-------------------------------------|


  D5    D           Bb5   Bb5(tyA5 2)   G5G         C#m/E     E
   |     |  |  |  |  |     |     |      |   | |  | ||          | | |  |
   /     o  /  /  /  /     /     /      /   o /  / //          o / /  /

   ~~~               ~~
|-------------------------------------|----------------------------9h10---||
|-------------------------------------|-------------9h10p9h10h11----------||
|--7-----------------7----------10p=9-|-9-/10--/12------------------------||
|-----------0-----7-----------7-------|-----------------------------------||
|--------------8----------------------|-----------------------------------||
|-------------------------------------|-----------------------------------||
|
|  ~~~               ~~
|-------------------------------------|-----------------------------------||
|-------------------------------------|---------------------------10h11---||
|--------------------2-----------3p=2-|-0--/3---/7--9h10p9h10h12----------||
|-----------------3-----------3-------|-----------------------------------||
|--5p=======0--5----------------------|-----------------------------------||
|-------------------------------------|-----------------------------------||
|
|----------10----------------10-------|----------------------------9------||
|-------11----11----------11----11----|-8--10---11--9h10p9h10h11--10------||
|----10----------10----10----------10-|-9-/10--/12------------------------||
|-12----------------12----------------|-----------------------------------||
|-------------------------------------|-----------------------------------||
|-------------------------------------|-----------------------------------||


 Guitar Solo II
  Gtrs I, II
|--------------------------------|--------------------------------------|
|--------------------------------|--------------------------------------|
|--------------------------------|--------------------------------------|
|--0----0-0--0--0--2----2--2-2-2-|--5--5-5-------5--5-2-2-2-2-2---------|
|--0----0-0--0--0--4----4--4-4-4-|--5--5-5-------5--5-4-4-4-4-4---------|
|--0----0-0--0--0--2----2--2-2-2-|--5--5-5-------5--5-2-2-2-2-2---------|
|
| Gtr V
|                  \6_______________/       \1___________________/
|                                                ~~~
|--------------------------------|--------------------------------------|
|--------------------------------|---------[5]--(5)-------------(5)-(5)-|
|-<5>b7-----(5)---(5)--(5)-------|-(5)-----(5)--------------------------|
|--------------------------------|--------------------------------------|
|--------------------------------|--------------------------------------|
|--------------------------------|--------------------------------------|


            PM
|--------------------|----------------------------------------|
|--------------------|----------------------------------------|
|--7---7-7-----3-3-2-|----------------------------------------|
|--7---7-7-----3-3-2-|--5--5-5--5--5------2-2--2--------2--2--|
|--5---5-5--0--1-1-0-|--5--5-5--5--5------4-4--4--------4--4--|
|--0---0-0--0--------|--5--5-5--5--5------2-2--2--------2--2--|
|
|  /1___________________________/
|                                         ~~
|-<3>------(3)-------|-(3)-----(3)---(3)----------------------|
|--------------------|----------------------------------------|
|--------------------|-------------------/9---(9)h10p9--------|
|--------------------|---------------------------------12p10--|
|--------------------|----------------------------------------|
|--------------------|----------------------------------------|


|---------------------------------|-------------------------------------------|
|---------------------------------|-------------------------------------------|
|---------------------------------|-------------------------------------------|
|--0---0---0--0--0--2-2-2----2--2-|--5-5----5--5-5-2---2-----2-----2-----2----|
|--0---0---0--0--0--4-4-4----4--4-|--5-5----5--5-5-4---4-----4-----4-----4----|
|--0---0---0--0--0--2-2-2----2--2-|--5-5----5--5-5-2---2-----2-----2-----2----|
|
|  ~~               ~~  PM           ~~
|---------------------------------|-----------10S==9--------------------13h15-|
|------------------10------/11p10-|------10--------------------13h15h17-------|
|---------------10------0p--------|-12---------------/12h14h15----------------|
|-12-(12)s10-12---------0p--------|-------------------------------------------|
|---------------------------------|-------------------------------------------|
|---------------------------------|-------------------------------------------|


           PM
|-----------------------|--------------------------------------||
|-----------------------|--------------------------------------||
|--7-7---7----3-3-----2-|--------------------------------------||
|--7-7---7----3-3-----2-|--5---------5--5----5-5--2-2---2-2-2--||
|--5-5---5-0--1-1-----0-|--5---------5--5----5-5--4-4---4-4-4--||
|--0-0---0-0------------|--5---------5--5----5-5--2-2---2-2-2--||
|
|  ~~~~~~~~~~~~~~~~~~~                     ~~~~~~~~~~~~~~~
|-17---\13---15---\13---|-12s13-15-(15)s==18-----17---/21------||
|-----------------------|--------------------------------------||
|-----------------------|--------------------------------------||
|-----------------------|--------------------------------------||
|-----------------------|--------------------------------------||
|-----------------------|--------------------------------------||


 Pre-Verse
  D5         C/E         F5           G5
  Gtrs I, II
   |         |             |          |
   /         /             /          /

  Gtr III
   ~~        ~             ~~~~                 PM
|----------------------|--------------------------|
|----------------------|--------------------------|
|----2h3p0-----2h3p0---|------2h3p0---0-----------|
|--3-------0-3-------0-|---3--------3---2h3-0h2---|
|----------------------|------------------------4-|
|----------------------|--------------------------|
|
| Gtr IV
|  ~~        ~             ~~~~                 PM
|----------------------|--------------------------|
|----------------------|--------------------------|
|------7p3-------7p3---|--------7p3---------------|
|----3-----3---3-----3-|------3-------2-----3h5-2-|
|--5---------5---------|---5--------5---4h5-------|
|----------------------|--------------------------|
|
| Gtr V
|                          >
|  ~~~~~~~~~~~~~~~~~~~~~~~~~~~
|-22-------------------|-(22)---------------------|
|----------------------|--------------------------|
|----------------------|--------------------------|
|----------------------|--------------------------|
|----------------------|--------------------------|
|----------------------|--------------------------|


  D5         C/E         F5        G5
  |          |           |         |
  /          /           /         /

  ~~         ~           ~                   PM
|----------------------|-------------------------|
|----------------------|-------------------------|
|----2h3p0-----2h3p0---|---2h3p0---0-------------|
|-3--------0-3-------0-|-3-------3---2h3-0h2-----|
|----------------------|---------------------4---|
|----------------------|-------------------------|
|
|    PM      ~           ~                   PM
|----------------------|-------------------------|
|----------------------|-------------------------|
|-9\---7p3-------7p3---|-----7p3-----------------|
|----0-----3---3-----3-|---3-------2-----3h5-2---|
|------------5---------|-5-------5---4h5---------|
|----------------------|-------------------------|
|
|----------------------|-------------------------|
|----------------------|-------------------------|
|----------------------|-------------------------|
|----------------------|-------------------------|
|----------------------|-------------------------|
|----------------------|-------------------------|


  D5          C/E         F5        G5
   |          |           |         |
   /          /           /         /

   ~~~        ~           ~                   PM
|-----------------------|-----------------------|
|-----------------------|-----------------------|
|-----2h3p0-----2h3p0---|---2h3p0---0-----------|
|--3--------0-3-------0-|-3-------3---2h3-0h2---|
|-----------------------|---------------------4-|
|-----------------------|-----------------------|
|
|     PM      ~           ~                   PM
|-----------------------|-----------------------|
|-----------------------|-----------------------|
|-10\---7p3-------7p3---|-----7p3---------------|
|-----0-----3---3-----3-|---3-------2-----3h5-2S|
|-------------5---------|-5-------5---4h5-------|
|-----------------------|-----------------------|


  D5        C/E         F5        G5
  |         |           |         |
  /         /           /         /

  ~         ~           ~                   PM
|---------------------|-------------------------|
|---------------------|-------------------------|
|---2h3p0-----2h3p0---|---2h3p0---0-------------|
|-3-------0-3-------0-|-3-------3---2h3-0h2-----|
|---------------------|---------------------4---|
|---------------------|-------------------------|
|
| ~ PM      ~           ~                   PM
|---------------------|-------------------------|
|---------------------|-------------------------|
|-----7p3-------7p3---|-----7p3-----------------|
|-7-0-----3---3-----3-|---3-------2-------------|
|-----------5---------|-5-------5---4h5-1h4-0---|
|---------------------|-------------------------|


  Gtrs I, II
  PM--------------------------------------------------------------|
|-------------------|-----------------------|-------------------|---------||
|-------------------|-----------------------|-------------------|---------||
|-------------------|-----------------------|-------------------|---------||
|-------------------|-----------------------|-------------------|---------||
|-0--0-0-0-0--0-0-0-|-0---0-0-0-0-0-0-0-0-0-|-0--0-0-0-0--0-0-0-|-0-----x-||
|-0--0-0-0-0--0-0-0-|-0---0-0-0-0-0-0-0-0-0-|-0--0-0-0-0--0-0-0-|-0-----x-||


 Verse I
  D5(type 2)                    A5(type 2)A/C#
  Gtr I
  |          |                   |          |
  /          /                   /          /

  Gtr II
|--------|--------------------|---------|----------------------|
|--------|--------------------|---------|----------------------|
|-7------|--------------------|--2------|----------------------|
|-x------|--------------------|--x------|----------------------|
|-5------|-/13--(13)S12--(12)\|--0------|-/13--(13)S12--(12)\--|
|--------|--------------------|---------|----------------------|

  G5                              G/B
   |          |                    |        |
   /          /                    /        /

|---------|---------------------|---------|------------|
|---------|--/6---(6)-(6)--(6)\-|---------|------------|
|---------|---------------------|--4------|-7---12\----|
|--5------|------------5---(5)\-|--x------|-x----x-----|
|--5------|------------7---(7)\-|--2------|-5---10\----|
|--5------|---------------------|---------|------------|

  D5(type 2)               A5(type 2)A/C#
   |        |               |        |
   /        /               /        /

|-^5------|-5----5-------|--5------|-5----5---------|
|-^6------|-6----6-------|--1------|-1----1---------|
|-^7------|-7----7-------|--2------|-2----2---------|
|---------|--------------|---------|----------------|
|---------|--------------|---------|----------------|
|---------|--------------|---------|---------------|

  A/C#                      C
   |         |              |         |
   /         /              /         /

|---------|---------------|-3---3---|-3-------3---||
|--5------|--5-(5)--5-5---|-5---5---|-5-------5---||
|--6------|--6-(6)--6-6---|-5---5---|-5-------5---||
|--x------|--x------x-x---|---------|-------------||
|--4------|--4-(4)--4-4---|---------|-------------||
|---------|---------------|---------|-------------||

 Pre-Chorus
  Gtrs I, II
    PM----|   PM----|     PM----|   PM----|
|---------------------|---------------------|
|---------------------|---------------------|
|---------------------|---------------------|
|-0---------0---------|-6---------7---------|
|-0-0-0-0-0-0-0-0-0-0-|-7-7-7-7-7-4-4-4-4-4-|
|-0-0-0-0-0-0-0-0-0-0-|-6-6-6-6-6-7-7-7-7-7-|


    PM----|   PM----|     PM----|   PM----|
|---------------------|----------------------|
|---------------------|----------------------|
|---------------------|----------------------|
|-0---------0---------|-6---------7----------|
|-0-0-0-0-0-0-0-0-0-0-|-7-7-7-7-7-4-4-4-4-4--|
|-0-0-0-0-0-0-0-0-0-0-|-6-6-6-6-6-7-7-7-7-7--|


  Gtr I
  PM|    PM   PM  PM     ~   PM|    PM   PM  PM  ~
|--------------------------|-----------------------|
|--------------------------|-----------------------|
|--------------------------|-----------------------|
|--------------------------|-----------------------|
|-0-0----0----0---0----0---|-0-0----0----0---0-----|
|-0-0-12-0-11-0-8-0-11-0-8-|-0-0-12-0-11-0-8-0-7S8-|
|
| Gtr II
| PM|    PM   PM  PM     ~   PM|    PM   PM  PM  ~
|--------------------------|-----------------------|
|--------------------------|-----------------------|
|--------------------------|-----------------------|
|--------------------------|-----------------------|
|-0-0----0----0---0----0---|-0-0----0----0---0-----|
|-0-0--8-0-11-0-5-0--8-0-5-|-0-0--8-0-11-0-5-0-3S5-|


  PM|    PM   PM  PM     ~
|--------------------------|---------------------||
|--------------------------|---------------------||
|--------------------------|---------------------||
|--------------------------|-8-8-8-8--7-7-7-7----||
|-0-0----0----0---0----0---|-8-8-8-8--7-7-7-7----||
|-0-0-12-0-11-0-8-0-11-0-8-|-8-8-8-8--7-7-7-7----||
|
| PM|    PM   PM  PM     ~
|--------------------------|---------------------||
|--------------------------|---------------------||
|--------------------------|---------------------||
|--------------------------|-8-8-8-8--7-7-7-7----||
|-0-0----0----0---0----0---|-8-8-8-8--7-7-7-7----||
|-0-0--8-0-11-0-5-0--8-0-5-|-8-8-8-8--7-7-7-7----||


 Chorus
  F5
  Gtrs I, II
    | ||||  | || |  |    | |||||  |  | | |
    / ////  / // /  /    / /////  /  / / /

  Gtr III
    ~~~~~~~~~~           ~~~~~~~~~~~~~~~~~~
|---------------------|-------------------|
|-/15-----/17---15h17h|=18------(18)--18--|
|---------------------|-------------------|
|---------------------|-------------------|
|---------------------|-------------------|
|---------------------|-------------------|
|
| Gtr IV
|   ~~~~~~~~~~           ~~            ~~~~
|-/13-----/15---13h15h|=17------(17)------|
|---------------------|---------------15--|
|---------------------|-------------------|
|---------------------|-------------------|
|---------------------|-------------------|
|---------------------|-------------------|


  A5
   | | | || |    || |  |    | |||||||||
   / / / // /    // /  /    / /////////

 ~~~~~~~~                   ~~
|----------21b22---21p19-|-21-----------|
|-17--18-----------------|--------------|
|------------------------|--------------|
|------------------------|--------------|
|------------------------|--------------|
|------------------------|--------------|
|
|~~~~~~~~                   ~~
|----------17b18---17p15-|-17-----------|
|-14--15-----------------|--------------|
|------------------------|--------------|
|------------------------|--------------|
|------------------------|--------------|
|------------------------|--------------|


  F5
   |     |  |  |  |  |     |  |  |  |    |     |  |  |  |  |     |  |  |  |
   /     /  /  /  /  /     /  /  /  /    /     /  /  /  /  /     /  /  /  /

|-13h17p15h17p13h17p12h17p13h17p15h17-|-13h17p15h17p13h17p12h17p13h17p15h17-|
|-------------------------------------|-------------------------------------|
|-------------------------------------|-------------------------------------|
|-------------------------------------|-------------------------------------|
|-------------------------------------|-------------------------------------|
|-------------------------------------|-------------------------------------|
|
|-10h13p12h13p10h13p=8h13p10h13p12h13-|-10h13p12h13p10h13p=8h13p10h13p12h13-|
|-------------------------------------|-------------------------------------|
|-------------------------------------|-------------------------------------|
|-------------------------------------|-------------------------------------|
|-------------------------------------|-------------------------------------|
|-------------------------------------|-------------------------------------|


  C5                C(type 2)
    | ||||  | ||||    |   | | | | |  | | |  |
    / ////  / ////    /   / / / / /  / / /  /

    ~~~~~~~~~~
|-----------------|--15s=17--18--18s20--22\--|
|-/17-----/18-----|--------------------------|
|-----------------|--------------------------|
|-----------------|--------------------------|
|-----------------|--------------------------|
|-----------------|--------------------------|
|
|   ~~~~~~~~~~
|-----------------|-[12]s13--15--15s17--18\--|
|-/13-----/15-----|--------------------------|
|-----------------|--------------------------|
|-----------------|--------------------------|
|-----------------|--------------------------|
|-----------------|--------------------------|


  F5
    | ||||  | || |  |    | |||||  |  | | |
    / ////  / // /  /    / /////  /  / / /

    ~~~~~~~~~~           ~~~~~~~~~~~~~~~~~~
|---------------------|-------------------|
|-/15-----/17---15h17h|=18------(18)--18--|
|---------------------|-------------------|
|---------------------|-------------------|
|---------------------|-------------------|
|---------------------|-------------------|
|
|   ~~~~~~~~~~           ~~            ~~~~
|-/13-----/15---13h15h|=17------(17)------|
|---------------------|---------------15--|
|---------------------|-------------------|
|---------------------|-------------------|
|---------------------|-------------------|
|---------------------|-------------------|


  A5
   | | | || |    || |  |    | |||||||||
   / / / // /    // /  /    / /////////

 ~~~~~~~~                   ~~
|----------21b22---21p19-|-21-----------|
|-17--18-----------------|--------------|
|------------------------|--------------|
|------------------------|--------------|
|------------------------|--------------|
|------------------------|--------------|
|
|~~~~~~~~                   ~~
|----------17b18---17p15-|-17-----------|
|-14--15-----------------|--------------|
|------------------------|--------------|
|------------------------|--------------|
|------------------------|--------------|
|------------------------|--------------|


  F5
   |     |  |  |  |  |     |  |  |  |    |     |  |  |  |  |     |  |  |  |
   /     /  /  /  /  /     /  /  /  /    /     /  /  /  /  /     /  /  /  /

|-13h17p15h17p13h17p12h17p13h17p15h17-|-13h17p15h17p13h17p12h17p13h17p15h17-|
|-------------------------------------|-------------------------------------|
|-------------------------------------|-------------------------------------|
|-------------------------------------|-------------------------------------|
|-------------------------------------|-------------------------------------|
|-------------------------------------|-------------------------------------|
|
|-10h13p12h13p10h13p=8h13p10h13p12h13-|-10h13p12h13p10h13p=8h13p10h13p12h13-|
|-------------------------------------|-------------------------------------|
|-------------------------------------|-------------------------------------|
|-------------------------------------|-------------------------------------|
|-------------------------------------|-------------------------------------|
|-------------------------------------|-------------------------------------|


  C5                                    C(type 2)
   |     |  |  |  |  |     |  |  |  |    |     |  |  |  |  |     |  |  |  |
   /     /  /  /  /  /     /  /  /  /    /     /  /  /  /  /     /  /  /  /

|-12h15p13h15----15p10h15p12h15p13h15-|-12h15p13h15----15p10h15p12h15p13h15----||
|-------------13----------------------|-------------13-------------------------||
|-------------------------------------|----------------------------------------||
|-------------------------------------|----------------------------------------||
|-------------------------------------|----------------------------------------||
|-------------------------------------|----------------------------------------||
|
|--8h12p10p=8----12p=7h12p=8h12p10h12-|--8h12p10p=8----12p=7h12p=8h12p10h12----||
|-------------10----------------------|-------------10-------------------------||
|-------------------------------------|----------------------------------------||
|-------------------------------------|----------------------------------------||
|-------------------------------------|----------------------------------------||
|-------------------------------------|----------------------------------------||


 Pre-Verse
  Gtrs I, II
  PM|   PM|     PM|   PM--------|         PM|   PM|     PM|
|-------------|-------------------------|-------------|-----------||
|-------------|-------------------------|-------------|-----------||
|-------------|-------------------------|-------------|-----------||
|-------------|-------------------------|-------------|-----------||
|-0-0---0-0---|-0-0---0-0-0-0-0-0-0-0-0-|-0-0---0-0---|-0-0-----x-||
|-0-0---0-0---|-0-0---0-0-0-0-0-0-0-0-0-|-0-0---0-0---|-0-0-----x-||


 Verse II
  D5(type 2)                     A5(type 2)A/C#
  Gtr I
  |          |                    |          |
  /          /                    /          /

  Gtr II
|--------|---------------------|---------|----------------------|
|--------|---------------------|---------|----------------------|
|-7------|---------------------|--2------|----------------------|
|-x------|---------------------|--x------|----------------------|
|-5------|-/13--(13)S12--(12)\-|--0------|-/13--(13)S12--(12)\--|
|--------|---------------------|---------|----------------------|
|
| Gtr III
|            ~~~~~~~~~~~~~~~~~~~~~~~
|--------|---------------------|---------|----------------------|
|--------|---------------------|---------|----------------------|
|--------|--12-------14--------|-10------|----------------------|
|--------|---------------------|---------|----------------------|
|--------|---------------------|---------|----------------------|
|--------|---------------------|---------|----------------------|
|
| Gtr IV
|            ~~~~~~~~~~~~~~~~~~~~~~~
|--------|---------------------|---------|----------------------|
|--------|-----------15--------|---------|----------------------|
|--------|--15-----------------|-14------|----------------------|
|--------|---------------------|---------|----------------------|
|--------|---------------------|---------|----------------------|
|--------|---------------------|---------|----------------------|


  G5                        G/B
  |         |               |        |
  /         /               /        /

|--------|----------------|--------|----------|
|--------|----------------|--------|----------|
|--------|----------------|-4------|-7---7----|
|-5------|-/7--(7)S5s==3--|-x------|-x---7----|
|-5------|-/8--(8)S7--(7)-|-2------|-5---5----|
|-5------|----------------|--------|-----0----|


  D5(type 2)              A5(type 2)A/C#
  |        |               |        |
  /        /               /        /

|-5------|-5----5-------|--5------|-5---5----|
|-6------|-6----6-------|--1------|-1---1----|
|-7------|-7----7-------|--2------|-2---2----|
|-x------|-x----x-------|--x------|-x---x----|
|-5------|-5----5-------|--0------|-0---0----|
|--------|--------------|---------|----------|
|
| Gtr III
|               ~~         ~~
|--------|--------------|---------|----------|
|--------|--------------|---------|----------|
|--------|-----10--(10)S|=14------|----------|
|--------|--------------|---------|----------|
|--------|--------------|---------|----------|
|--------|--------------|---------|----------|
|
| Gtr IV
|               ~~         ~~
|--------|--------------|---------|----------|
|--------|--------------|---------|----------|
|--------|------7---(7)S|=10------|----------|
|--------|--------------|---------|----------|
|--------|--------------|---------|----------|
|--------|--------------|---------|----------|


  A/C#                   C
  |        |             |         |
  /        /             /         /

|--------|-------------|-3---3---|-3-------3---||
|-5------|-5-(5)-5-5---|-5---5---|-5-------5---||
|-6------|-6-(6)-6-6---|-5---5---|-5-------5---||
|-x------|-x-----x-x---|---------|-------------||
|-4------|-4-(4)-4-4---|---------|-------------||
|--------|-------------|---------|-------------||
|
|                        ~
|--------|-------------|---------|------0------||
|--------|-------------|---------|-8---(8)-----||
|--------|-------------|-9-------|-------------||
|--------|-------------|---------|-------------||
|--------|-------------|---------|-------------||
|--------|-------------|---------|-------------||
|
|--------|-------------|---------|-------------||
|--------|-------------|---------|-------------||
|--------|-------------|---------|-------------||
|--------|-------------|-7-------|-7-----------||
|--------|-------------|-7-------|-7-----------||
|--------|-------------|-7-------|-7-----------||


 Pre-Chorus
  Gtrs I, II
    PM----|   PM----|     PM----|   PM----|
|---------------------|---------------------|
|---------------------|---------------------|
|---------------------|---------------------|
|-0---------0---------|-6---------7---------|
|-0-0-0-0-0-0-0-0-0-0-|-7-7-7-7-7-4-4-4-4-4-|
|-0-0-0-0-0-0-0-0-0-0-|-6-6-6-6-6-7-7-7-7-7-|


    PM----|   PM----|     PM----|   PM----|
|---------------------|----------------------|
|---------------------|----------------------|
|---------------------|----------------------|
|-0---------0---------|-6---------7----------|
|-0-0-0-0-0-0-0-0-0-0-|-7-7-7-7-7-4-4-4-4-4--|
|-0-0-0-0-0-0-0-0-0-0-|-6-6-6-6-6-7-7-7-7-7--|


  Gtr I
  PM|    PM   PM  PM     ~   PM|    PM   PM  PM  ~
|--------------------------|-----------------------|
|--------------------------|-----------------------|
|--------------------------|-----------------------|
|--------------------------|-----------------------|
|-0-0----0----0---0----0---|-0-0----0----0---0-----|
|-0-0-12-0-11-0-8-0-11-0-8-|-0-0-12-0-11-0-8-0-7S8-|
|
| Gtr II
| PM|    PM   PM  PM     ~   PM|    PM   PM  PM  ~
|--------------------------|-----------------------|
|--------------------------|-----------------------|
|--------------------------|-----------------------|
|--------------------------|-----------------------|
|-0-0----0----0---0----0---|-0-0----0----0---0-----|
|-0-0-12-0--8-0-5-0--8-0-5-|-0-0-12-0-11-0-8-0-3S5-|


  PM|    PM   PM  PM     ~
|--------------------------|---------------------||
|--------------------------|---------------------||
|--------------------------|---------------------||
|--------------------------|-8-8-8-8--7-7-7-7----||
|-0-0----0----0---0----0---|-8-8-8-8--7-7-7-7----||
|-0-0-12-0-11-0-8-0-11-0-8-|-8-8-8-8--7-7-7-7----||
|
| PM|    PM   PM  PM     ~
|--------------------------|---------------------||
|--------------------------|---------------------||
|--------------------------|---------------------||
|--------------------------|-8-8-8-8--7-7-7-7----||
|-0-0----0----0---0----0---|-8-8-8-8--7-7-7-7----||
|-0-0-12-0-11-0-8-0-11-0-8-|-8-8-8-8--7-7-7-7----||


 Chorus
  F5
  Gtrs I, II
    | ||||  | || |  |    | |||||  |  | | |
    / ////  / // /  /    / /////  /  / / /

  Gtr III
    ~~~~~~~~~~           ~~~~~~~~~~~~~~~~~~
|---------------------|-------------------|
|-/15-----/17---15h17h|=18------(18)--18--|
|---------------------|-------------------|
|---------------------|-------------------|
|---------------------|-------------------|
|---------------------|-------------------|
|
| Gtr IV
|   ~~~~~~~~~~           ~~            ~~~~
|-/13-----/15---13h15h|=17------(17)------|
|---------------------|---------------15--|
|---------------------|-------------------|
|---------------------|-------------------|
|---------------------|-------------------|
|---------------------|-------------------|


  A5
   | | | || |    || |  |    | |||||||||
   / / / // /    // /  /    / /////////

 ~~~~~~~~                   ~~
|----------21b22---21p19-|-21-----------|
|-17--18-----------------|--------------|
|------------------------|--------------|
|------------------------|--------------|
|------------------------|--------------|
|------------------------|--------------|
|
|~~~~~~~~                   ~~
|----------17b18---17p15-|-17-----------|
|-14--15-----------------|--------------|
|------------------------|--------------|
|------------------------|--------------|
|------------------------|--------------|
|------------------------|--------------|


  F5
   |     |  |  |  |  |     |  |  |  |    |     |  |  |  |  |     |  |  |  |
   /     /  /  /  /  /     /  /  /  /    /     /  /  /  /  /     /  /  /  /

|-13h17p15h17p13h17p12h17p13h17p15h17-|-13h17p15h17p13h17p12h17p13h17p15h17-|
|-------------------------------------|-------------------------------------|
|-------------------------------------|-------------------------------------|
|-------------------------------------|-------------------------------------|
|-------------------------------------|-------------------------------------|
|-------------------------------------|-------------------------------------|
|
|-10h13p12h13p10h13p=8h13p10h13p12h13-|-10h13p12h13p10h13p=8h13p10h13p12h13-|
|-------------------------------------|-------------------------------------|
|-------------------------------------|-------------------------------------|
|-------------------------------------|-------------------------------------|
|-------------------------------------|-------------------------------------|
|-------------------------------------|-------------------------------------|


  C5                C(type 2)
    | ||||  | ||||   |  | | | | |  | | |  |
    / ////  / ////   /  / / / / /  / / /  /

    ~~~~~~~~~~
|-----------------|-15s17--18--18s20--22\--|
|-/17-----/18-----|------------------------|
|-----------------|------------------------|
|-----------------|------------------------|
|-----------------|------------------------|
|-----------------|------------------------|
|
|   ~~~~~~~~~~
|-----------------|-12s13--15--15s17--18\--|
|-/13-----/15-----|------------------------|
|-----------------|------------------------|
|-----------------|------------------------|
|-----------------|------------------------|
|-----------------|------------------------|


  F5
    | ||||  | || |  |    | |||||  |  | | |
    / ////  / // /  /    / /////  /  / / /

    ~~~~~~~~~~           ~~~~~~~~~~~~~~~~~~
|---------------------|-------------------|
|-/15-----/17---15h17h|=18------(18)--18--|
|---------------------|-------------------|
|---------------------|-------------------|
|---------------------|-------------------|
|---------------------|-------------------|
|
|   ~~~~~~~~~~           ~~            ~~~~
|-/13-----/15---13h15h|=17------(17)------|
|---------------------|---------------15--|
|---------------------|-------------------|
|---------------------|-------------------|
|---------------------|-------------------|
|---------------------|-------------------|


  A5
   | | | || |    || |  |    | |||||||||
   / / / // /    // /  /    / /////////

 ~~~~~~~~                   ~~
|----------21b22---21p19-|-21-----------|
|-17--18-----------------|--------------|
|------------------------|--------------|
|------------------------|--------------|
|------------------------|--------------|
|------------------------|--------------|
|
|~~~~~~~~                   ~~
|----------17b18---17p15-|-17-----------|
|-14--15-----------------|--------------|
|------------------------|--------------|
|------------------------|--------------|
|------------------------|--------------|
|------------------------|--------------|


  F5
   |     |  |  |  |  |     |  |  |  |    |     |  |  |  |  |     |  |  |  |
   /     /  /  /  /  /     /  /  /  /    /     /  /  /  /  /     /  /  /  /

|-13h17p15h17p13h17p12h17p13h17p15h17-|-13h17p15h17p13h17p12h17p13h17p15h17-|
|-------------------------------------|-------------------------------------|
|-------------------------------------|-------------------------------------|
|-------------------------------------|-------------------------------------|
|-------------------------------------|-------------------------------------|
|-------------------------------------|-------------------------------------|
|
|-10h13p12h13p10h13p=8h13p10h13p12h13-|-10h13p12h13p10h13p=8h13p10h13p12h13-|
|-------------------------------------|-------------------------------------|
|-------------------------------------|-------------------------------------|
|-------------------------------------|-------------------------------------|
|-------------------------------------|-------------------------------------|
|-------------------------------------|-------------------------------------|


  C5                                    C(type 2)
   |     |  |  |  |  |     |  |  |  |    |     |  |  |  |  |     |  |  |  |
   /     /  /  /  /  /     /  /  /  /    /     /  /  /  /  /     /  /  /  /

|-12h15p13h15----15p10h15p12h15p13h15-|-12h15p13h15----15p10h15p12h15p13h15----|
|-------------13----------------------|-------------13-------------------------|
|-------------------------------------|----------------------------------------|
|-------------------------------------|----------------------------------------|
|-------------------------------------|----------------------------------------|
|-------------------------------------|----------------------------------------|
|
|--8h12p10p=8----12p=7h12p=8h12p10h12-|--8h12p10p=8----12p=7h12p=8h12p10h12----|
|-------------10----------------------|-------------10-------------------------|
|-------------------------------------|----------------------------------------|
|-------------------------------------|----------------------------------------|
|-------------------------------------|----------------------------------------|
|-------------------------------------|----------------------------------------|


  Bb5(type 3)                         D5
                                     4/4
    |     |           |  || |     |    |            |
    /     /           /  // /     /    /            /

    ~~~~~~~~          ~~               ~~~~~~~~~~~~~~~~
|------------------|-------15h17p15-|-----------|---------||
|-/15---/17--15h17h|=18-------------|-18--------|-(18)----||
|------------------|----------------|-----------|---------||
|------------------|----------------|-----------|---------||
|------------------|----------------|-----------|---------||
|------------------|----------------|-----------|---------||
|
|   ~~~~~~~~          ~~               ~~~~~~~~~~~~~~~~
|------------------|-------12h13p12-|-----------|---------||
|-/11---/13--11h13h|=15-------------|-15--------|-(15)----||
|------------------|----------------|-----------|---------||
|------------------|----------------|-----------|---------||
|------------------|----------------|-----------|---------||
|------------------|----------------|-----------|---------||


 Bridge
  Gtrs I, II
           PM-----|           PM-----|             PM-----|           PM-----|
|---------------------------------------|---------------------------------------|
|---------------------------------------|---------------------------------------|
|---------------------------------------|---------------------------------------|
|-0------------------0------------------|-0------------------0------------------|
|-0--------0--0-0-0--0--------0-0--0--0-|-0--------0--0-0-0--0--------0-0--0--0-|
|-0--------0--0-0-0--0--------0-0--0--0-|-0--------0--0-0-0--0--------0-0--0--0-|
|
| Gtr IV
| PM|    PM|    PM|    PM|    PM|         PM|    PM|    PM|    PM|    PM|
|---------------------------------------|---------------------------------------|
|---------------------------------------|---------------------------------------|
|---------------------------------------|---------------------------------------|
|---------------------------------------|---------------------------------------|
|-----12-----10-----13-----12-----10h12-|-----12-----10-----13-----12-----10h12-|
|-0-0----0-0----0-0----0-0----0-0-------|-0-0----0-0----0-0----0-0----0-0-------|


           PM-----|           PM-----|             PM-----|           PM-----|
|---------------------------------------|------------------------------------------|
|---------------------------------------|------------------------------------------|
|---------------------------------------|------------------------------------------|
|-8------------------8------------------|-8------------------8---------------------|
|-8--------8--8-8-8--8--------8-8--8--8-|-8--------8--8-8-8--8--------8-8--8--8----|
|-8--------8--8-8-8--8--------8-8--8--8-|-8--------8--8-8-8--8--------8-8--8--8----|
|
| PM|    PM|    PM|    PM|    PM|         PM|    PM|    PM|    PM|    PM|
|---------------------------------------|------------------------------------------|
|---------------------------------------|------------------------------------------|
|---------------------------------------|------------------------------------------|
|---------------------------------------|------------------------------------------|
|-----12-----10-----13-----12-----10h12-|-----12-----10-----13-----12-----10h12----|
|-8-8----8-8----8-8----8-8----8-8-------|-8-8----8-8----8-8----8-8----8-8----------|


|-----------------------------------------|-------------------------------------------|
|-----------------------------------------|-------------------------------------------|
|-----------------------------------------|-------------------------------------------|
|--0--------------------------------------|-(0)---------------------------------------|
|--0--------------------------------------|-(0)---------------------------------------|
|--0--------------------------------------|-(0)---------------------------------------|
|
|  PM|    PM|     PM|    PM|    PM|          PM-|    PM|     PM|     PM|    PM|
|-----------------------------------------|-------------------------------------------|
|-----------------------------------------|-------------------------------------------|
|-----------------------------------------|-------------------------------------------|
|-----------------------------------------|-------------------------------------------|
|------12-----10------13-----12-----10h12-|-------12-----10-------13-----12-----10h12-|
|--0-0----0-0-----0-0----0-0----0-0-------|--0--0----0-0-----0-0-----0-0----0-0-------|
|
| Gtr V
|-----------------------------------------|-------------------------------------------|
|-----------------------------------------|----------------------/11p====10p=====8h10-|
|-/7------9------10---/7------9-----10----|-/7-------9------10------------------------|
|-----------------------------------------|-------------------------------------------|
|-----------------------------------------|-------------------------------------------|
|-----------------------------------------|-------------------------------------------|


|-------------------------------------------|-----------------------------------------------||
|-------------------------------------------|-----------------------------------------------||
|-------------------------------------------|-----------------------------------------------||
|---8---------------------------------------|--(8)------------------------------------------||
|---8---------------------------------------|--(8)------------------------------------------||
|---8---------------------------------------|--(8)------------------------------------------||
|
|   PM|    PM|     PM|     PM|    PM|           PM-|    PM|     PM|    PM|    PM|
|-------------------------------------------|-----------------------------------------------||
|-------------------------------------------|-----------------------------------------------||
|-------------------------------------------|-----------------------------------------------||
|-------------------------------------------|-----------------------------------------------||
|-------12-----10-------13-----12-----10h12-|--------12-----10------13-----12------10h12----||
|---8-8----8-8-----8-8-----8-8----8-8-------|---8--8----8-8-----8-8----8-8----8--8----------||
|
|                                                                                ~~
|-------------------------------------------|------------------------8----------10----------||
|----------8------10------------8-----10----|-----------8------10----------10---------------||
|-/10------------------/10------------------|-/10-------------------------------------------||
|-------------------------------------------|-----------------------------------------------||
|-------------------------------------------|-----------------------------------------------||
|-------------------------------------------|-----------------------------------------------||


 Guitar Duet III
  Gtrs I, II
|-------------------------------------------------------------------------------------------------|
|-------------------------------------------------------------------------------------------------|
|-------------------------------------------------------------------------------------------------|
|--0-----0-----0-----0-----0-----0-----0-----0-----0-----0-----0-----0-----0-----0-----0-----0----|
|--0-----0-----0-----0-----0-----0-----0-----0-----0-----0-----0-----0-----0-----0-----0-----0----|
|--0-----0-----0-----0-----0-----0-----0-----0-----0-----0-----0-----0-----0-----0-----0-----0----|
|
| Gtr III
|-10-10-10-10-10-10-12-12-12-12-12-12-13-13-13-13-10-10-10-10-10-10-12-12-12-12-12-12-13-13-13-13-|
|-------------------------------------------------------------------------------------------------|
|-------------------------------------------------------------------------------------------------|
|-------------------------------------------------------------------------------------------------|
|-------------------------------------------------------------------------------------------------|
|-------------------------------------------------------------------------------------------------|
|
| Gtr IV
|-------------------------------------10-10-10-10-------------------------------------10-10-10-10-|
|-10-10-10-10-10-10-------------------------------10-10-10-10-10-10-------------------------------|
|--------------------9--9--9--9--9--9--------------------------------9--9--9--9--9--9-------------|
|-------------------------------------------------------------------------------------------------|
|-------------------------------------------------------------------------------------------------|
|-------------------------------------------------------------------------------------------------|


|-------------------------------------------------------------------------------------------------|
|-------------------------------------------------------------------------------------------------|
|-------------------------------------------------------------------------------------------------|
|--0-----0-----0-----0-----0-----0-----0-----0-----0-----0-----0-----0-----0-----0-----0-----0----|
|--0-----0-----0-----0-----0-----0-----0-----0-----0-----0-----0-----0-----0-----0-----0-----0----|
|--0-----0-----0-----0-----0-----0-----0-----0-----0-----0-----0-----0-----0-----0-----0-----0----|
|
|-10-10-10-10-10-10-12-12-12-12-12-12-13-13-13-13S18-18-18-18-18-18-17-17-17-17-17-17-15-15-17-17-|
|-------------------------------------------------------------------------------------------------|
|-------------------------------------------------------------------------------------------------|
|-------------------------------------------------------------------------------------------------|
|-------------------------------------------------------------------------------------------------|
|-------------------------------------------------------------------------------------------------|
|
|-------------------------------------10-10-10-10S15-15-15-15-15-15-13-13-13-13-13-13-12-12-13-13-|
|-10-10-10-10-10-10-------------------------------------------------------------------------------|
|--------------------9--9--9--9--9--9-------------------------------------------------------------|
|-------------------------------------------------------------------------------------------------|
|-------------------------------------------------------------------------------------------------|
|-------------------------------------------------------------------------------------------------|


|-------------------------------------------------------------------------------------------------|
|-------------------------------------------------------------------------------------------------|
|-------------------------------------------------------------------------------------------------|
|--8-----8-----8-----8-----8-----8-----8-----8-----8-----8-----8-----8-----8-----8-----8-----8----|
|--8-----8-----8---
7 comments total. Showing first comments.
-1 reply
Lamb-Megallica wrote on October 2 2010, 10:28 am

It seems great...
But you coula organized it alot better, very hard to read.

-2 reply
GeRBiLxCoRe wrote on November 1 2010, 12:42 pm

learning a new song should be fun, not all ****ing complicated!

+2 reply
Seth Shadows wrote on November 1 2010, 10:44 pm

So you rate it 1 star because youre retarded?

Well done, sir.

I want to post or [tab]
guest
You may want to rate the tab now too:
select rating
Please do not post tabs as comments. Select "correction" instead!