Oops, an error
Loading. Please wait.

Shattered By Broken Dreams Bass Tab

ver1
ver1

Whole song

Interactive

More versions @911Tabs.com
322 views 3 this week
no commentswrite comment
1 2 3 4 5
excellent!
x 1
Autoscroll
+/-
esc
set tempo
stop
Contributor
Tuning
D A D G B E
Hey! There's an official Ultimate Guitar app which is ideal
for learning songs when you're away from computer. Get the app
WARNING: You are trying to view
                                    content from Ultimate-Guitar.com
                                    in an unauthorized application,
                                    which is prohibited.

                                    Please use an official Ultimate
                                    Guitar Tabs application for iPhone,
                                    iPad or Android to access legitimate
                                    chords, guitar, bass, and drum tabs
                                    from Ultimate-Guitar.com database.

                                    Type "ultimate guitar tabs" in Apple
                                    App Store's or Android Market's
                                    search to find the application.
1:04
G|-----------------------------------------------------------------|
D|-----------------------------------------------------------------|
A|-3---3---3-----3---3-3---3---------------------------------------|
D|-----------------------------5-5-2---2---2---2-2---2-2---2---5-5-|
   1 e + a 2 e + a 3 e + a 4 e + a 1 e + a 2 e + a 3 e + a 4 e + a

G|-----------------------------------------------------------------|
D|-----------------------------------------------------------------|
A|-0---0---0---0-0---0-0---0---0-0---------------------2-3-5-3-2-2-|
D|---------------------------------5---5---5-----5---5-------------|
   1 e + a 2 e + a 3 e + a 4 e + a 1 e + a 2 e + a 3 e + a 4 e + a

1:19
G|-----------------------------------------------------------------|
D|-----------------------------------------------2---------2-------|
A|-3-------3-----3---2-3-2-2-0-----------------2---------2-----3-2-|
D|-----------------------------5-4-2-------2-----------------------|
   1 e + a 2 e + a 3 e + a 4 e + a 1 e + a 2 e + a 3 e + a 4 e + a

G|-----------------------------------------------------------------|
D|-----------------------------------------------------------------|
A|-0-------0-----0-0-0-0---0---------------------------------2-3-5-|
D|---------------------------0-2-4-5---5---5---5---5---5---5-------|
   1 e + a 2 e + a 3 e + a 4 e + a 1 e + a 2 e + a 3 e + a 4 e + a

1:34
G|-----------------------------------------------------------------|
D|-----------------------------------------------2-----2-----------|
A|-3---3-3-3---3-3---3-3---3-2-----------------2-----2-------------|
D|-----------------------------5-4-2-------2---------------2-2-5-5-|
   1 e + a 2 e + a 3 e + a 4 e + a 1 e + a 2 e + a 3 e + a 4 e + a

G|-----------------------------------------------------------------|
D|-----------------------------------------------------------------|
A|-0-------0-----0---0-0-0-0---0-0---------------------------------|
D|---------------------------------5---5---5---5---5---5---5---5---|
   1 e + a 2 e + a 3 e + a 4 e + a 1 e + a 2 e + a 3 e + a 4 e + a

1:49
G|-----------------------------------------------------------------|
D|-----------------------------------------------------------------|
A|-3---3-3-3---3-3---3-3---3-2-------------------------------------|
D|-----------------------------5-4-2---2---2---2---2---2---2-2-5-5-|
   1 e + a 2 e + a 3 e + a 4 e + a 1 e + a 2 e + a 3 e + a 4 e + a

G|-----------------------------------------------------------------|
D|-----------------------------------------------------------------|
A|-0---0-0-0---0-0---0-0---0-0-0-0---------------------------------|
D|---------------------------------5---5---5---5---5---5---5---5---|
   1 e + a 2 e + a 3 e + a 4 e + a 1 e + a 2 e + a 3 e + a 4 e + a

2:04
G|-----------------------------------------------------------------|
D|-----------------------------------------------------------------|
A|-----------------------------3-2-0---0-0-0-0-0-0-0-0-0-0-0-0-3-2-|
D|-2---2-2-2-2-2-2-3-2-0-2-3-2-------------------------------------|
   1 e + a 2 e + a 3 e + a 4 e + a 1 e + a 2 e + a 3 e + a 4 e + a

G|-----------------------------------------------------------------|
D|-----------------------------------------------------------------|
A|-0---0-0-0-0-0-0-0-0-0-0-0-0-3-2-0---0-0-0-0-0-0-0-0-0-0-0-0-3-2-|
D|-----------------------------------------------------------------|
   1 e + a 2 e + a 3 e + a 4 e + a 1 e + a 2 e + a 3 e + a 4 e + a

2:19
G|---------------------------------|
D|---------------------------------|
A|-0---0-0-0-0-0-0-0-0-----3-0-----|
D|---------------------------------|
   1 e + a 2 e + a 3 e + a 4 e + a 

2:22
G|-------------------------------------------------------------------|
D|o-----------------------------------------------------------------o|
A|o-0---0-0-0---------------0-2-----0---0-0-0----------------0-2----o|
D|------------3-3-3-3-2-2-2-------------------3-3-3-3-2-2-2----------|
    1 e + a 2 e + a 3 e + a 4 e + a 1 e + a 2 e + a 3 e + a 4 e + a

2:37
G|-----------------------------------------------------------------|
D|-----------------------------------------------------------------|
A|-0---------------------------------------------------------------|
D|-----------------------------------------------------------------|
   1 e + a 2 e + a 3 e + a 4 e + a 1 e + a 2 e + a 3 e + a 4 e + a

G|-----------------------------------------------------------------|
D|--------------------------------------------------/7-3-2-----3-2-|
A|---------------------------------------------------------3-2-----|
D|-----------------------------------------------------------------|
   1 e + a 2 e + a 3 e + a 4 e + a 1 e + a 2 e + a 3 e + a 4 e + a

2:51
G|------------------------------------------------------------------|
D|-----------------------2-3-3--------------------------------------|
A|-------------------2-3-------3-2------------------/7-8-7------8-7-|
D|-7---\---3-----------------------7---\-------------------10-9-----|
   1 e + a 2 e + a 3 e + a 4 e + a 1 e + a 2 e + a 3 e + a 4  e + a

G|-----------------------------------------------------------------|
D|-------------------/-7-----------------------------------0-2-3-2-|
A|-------------------------8---7---------------------0-2-3---------|
D|-7---\---------------------------7---\---------------------------|
   1 e + a 2 e + a 3 e + a 4 e + a 1 e + a 2 e + a 3 e + a 4 e + a

3:05
G|-----------------------------------------------------------------|
D|-----------------------------------------------------------------|
A|-0---0---0---0---0---0---0---0---0---0---0---0---0---------------|
D|-----------------------------------------------------------------|
   1 e + a 2 e + a 3 e + a 4 e + a 1 e + a 2 e + a 3 e + a 4 e + a

3:11 faster tempo
G|-----------------------------------------------------------------|
D|-----------------------------------------------------------------|
A|-----------------------------------------------------------------|
D|-0---0-0---0-0---0---0-0---0-0---2---2-2---2-2---2-------2---2---|
   1 e + a 2 e + a 3 e + a 4 e + a 1 e + a 2 e + a 3 e + a 4 e + a

G|-----------------------------------------------------------------|
D|-----------------------------------------------------------------|
A|-------------------------------------------------3-------2-------|
D|-------0---0-0---0---0-0---0-0---2-------2-----------------------|
   1 e + a 2 e + a 3 e + a 4 e + a 1 e + a 2 e + a 3 e + a 4 e + a

3:17
G|-----------------------------------------------------------------|
D|-----------------------------------------------------------------|
A|-0-0-0-0-0-0-0-0-0-0-0-0-0-0-0-0-3-3-3-3-3-3-3-3-3-3-3-3-3-3-3-3-|
D|-----------------------------------------------------------------|
   1 e + a 2 e + a 3 e + a 4 e + a 1 e + a 2 e + a 3 e + a 4 e + a

G|-----------------------------------------------------------------|
D|-----------------------------------------------------------------|
A|-----------------------------------------------------2---3---2---|
D|-5-5-5-5-5-5-5-5-5-5-5-5-5-5-5-5-2-2-2-2-2-2-2-2-2---------------|
   1 e + a 2 e + a 3 e + a 4 e + a 1 e + a 2 e + a 3 e + a 4 e + a

3:24
G|-----------------------------------------------------------------|
D|-----------------------------------------------------------------|
A|-0-0-0-0-0-0-0-0-0-0-0-0-0-0-0-0-3-3-3-3-3-3-3-3-3-3-3-3-3-3-3-3-|
D|-----------------------------------------------------------------|
   1 e + a 2 e + a 3 e + a 4 e + a 1 e + a 2 e + a 3 e + a 4 e + a

G|-----------------------------------------------------------------|
D|-----------------------------------------------------------------|
A|-----------------------------------------------------------------|
D|-5-5-5-5-5-5-5-5-5-5-5-5-5-5-5-5-2-------2-------2-------2-------|
   1 e + a 2 e + a 3 e + a 4 e + a 1 e + a 2 e + a 3 e + a 4 e + a

3:30
G|-----------------------------------------------------------------|
D|-----------------------------------------------------------------|
A|-0---0-0---0-0---0---0-0---0-2---3---3-3---3-3---3---5---3---2---|
D|-----------------------------------------------------------------|
   1 e + a 2 e + a 3 e + a 4 e + a 1 e + a 2 e + a 3 e + a 4 e + a

G|-----------------------------------------------------------------|
D|-----------------------------------------------------------------|
A|-----------------------2-----------------------------------------|
D|-5---5-5---5-5---5---5-------5---2---2-2---2-2---2---2-2---2-2---|
   1 e + a 2 e + a 3 e + a 4 e + a 1 e + a 2 e + a 3 e + a 4 e + a

3:36
G|-----------------------------------------------------------------|
D|-----------------------------------------------------------------|
A|-0---0-0---0-0---0---0-0---0-2---3---3-3---3-3---3---3-3---3-3---|
D|-----------------------------------------------------------------|
   1 e + a 2 e + a 3 e + a 4 e + a 1 e + a 2 e + a 3 e + a 4 e + a

G|-----------------------------------------------------------------|---|
D|-----------------------------------------------------------------|---|
A|-----------------------------------------------------------------|-0-|
D|-5---5-5---5-5---5---5-5---5-5---2---2---2---2---2---2---2---2---|---|
   1 e + a 2 e + a 3 e + a 4 e + a 1 e + a 2 e + a 3 e + a 4 e + a

rest

3:48 slower tempo
G|-------------------------------------------------------------------|  |---|
D|o-----------------------------------------------------------------o|x4|---|
A|o-0-0-0-------------------3---2---0-0-0-------------------3---2---o|  |-0-|
D|------------0-2-3-0-0-0---------------------0-2-3-0-0-0------------|  |---|
    1 e + a 2 e + a 3 e + a 4 e + a 1 e + a 2 e + a 3 e + a 4 e + a

Pause

4:21
G|-----------------------------------------------------------------|
D|-------------------------------------2-------2-------2-----------|
A|-3-----3-3---3-3-3---3-3-3-2-------------------------------------|
D|-----------------------------5-4-2-------2-----2---2-----2---5-5-|
   1 e + a 2 e + a 3 e + a 4 e + a 1 e + a 2 e + a 3 e + a 4 e + a

G|-----------------------------------------------------------------|
D|-----------------------------------------------------------------|
A|-0-----0-0-----0-0-0-2---3---2-----------------------------2-3-5-|
D|---------------------------------5---5---5---5---5---5---5-------|
   1 e + a 2 e + a 3 e + a 4 e + a 1 e + a 2 e + a 3 e + a 4 e + a

4:34
G|-----------------------------------------------------------------|
D|-----------------------------------------------------------------|
A|-3---3-3-3-----3-3-2-3-5-3-2---------------------------------3-2-|
D|-----------------------------5-4-2---2---2-2-2-2---2-2---2-2-----|
   1 e + a 2 e + a 3 e + a 4 e + a 1 e + a 2 e + a 3 e + a 4 e + a

G|-----------------------------------------------------------------|
D|-----------------------------------------------------------------|
A|-0-----0-0---------0-0---0-0-------------------------------2-3-5-|
D|-----------------------------2-4-5---5---5---5---5---5---5-------|
   1 e + a 2 e + a 3 e + a 4 e + a 1 e + a 2 e + a 3 e + a 4 e + a

4:47
G|-----------------------------------------------------------------|
D|-----------------------------------------------------------------|
A|-3---3-3-3-3---3-3---3---3-2---------------------------------2---|
D|-----------------------------5-4-2---2-2-2-2---2-2-2-2-2-2-------|
   1 e + a 2 e + a 3 e + a 4 e + a 1 e + a 2 e + a 3 e + a 4 e + a

G|-----------------------------------------------------------------|
D|-----------------------------------------------------------------|
A|-0-----0-0-0---0-0-0-2-2-3-3-5-5---------------------------2-3-5-|
D|---------------------------------5---5---5---5---5---5---5-------|
   1 e + a 2 e + a 3 e + a 4 e + a 1 e + a 2 e + a 3 e + a 4 e + a

5:00
G|-----------------------------------------------------------------|
D|-----------------------------------------------------------------|
A|-3---3-3-3-3-3-3-3-3-3-3-3-3---------------------------------3-2-|
D|-----------------------------5-4-2---2-2-2-2-2-2-2-2-2-2-2-2-----|
   1 e + a 2 e + a 3 e + a 4 e + a 1 e + a 2 e + a 3 e + a 4 e + a

G|-----------------------------------------------------------------|
D|-----------------------------------------------------------------|
A|-0---0-0-0-0-0-0-0-0-0-0-0-0-------------------------------------|
D|-----------------------------2-4-5---5---5---5---5---5---5---5---|
   1 e + a 2 e + a 3 e + a 4 e + a 1 e + a 2 e + a 3 e + a 4 e + a

5:13
G|-----------------------------------------------------------------|
D|-----------------------------------------------------------------|
A|-----------------------------------------------------------------|
D|-2-------------------------------2-------------------------------|
   1 e + a 2 e + a 3 e + a 4 e + a 1 e + a 2 e + a 3 e + a 4 e + a

5:19 faster tempo
G|------------------------------------------------------------------|
D|o-----------------------------------------------------------------|
A|o-----------------------------------------------------------------|
D|--2---2-2---2-2---2---2-2---2-2---5---5-5---5-5---5---5-5---5-5---|
    1 e + a 2 e + a 3 e + a 4 e + a 1 e + a 2 e + a 3 e + a 4 e + a

G|------------------------------------------------------------------|
D|-----------------------------------------------------------------o|
A|-----------------------------------------------------------------o|
D|-0-0-0-0-0-0-0-0-0-0-0-0-0-0-0-0-0-0-0-0-0-0-0-0-0-0-0-0-0-0-0-0--|
   1 e + a 2 e + a 3 e + a 4 e + a 1 e + a 2 e + a 3 e + a 4 e + a

5:31
G|-----------------------------------------------------------------|
D|-----------------------------------------------------------------|
A|-----------------------------------------------------------------|
D|-2---2-2---2-2---2---2-2---2-2---5---5-5---5-5---5---5-5---5-5---|
   1 e + a 2 e + a 3 e + a 4 e + a 1 e + a 2 e + a 3 e + a 4 e + a

G|-----------------------------------------------------------------|
D|-----------------------------------------------------------------|
A|-----------------------------------------------------------------|
D|-0---0-0---0-0---0---0-0---0-0---0-0-0-0-0-0-0-0-0-0-0-0-0-0-0-0-|
   1 e + a 2 e + a 3 e + a 4 e + a 1 e + a 2 e + a 3 e + a 4 e + a

5:37
G|-----------------------------------------------------------------|
D|-----------------------------------------------------------------|
A|-----------------------------------------------------------------|
D|-2---2-2---2-2---2---2-2---2-2---5---5-5---5-5---5---5-5---5-5---|
   1 e + a 2 e + a 3 e + a 4 e + a 1 e + a 2 e + a 3 e + a 4 e + a

G|-----------------------------------------------------------------|
D|-----------------------------------------------------------------|
A|---------------------------------2-2-2-2-2-2-2-2-2-2-2-2-2-2-2-2-|
D|-0---0-0---0-0---0---0-0---0-0-----------------------------------|
   1 e + a 2 e + a 3 e + a 4 e + a 1 e + a 2 e + a 3 e + a 4 e + a

5:42
G|------------------------------------------------------------------|
D|o-----------------------------------------------------------------|
A|o-3---3-3---3-3---3---3-3---3-3---3---3-3---3-3---3-----2---------|
D|--------------------------------------------------------------5---|
    1 e + a 2 e + a 3 e + a 4 e + a 1 e + a 2 e + a 3 e + a 4 e + a

G|------------------------------------------------------------------|
D|-----------------------------------------------------------------o|
A|-----------------------------------------------------------------o|x4
D|-2---2-2---2-2---2---2-2---2-2---2---2-2---2-2---2---2-2---2-2----|
   1 e + a 2 e + a 3 e + a 4 e + a 1 e + a 2 e + a 3 e + a 4 e + a

6:06
G|-----------------------------------------------------------------|
D|-----------------------------------------------------------------|
A|-3---3-3---3-3---3---3-3---3-3---3---3-3---3-3---3---3-3---3-3---|
D|-----------------------------------------------------------------|
   1 e + a 2 e + a 3 e + a 4 e + a 1 e + a 2 e + a 3 e + a 4 e + a

G|-----------------------------------------------------------------|
D|-----------------------------------------------------------------|
A|-----------------------------------------------------------------|
D|-0---0-0---0-0---0---0-0---0-0---0-------0-------0-------0-------|
   1 e + a 2 e + a 3 e + a 4 e + a 1 e + a 2 e + a 3 e + a 4 e + a

6:11
G|-----------------------------------------------------------------|
D|-----------------------------------------------------------------|
A|-----------------------------------------------------------------|
D|-5---5-5---5-5---5---5-----------3---3-3---3-3---3-----3-----3---|
   1 e + a 2 e + a 3 e + a 4 e + a 1 e + a 2 e + a 3 e + a 4 e + a

G|-----------------------------------------------------------------|
D|-----------------------------------------------------------------|
A|-----------------------------------------------------------------|
D|-2---2-2---2-2---2-----2-----2---0---0-0---0-0---0---0---0---0---|
   1 e + a 2 e + a 3 e + a 4 e + a 1 e + a 2 e + a 3 e + a 4 e + a

6:17
G|-----------------------------------------------------------------|
D|-----------------------------------------------------------------|
A|-3---3-3---3-3---3---3-3---3-3---3---3-3---3-3---3---3-3---3-----|
D|-------------------------------------------------------------2---|
   1 e + a 2 e + a 3 e + a 4 e + a 1 e + a 2 e + a 3 e + a 4 e + a

G|-----------------------------------------------------------------|
D|-----------------------------------------------------------------|
A|-----------------------------------------------------------------|
D|-0---0-0---0-0---0---0-0---0-0---0-------0-------0-------0-------|
   1 e + a 2 e + a 3 e + a 4 e + a 1 e + a 2 e + a 3 e + a 4 e + a

6:22
G|-----------------------------------------------------------------|
D|-----------------------------------------------------------------|
A|-----------------------------------------------------------------|
D|-5---5-5---5-5---5---5-----------3---3-3---3-3---3-----3-----3---|
   1 e + a 2 e + a 3 e + a 4 e + a 1 e + a 2 e + a 3 e + a 4 e + a

G|-----------------------------------------------------------------|
D|-----------------------------------------------------------------|
A|-----------------------------------------------------------------|
D|-2---2-2---2-2---2-----2-----2---0---0-0---0-0---0-----0-----0---|
   1 e + a 2 e + a 3 e + a 4 e + a 1 e + a 2 e + a 3 e + a 4 e + a

6:28 slower tempo
G|------------------------------------------------------------------|---|
D|------------------------------------------------------------------|---|
A|-3---------------3---2---0----------------------------------------|---|
D|-----------------------------5---0---------------4--4--4--4--4--4-|-5-|
   1 e + a 2 e + a 3 e + a 4 e + a 1 e + a 2 e + a 3 e + a  4 e + a
Tabbed by Dave Vucko
comments
We did not receive enough feedback on this tab! Please rate:
print report bad tab
1 2 3 4 5
I want to post or [tab]
guest
You may want to rate the tab now too:
select rating
Please do not post tabs as comments. Select "correction" instead!