Oops, an error
Loading. Please wait.

Sidewinder Tab

ver1
ver1

Intro

Solo

Whole song

More versions @911Tabs.com
166,894 views 371 this week
36 commentsread comments
1 2 3 4 5
excellent!
x 62
Autoscroll
+/-
esc
set tempo
stop
Contributor
Difficulty
Tuning
advanced
D A D G B E
WARNING: You are trying to view
                                    content from Ultimate-Guitar.com
                                    in an unauthorized application,
                                    which is prohibited.

                                    Please use an official Ultimate
                                    Guitar Tabs application for iPhone,
                                    iPad or Android to access legitimate
                                    chords, guitar, bass, and drum tabs
                                    from Ultimate-Guitar.com database.

                                    Type "ultimate guitar tabs" in Apple
                                    App Store's or Android Market's
                                    search to find the application.
SIDEWINDER
A7x

Gtr I (D A D G B E) - 'Guitar 1 Distortion (left ear)'
Gtr II (D A D G B E) - 'Guitar 2 Distortion (right ear)'
Gtr III (D A D G B E) - 'Guitar 3 Neutral Distortion'
Gtr IV (D A D G B E) - 'Guitar 4 Clean (left ear)'
Gtr V (D A D G B E) - 'Guitar 5 Clean Guitar (right ear)'
Gtr VI (D A D G B E) - 'Guitar 6 Clean Neutral'

   Intro
    Q=124
    N.C.
   4/4
    Gtr I
     H     +E   E  +E   E    Q.    S  S  Q    Q
||------------------------|-----------------/12--|
||o-10----(10)---------10-|-13----11-10----------|
||-------------10-(10)----|-------------12-------|
||------------------------|----------------------|
||o-----------------------|----------------------|
||------------------------|----------------------|
|
|   Gtr II
|    H     +E   E  +E   E    Q.    S  S  Q    Q
||------------------------|------------------/8--|
||o--6-----(6)----------6-|-10-----8--6--5-------|
||--------------7--(7)----|----------------------|
||------------------------|----------------------|
||o-----------------------|----------------------|
||------------------------|----------------------|


   Q.     E  +E   E  Q     Q.    S  S  S  S  S  S  Q
|-10----/13-(13)-12-10--|-------------10---------------||
|-----------------------|-13----11-13----13-11-13-----o||
|-----------------------|-------------------------12---||
|-----------------------|------------------------------||
|-----------------------|-----------------------------o||
|-----------------------|------------------------------||
|
|  Q.     E  +E   E  Q     Q.    S  S  S  S  S  S  Q
|--6----/10-(10)--8--6--|--5--------5--6--5-----5------||
|-----------------------|--------8-----------8-----5--o||
|-----------------------|------------------------------||
|-----------------------|------------------------------||
|-----------------------|-----------------------------o||
|-----------------------|------------------------------||


 Pre-Verse
  D5
  Gtrs I, II
     PM|       PM----|       PM----|   PM----|
  Q  S S E +E  S S S S E   E S S S S E E E S S E
|------------------------|-----------------------|
|------------------------|-----------------------|
|------------------------|-----------------------|
|-0------0-(0)-----------|-----------------------|
|-0--0-0-0-(0)-0-0-0-0---|---0-0-0-0---0-0-0-0---|
|-0--0-0-0-(0)-0-0-0-0---|---0-0-0-0---0-0-0-0---|


     PM|       PM----|       PM----|   PM----|
  Q  S S E +E  S S S S E   E S S S S E E E S S E
|------------------------|-----------------------|
|------------------------|-----------------------|
|------------------------|-----------------------|
|-0------0-(0)-----------|-----------------------|
|-0--0-0-0-(0)-0-0-0-0---|---0-0-0-0---0-0-0-0---|
|-0--0-0-0-(0)-0-0-0-0---|---0-0-0-0---0-0-0-0---|


  D5
  Gtrs I, II
           PM-|       PM----|         PM------|      PM------|
   Q       S  S E +E  S S S S  E   E  S  S  S  S  E  E  E  S  S  E
|--------------------------------|---------------------------------|
|--------------------------------|---------------------------------|
|--------------------------------|---------------------------------|
|--0------------0-(0)------------|---------------------------------|
|--0-------0--0-0-(0)-0-0-0-0----|----0--0--0--0-----0--0--0--0----|
|--0-------0--0-0-(0)-0-0-0-0----|----0--0--0--0-----0--0--0--0----|
|
| Gtr III
|  E.  S  +E    E +E  S S S E.     E  S  S  S  E.    E  E  S  E.
|--------------------------------|---------------------------------|
|--------------------------------|---11-11-11-11----11-11-11-14----|
|-11--14-(14)---7-(7)-7-7-7-7----|-7--x--x--x--x-----x--x--x--x----|
|--x---x--------x-----x-x-x-x----|-x--8--8--8--8-----8--8--8-11----|
|--9--12-(12)---5-(5)-5-5-5-5----|-5-------------------------------|
|--------------------------------|---------------------------------|


  D5
  Gtr I
           PM-|       PM----|         PM------|      PM------|
   Q       S  S E +E  S S S S  E   E  S  S  S  S  E  E  E  S  S  E
|--------------------------------|---------------------------------|
|--------------------------------|---------------------------------|
|--------------------------------|---------------------------------|
|--0------------0-(0)------------|---------------------------------|
|--0-------0--0-0-(0)-0-0-0-0----|----0--0--0--0-----0--0--0--0----|
|--0-------0--0-0-(0)-0-0-0-0----|----0--0--0--0-----0--0--0--0----|
|
| Gtr II
|          PM-|       PM----|         PM------|      PM------|
|  Q       S  S E +E  S S S S  E   E  S  S  S  S  E  E  E  S  S  E
|--------------------------------|---------------------------------|
|--------------------------------|---------------------------------|
|--------------------------------|---------------------------------|
|--0------------0-(0)------------|---------------------------------|
|--0-------0--0-0-(0)-0-0-0-0----|----0--0--0--0-----0--0--0--0----|
|--0-------0--0-0-(0)-0-0-0-0----|----0--0--0--0-----0--0--0--0----|
|
| Gtr III
|  E.  S  +E    E +E  S S S E.     E  S  S  S  E.    E  E  S  E.
|--------------------------------|---------------------------------|
|--------------------------------|---11-11-11-11----11-11-11-14----|
|-11--14-(14)---7-(7)-7-7-7-7----|-7--x--x--x--x-----x--x--x--x----|
|--x---x--------x-----x-x-x-x----|-x--8--8--8--8-----8--8--8-11----|
|--9--12-(12)---5-(5)-5-5-5-5----|-5-------------------------------|
|--------------------------------|---------------------------------|


  N.C.
                                             |--3--|
   S  S  S  S  S  S  S  S  S  S  S  S  E     S  S  S
|-10-10-------13-13-------17-17-------20b21-13-10-----||
|-------10-10-------14-14-------17-17-------------10--||
|-----------------------------------------------------||
|-----------------------------------------------------||
|-----------------------------------------------------||
|-----------------------------------------------------||
|
|                                            |--3--|
|  S  S  S  S  S  S  S  S  S  S  S  S  E     S  S  S
|-10-10-------13-13-------17-17-------17b18-17-15-----||
|-------10-10-------14-14-------17-17-------------17--||
|-----------------------------------------------------||
|-----------------------------------------------------||
|-----------------------------------------------------||
|-----------------------------------------------------||
|
|  W
|-----------------------------------------------------||
|-----------------------------------------------------||
|-----------------------------------------------------||
|-----------------------------------------------------||
|-----------------------------------------------------||
|-----------------------------------------------------||


 Verse
  N.C.
   ~~~
   H.            Q       E  +E      +H.
|-13------------13----|-13-(13)b16-(13)-----------|
|---------------------|---------------------------|
|---------------------|---------------------------|
|---------------------|---------------------------|
|---------------------|---------------------------|
|---------------------|---------------------------|
|
|  ~~~
|  H.            E  E    E  +E      +H.
|---------------------|---------------------------|
|-15------------15----|-15-(15)b18-(15)-----------|
|------------------14-|---------------------------|
|---------------------|---------------------------|
|---------------------|---------------------------|
|---------------------|---------------------------|
|
|  E  E E E E E  E  E    E   E       E  E E E E E
|---------------------|---------------------------|
|---------------------|---------------------------|
|---------------------|---------------------------|
|-----7-----5---------|-------------------5-------|
|-------8-----7-------|--5--/8-------7------8-7---|
|--0------7------0--3-|-----------------6-------7-|


  W                 W
|-----------------|------------------|
|-----------------|------------------|
|-----------------|------------------|
|-----------------|------------------|
|-----------------|------------------|
|-----------------|------------------|
|
| W                 W
|-----------------|------------------|
|-----------------|------------------|
|-----------------|------------------|
|-----------------|------------------|
|-----------------|------------------|
|-----------------|------------------|
|
| E E E E E E E E   E  E E E  E E Q
|-----------------|------------------|
|-----------------|------------------|
|-----------------|------------------|
|---7-----5-------|----------/8-7----|
|-----8-----7-----|-5-/8-7--------4--|
|-0-----7-----0-3-|--------6---------|


  N.C.
  Gtr III
  E E E E E E E E   E  E E E E E E E   E E E E E E E E   E  E E E  E E Q
|-----------------|------------------|-----------------|------------------||
|-----------------|------------------|-----------------|------------------||
|-----------------|------------------|-----------------|------------------||
|---7-----5-------|----------5-------|---7-----5-------|----------/8-7----||
|-----8-----7-----|-5-/8-7-----8-7---|-----8-----7-----|-5-/8-7--------4--||
|-0-----7-----0-3-|--------6-------7-|-0-----7-----0-3-|--------6---------||


 Pre-Chorus
  $
  N.C.
  Gtr I
     PM   PM            PM
  E  E E  E E E E E   E E E E E  E E E
|-------------------|------------------|
|-------------------|------------------|
|-------------------|------------------|
|-8----8----7---7---|---------8----7---|
|---10---10---8---8-|-7-4-5-7---10---8-|
|-------------------|------------------|
|
| Gtr II
|    PM   PM            PM
| E  E E  E E E E E   E E E E E  E E E
|-------------------|------------------|
|-------------------|------------------|
|-----------7-------|------------------|
|-8----8--------7---|---------8----7---|
|---10---10---8---8-|-7-4-5-7---10---8-|
|-------------------|------------------|


     PM   PM
  E  E E  E E E E E   S S S S S S S S S S S S E +E
|-------------------|-------------------------5-(5)\-||
|-------------------|-------------6-5-6-5-6-8--------||
|-7----7----5---5---|---------7-6--------------------||
|----8----8---7---7-|-7-6-7-8------------------------||
|-------------------|--------------------------------||
|-------------------|--------------------------------||
|
|    PM   PM
| E  E E  E E E E E   S S S S S S S S S S S S E +E
|-------------------|--------------------------------||
|-------------------|-------------3-2-3-2-3-5-6-(6)\-||
|-----------7-------|---------3-2--------------------||
|-8----8--------7---|-3-2-3-5------------------------||
|---10---10---8---8-|--------------------------------||
|-------------------|--------------------------------||


   Chorus
    D5                      F5            C/E
    Gtr I
     H     +E   E  +E   E    Q.      S  S  Q     Q
||------------------------|--------------------/12--|
||o-10----(10)---------10-|-13------11-10-----------|
||-------------10-(10)----|---------------12--------|
||------------------------|-------------------------|
||o-----------------------|-------------------------|
||------------------------|-------------------------|
|
|   Gtr II
|    H     +E   E  +E   E    Q.      S  S  Q     Q
||------------------------|---------------------/8--|
||o--6-----(6)----------6-|-10-------8--6--5--------|
||--------------7--(7)----|-------------------------|
||------------------------|-------------------------|
||o-----------------------|-------------------------|
||------------------------|-------------------------|
|
|   Gtr III
|    H     +E   E  +E   E    E  E Q        E E   Q
||------------------------|-------------------------|
||o-----------------------|-------------------------|
||------------------------|-------------------------|
||---0-----(0)--0--(0)--0-|--3--3-3--------2-2---2--|
||o--0-----(0)--0--(0)--0-|--3--3-3--------3-3---3--|
||---0-----(0)--0--(0)--0-|--3--3-3--------2-2---2--|


                                                    To Coda
  Bb5                         F5            C/E
   Q.       E  +E   E  Q       Q.      S  S  S  S  S  S  Q
|-10------/13-(13)-12-10----|---------------10-----------------||
|---------------------------|-13------11-13----13-11-13-------o||
|---------------------------|---------------------------12-----||
|---------------------------|----------------------------------||
|---------------------------|---------------------------------o||
|---------------------------|----------------------------------||
|
|  Q.       E  +E   E  Q       Q.      S  S  S  S  S  S  Q
|--6------/10-(10)--8--6----|--5----------5--6--5-----5--------||
|---------------------------|----------8-----------8-----5----o||
|---------------------------|----------------------------------||
|---------------------------|----------------------------------||
|---------------------------|---------------------------------o||
|---------------------------|----------------------------------||
|
|  E  E E   E  +E   E +E  E    E  E E  E     E     E     E E
|---------------------------|----------------------------------||
|---------------------------|---------------------------------o||
|--3--3-3---3--(3)--3-(3)-3-|----------------------------------||
|--3--3-3---3--(3)--3-(3)-3-|--3--3-3--3-----2-----2-----2-2---||
|--1--1-1---1--(1)--1-(1)-1-|--3--3-3--3-----3-----3-----3-3--o||
|---------------------------|--3--3-3--3-----2-----2-----2-2---||


   Pre-Verse
    D5
    Gtrs I, II
             PM-|       PM----|         PM------|      PM------|
     Q       S  S E +E  S S S S  E   E  S  S  S  S  E  E  E  S  S  E
||---------------------------------|---------------------------------|
||o--------------------------------|---------------------------------|
||---------------------------------|---------------------------------|
||---0------------0-(0)------------|---------------------------------|
||o--0-------0--0-0-(0)-0-0-0-0----|----0--0--0--0-----0--0--0--0----|
||---0-------0--0-0-(0)-0-0-0-0----|----0--0--0--0-----0--0--0--0----|
|
|   Gtr III
|    E.  S  +E    E +E  S S S E.     E  S  S  S  E.    E  E  S  E.
||---------------------------------|---------------------------------|
||o--------------------------------|---11-11-11-11----11-11-11-14----|
||--11--14-(14)---7-(7)-7-7-7-7----|-7--x--x--x--x-----x--x--x--x----|
||---x---x--------x-----x-x-x-x----|-x--8--8--8--8-----8--8--8-11----|
||o--9--12-(12)---5-(5)-5-5-5-5----|-5-------------------------------|
||---------------------------------|---------------------------------|


           PM-|       PM----|         PM------|      PM------|
   Q       S  S E +E  S S S S  E   E  S  S  S  S  E  E  E  S  S  E
|--------------------------------|------------------------------------||
|--------------------------------|-----------------------------------o||
|--------------------------------|------------------------------------||
|--0------------0-(0)------------|------------------------------------||
|--0-------0--0-0-(0)-0-0-0-0----|----0--0--0--0-----0--0--0--0------o||
|--0-------0--0-0-(0)-0-0-0-0----|----0--0--0--0-----0--0--0--0-------||
|
|  E.  S  +E    E +E  S S S E.     E  S  S  S  E.    E  E  S  E.
|--------------------------------|------------------------------------||
|--------------------------------|---11-11-11-11----11-11-11-14------o||
|-11--14-(14)---7-(7)-7-7-7-7----|-7--x--x--x--x-----x--x--x--x-------||
|--x---x--------x-----x-x-x-x----|-x--8--8--8--8-----8--8--8-11-------||
|--9--12-(12)---5-(5)-5-5-5-5----|-5---------------------------------o||
|--------------------------------|------------------------------------||


  N.C.
  Gtr I
  W                        S  S  S  S  S  S  S  S  S  S  S  S  Q
|-----------------------|-10-10-------13-13-------17-17-------20b21------||
|-----------------------|-------10-10-------14-14-------17-17------------||
|-----------------------|------------------------------------------------||
|-----------------------|------------------------------------------------||
|-----------------------|------------------------------------------------||
|-----------------------|------------------------------------------------||
|
| Gtr II
| W                        S  S  S  S  S  S  S  S  S  S  S  S  E     +E
|-----------------------|-10-10-------13-13-------17-17-------17b18-(17)-||
|-----------------------|-------10-10-------14-14-------17-17------------||
|-----------------------|------------------------------------------------||
|-----------------------|------------------------------------------------||
|-----------------------|------------------------------------------------||
|-----------------------|------------------------------------------------||
|
| Gtr III
| E. S +E  E +S  E. E E    W
|-----------------------|------------------------------------------------||
|-----------------------|------------------------------------------------||
|-----------------------|------------------------------------------------||
|-----------------------|------------------------------------------------||
|-5--3-(3)-8-(8)--------|------------------------------------------------||
|----------------7--8-7-|------------------------------------------------||


 Verse
  N.C.
   Q        +H.              +Q      +E     S  S  E  E  E  E
|-20b22====(20)-----------|-(20)----(20)r\-------------------|
|-------------------------|----------------------10----------|
|-------------------------|----------------10-12----12-10-12-|
|-------------------------|----------------------------------|
|-------------------------|----------------------------------|
|-------------------------|----------------------------------|
|
|  ~~~~~~~~~~~~~~~~~~~~~~~~~~~~~~
|  W                         +Q      +E     S  S  E  E  E  E
|-17----------------------|-(17)----(17)\--------------------|
|-------------------------|----------------15-17-18-17-15----|
|-------------------------|-------------------------------15-|
|-------------------------|----------------------------------|
|-------------------------|----------------------------------|
|-------------------------|----------------------------------|
|
|  E     E   E  E E E E E     E   E   E     E     E  E  E  E
|-------------------------|----------------------------------|
|-------------------------|----------------------------------|
|-------------------------|----------------------------------|
|--------7--------5-------|-----------------------5----------|
|------------8------7-----|---5--/8---7--------------8--7----|
|--0------------7-----0-3-|-----------------6--------------7-|


   ~~~~~~~~~~~~~~~~~~~~~~~~~~~
   W                      +H          E.    E.    E
|----------------------|--------------------------9---|
|----------------------|-------------10----11---------|
|-10-------------------|-(10)-------------------------|
|----------------------|------------------------------|
|----------------------|------------------------------|
|----------------------|------------------------------|
|
|         ~~~~~~~~~~~~~~~~~~~~
|  E  E  +H.              +H          E.    E.    E
|----------------------|------------------------------|
|-15-------------------|-------------14----15----17---|
|----14-(14)-----------|-(14)-------------------------|
|----------------------|------------------------------|
|----------------------|------------------------------|
|----------------------|------------------------------|
|
|  E  E   E  E E E E E     E   E E E  E  E     Q
|----------------------|------------------------------|
|----------------------|------------------------------|
|----------------------|------------------------------|
|-----7--------5-------|-------------/8--7------------|
|---------8------7-----|---5--/8-7-------------4------|
|--0---------7-----0-3-|-----------6------------------|


  N.C.
   Q        +H.              +Q      +Q       E.    E.    E
|--9b10=====(9)-----------|--(9)-----(9)r\----9----10----12-|
|-------------------------|---------------------------------|
|-------------------------|---------------------------------|
|-------------------------|---------------------------------|
|-------------------------|---------------------------------|
|-------------------------|---------------------------------|
|
|  Q        +H.              +Q      +Q       E.    E.    E
|-------------------------|------------------------------16-|
|-17b18====(17)-----------|-(17)----(17)r\---17----18-------|
|-------------------------|---------------------------------|
|-------------------------|---------------------------------|
|-------------------------|---------------------------------|
|-------------------------|---------------------------------|
|
|  E     E   E  E E E E E     E   E   E    E  E  E     E  E
|-------------------------|---------------------------------|
|-------------------------|---------------------------------|
|-------------------------|---------------------------------|
|--------7--------5-------|-------------------5-------------|
|------------8------7-----|---5--/8---7----------8-----7----|
|--0------------7-----0-3-|----------------6--------------7-|


                                                          D.S. al Coda
   Q        +H.              +Q      +E     S  S  S  S  S  S  S  S  S  S
|-12b13====(12)-----------|-(12)----(12)r\-12-13-15-13-12-13-15-13-12-13-||
|-------------------------|----------------------------------------------||
|-------------------------|----------------------------------------------||
|-------------------------|----------------------------------------------||
|-------------------------|----------------------------------------------||
|-------------------------|----------------------------------------------||
|
|  Q        +H.              +Q      +E     S  S  S  S  S  S  S  S  S  S
|-16b17====(16)-----------|-(16)----(16)r\-16-17-18-17-16-17-18-17-16-17-||
|-------------------------|----------------------------------------------||
|-------------------------|----------------------------------------------||
|-------------------------|----------------------------------------------||
|-------------------------|----------------------------------------------||
|-------------------------|----------------------------------------------||
|
|  E     E   E  E E E E E     E   E   E     E     E     E     Q
|-------------------------|----------------------------------------------||
|-------------------------|----------------------------------------------||
|-------------------------|----------------------------------------------||
|--------7--------5-------|----------------------/8-----7----------------||
|------------8------7-----|---5--/8---7-----------------------4----------||
|--0------------7-----0-3-|-----------------6----------------------------||


   Bridge
    &
    F5                  Ab5            Eb/G
    Gtrs I, II
    Q.     Q   Q    E    +E   E  +E  E +E  E +E   E
||--------------------|-----------------------------|
||o-6------9---8---13-|-(13)-11-(11)-8-(8)-9-(9)-14-|
||--x------x---x----x-|-------x------x-----x------x-|
||--3------6---5---10-|-(10)--8--(8)-5-(5)-6-(6)-11-|
||o-------------------|-----------------------------|
||--------------------|-----------------------------|
|
|   Gtr III
|   E  E E E E E E  E     E   E   E  E  E  E  E   E
||--------------------|-----------------------------|
||o-------------------|-----------------------------|
||--------------------|-----------------------------|
||--3--3-3-3-3-3-3--3-|---6---6---6--6--5--5--5---5-|
||o-3--3-3-3-3-3-3--3-|---6---6---6--6--6--6--6---6-|
||--3--3-3-3-3-3-3--3-|---6---6---6--6--5--5--5---5-|


  Db5                  Ab5     Eb/G
   E  E  E E Q   E E   E E E E Q   Q
|--------------------|------------------||
|-14-13-11s9-9---9s8-|-8s9-9s4-4---4---o||
|--x--x--x---x---x---|-x---x---x---x----||
|-11-10--8s6-6---6s5-|-5s6-6s1-1---1----||
|--------------------|-----------------o||
|--------------------|------------------||
|
|  E  E  E E E E E E   E E E E E E E E
|--------------------|------------------||
|--------------------|-----------------o||
|--6--6--6-6-6-6-6-6-|------------------||
|--6--6--6-6-6-6-6-6-|-6-6-6-6-5-5-5-5--||
|--4--4--4-4-4-4-4-4-|-6-6-6-6-6-6-6-6-o||
|--------------------|-6-6-6-6-5-5-5-5--||


    $$
    Eb5                                  B5
    H.                        Q           H.                          Q
||-------------------------------------|--------------------------------------|
||o------------------------------------|--------------------------------------|
||--8-------------------------8\-------|--4---------------------------4-------|
||--8-------------------------8\-------|--4---------------------------4-------|
||o-6-------------------------6\-------|--2---------------------------2-------|
||-------------------------------------|--------------------------------------|
|
|   |-3--|  |--3--|  |--3--|  |--3---|    |--3---|  |--3--|  |--3--|  |--3--|
|   E  E E  E  E  E  E  E  E  E   E  E    E   E  E  E  E  E  E  E  E  E  E  E
||---------------11-----------------11-|-----------------------11s14-11-------|
||o-----------11----11-----------11----|-12-----------------12----------12----|
||---------11----------11----11--------|-----11----------11----------------11-|
||-------8----------------13-----------|--------13----13----------------------|
||o-6--9-------------------------------|-----------14-------------------------|
||-------------------------------------|--------------------------------------|


                                                         To Dbl. Coda
  F5                                     Eb5
   H.                          Q          H.                       Q
|--------------------------------------|------------------------------------||
|--------------------------------------|-----------------------------------o||
|--------------------------------------|------------------------------------||
|--3---------------------------3-------|--1------------------------1--------||
|--3---------------------------3-------|--1------------------------1-------o||
|--3---------------------------3-------|--1------------------------1--------||
|
|                                                                  ~
|  |--3---|  |--3--|  |--3--|  |--3--|    |--3---|  |-3--|  |-3--| |3-|
|  E   E  E  E  E  E  E  E  E  E  E  E    E   E  E  E  E E  E  E E Q +E
|-16--13----------------13s16-13-------|-14--13-11--------------------------||
|--------13----------13----------13----|-----------12----------------------o||
|-----------13----13----------------13-|--------------11s8-11-10-8----------||
|--------------15----------------------|---------------------------9-(9)\---||
|--------------------------------------|-----------------------------------o||
|--------------------------------------|------------------------------------||


 Breakdown
  D5
  E.     E.      E.       E.  E E   E.     E.      E.       E.  E E
|---------------------------------|---------------------------------|
|---------------------------------|---------------------------------|
|-7------9------10------/12--10-9-|-7------9------10------/12--10-9-|
|-x------x-------x--------x---x-x-|-x------x-------x--------x---x-x-|
|-5------7-------8------/10---8-7-|-5------7-------8------/10---8-7-|
|---------------------------------|---------------------------------|
|
| PM----------|                     PM----------|
| S  S S S  S S  E  +H              S  S S S  S S  E  +H
|---------------------------------|---------------------------------|
|---------------------------------|---------------------------------|
|---------------------------------|---------------------------------|
|----------------0--(0)-----------|----------------0--(0)-----------|
|-0--0-0-0--0-0--0--(0)-----------|-0--0-0-0--0-0--0--(0)-----------|
|-0--0-0-0--0-0--0--(0)-----------|-0--0-0-0--0-0--0--(0)-----------|


  Bb5
  E.     E.      E.       E.  E E   E.     E.      E.       E.  E E
|---------------------------------|---------------------------------|
|---------------------------------|---------------------------------|
|-7------9------10------/12--10-9-|-7------9------10------/12--10-9-|
|-x------x-------x--------x---x-x-|-x------x-------x--------x---x-x-|
|-5------7-------8------/10---8-7-|-5------7-------8------/10---8-7-|
|---------------------------------|---------------------------------|
|
| PM----------|                     PM----------|
| S  S S S  S S  E  +H              S  S S S  S S  E  +H
|---------------------------------|---------------------------------|
|---------------------------------|---------------------------------|
|---------------------------------|---------------------------------|
|----------------8--(8)-----------|----------------8--(8)-----------|
|-8--8-8-8--8-8--8--(8)-----------|-8--8-8-8--8-8--8--(8)-----------|
|-8--8-8-8--8-8--8--(8)-----------|-8--8-8-8--8-8--8--(8)-----------|


  C5
   E.        E.        E.        E.  E E
|----------------------------------------|
|----------------------------------------|
|--7---------9--------10-------/12--10-9-|
|--x---------x---------x---------x---x-x-|
|--5---------7---------8-------/10---8-7-|
|----------------------------------------|
|
|  PM--------------|
|  S   S  S  S   S  S  E   +H
|----------------------------------------|
|----------------------------------------|
|----------------------------------------|
|---------------------10--(10)-----------|
|-10--10-10-10--10-10-10--(10)-----------|
|-10--10-10-10--10-10-10--(10)-----------|


                                           D5
   E.        E.        E.        E.  E E   E.     E.      E.       E.  E E
|----------------------------------------|---------------------------------||
|----------------------------------------|---------------------------------||
|--7---------9--------10-------/12--10-9-|-7------9------10------/12--10-9-||
|--x---------x---------x---------x---x-x-|-x------x-------x--------x---x-x-||
|--5---------7---------8-------/10---8-7-|-5------7-------8------/10---8-7-||
|----------------------------------------|---------------------------------||
|
|  PM--------------|                       PM----------|
|  S   S  S  S   S  S  E   +H              S  S S S  S S  E  +H
|----------------------------------------|---------------------------------||
|----------------------------------------|---------------------------------||
|----------------------------------------|---------------------------------||
|---------------------10--(10)-----------|----------------0--(0)-----------||
|-10--10-10-10--10-10-10--(10)-----------|-0--0-0-0--0-0--0--(0)-----------||
|-10--10-10-10--10-10-10--(10)-----------|-0--0-0-0--0-0--0--(0)-----------||


 Verse
  DmD5                        Em6
  Gtrs I, II
    PM----|   PM----|   PM|      PM----|    PM----|    PM|
  E S S S S E S S S S E S S    E S S S S  E S S S S  E S S
|---------------------------|------------------------------|
|---------------------------|------------------------------|
|---------------------------|------------------------------|
|-3---------7---------7-----|-10---------10---------10-----|
|-5-0-0-0-0-5-0-0-0-0-5-0-0-|--7-7-7-7-7--7-7-7-7-7--7-7-7-|
|---0-0-0-0---0-0-0-0---0-0-|------------------------------|


  F5
     PM----|    PM----|    PM|
   E S S S S  E S S S S  E S S
|------------------------------|
|------------------------------|
|------------------------------|
|-10---------10---------10-----|
|--8-8-8-8-8--8-8-8-8-8--8-8-8-|
|------------------------------|


             Fsus2     F       Db5
     PM----|   PM----|   PM|     PM----|   PM----|   PM|
   E S S S S E S S S S E S S   E S S S S E S S S S E S S
|----------------------------|---------------------------||
|----------------------------|---------------------------||
|----------------------------|---------------------------||
|-10---------5---------7-----|-6---------6---------6-----||
|--8-8-8-8-8-8-8-8-8-8-8-8-8-|-4-4-4-4-4-4-4-4-4-4-4-4-4-||
|----------------------------|---------------------------||


  Bb5                Ab5
  Gtr I
                     ~~
   E. E. E E. E. E   H        E +E    E +E
|------------------|-------------------------|
|-/6--6--6-6--4--2-|-4-------/5-(5)\-/7-(7)\-|
|------------------|-------------------------|
|------------------|-------------------------|
|------------------|-------------------------|
|------------------|-------------------------|
|
| Gtr II
|                    ~~
|  E. E. E E. E. E   H        E +E    E +E
|------------------|-------------------------|
|------------------|-------------------------|
|--6--6--6-6--5--3-|-5-------/6-(6)\-/8-(8)\-|
|------------------|-------------------------|
|------------------|-------------------------|
|------------------|-------------------------|
|
| Gtr III
|  E. E. E E. E. E   E. E. E  E  Q.
|------------------|-------------------------|
|------------------|-------------------------|
|--3--3--3-3--3--3-|-------------------------|
|--3--3--3-3--3--3-|-6--6--6--6--------------|
|--1--1--1-1--1--1-|-6--6--6--6--------------|
|------------------|-6--6--6--6--------------|


  C#5                B5
                     ~~          ~
   E. E. E E. E. E   H       E E Q
|------------------|-----------------|
|-/9--9--9-9--7--5-|-7-------4-5-7---|
|------------------|-----------------|
|------------------|-----------------|
|------------------|-----------------|
|------------------|-----------------|
|
|                    ~~          ~
|  E. E. E E. E. E   H       E E Q
|------------------|-----------------|
|------------------|-----------------|
|-/9--9--9-9--8--6-|-8-------4-6-8---|
|------------------|-----------------|
|------------------|-----------------|
|------------------|-----------------|
|
|  E. E. E E. E. E   E. E. E E E E E
|------------------|-----------------|
|------------------|-----------------|
|--6--6--6-6--6--6-|-4--4--4-4-4-4-4-|
|--6--6--6-6--6--6-|-4--4--4-4-4-4-4-|
|--4--4--4-4--4--4-|-2--2--2-2-2-2-2-|
|------------------|-----------------|


  D#5                      G#5
    E.  E.  E  E.  E.  E    Q        +Q     E     +E   Q
|------------------------|-------------------------------------|
|-/11--11--11-11--12--14-|-14b16----(14)---14b16r(14)-14-------|
|------------------------|-------------------------------------|
|------------------------|-------------------------------------|
|------------------------|-------------------------------------|
|------------------------|-------------------------------------|
|
|                           ~~~~~
|   E.  E.  E  E.  E.  E    H               E      E   E  +E
|------------------------|-------------------------------------|
|------------------------|-------------------------------------|
|--11--11--11-11---9---8-|-------------------------------------|
|------------------------|--9---------------9-----11--13-(13)\-|
|------------------------|-------------------------------------|
|------------------------|-------------------------------------|
|
|   E.  E.  E  E.  E.  E    E.   E.      E  E      E   E   E
|------------------------|-------------------------------------|
|------------------------|-------------------------------------|
|---8---8---8--8---8---8-|-------------------------------------|
|---8---8---8--8---8---8-|--6----6-------6--6------6---6---6---|
|---6---6---6--6---6---6-|--6----6-------6--6------6---6---6---|
|------------------------|--6----6-------6--6------6---6---6---|


  D#5                      G#5
    E.  E.  E  E.  E.  E    Q        +Q     E     +E    Q
|------------------------|-------------------------------------|
|-/11--11--11-11--12--14-|-14b16----(14)---14b16r(14)--14------|
|------------------------|-------------------------------------|
|------------------------|-------------------------------------|
|------------------------|-------------------------------------|
|------------------------|-------------------------------------|
|
|                           ~~~~~
|   E.  E.  E  E.  E.  E    H               E     +E    E +E
|------------------------|-------------------------------------|
|------------------------|-------------------------------------|
|--11--11--11-11---9---8-|-------------------------------------|
|------------------------|--9---------------9-----(9)\-/9-(9)\-|
|------------------------|-------------------------------------|
|------------------------|-------------------------------------|
|
|   E.  E.  E  E.  E.  E    E.   E.      E  E      E    E  E
|------------------------|-------------------------------------|
|------------------------|-------------------------------------|
|---8---8---8--8---8---8-|-------------------------------------|
|---8---8---8--8---8---8-|--6----6-------6--6------6----6--6---|
|---6---6---6--6---6---6-|--6----6-------6--6------6----6--6---|
|------------------------|--6----6-------6--6------6----6--6---|


  A5
                                               ~~~~
    Q.      +E     Q    +E    S  S    Q       +H.
|----------------------------------|--------------------------------||
|-/14------(14)\-/16---(16)\-14-16-|-16b17---(16)-------------------||
|----------------------------------|--------------------------------||
|----------------------------------|--------------------------------||
|----------------------------------|--------------------------------||
|----------------------------------|--------------------------------||
|
|                                              ~~~~
|   Q.      +E     Q    +E    S  S    Q       +H.
|----------------------------------|--------------------------------||
|----------------------------------|--------------------------------||
|-/14------(14)\-/16---(16)\-14-16-|-16b18---(16)-------------------||
|----------------------------------|--------------------------------||
|----------------------------------|--------------------------------||
|----------------------------------|--------------------------------||
|
|   PM------------------------------------------------------------|
|   E  E E   E     E E   E    E       E    E   E  E S S S S S S S S
|----------------------------------|--------------------------------||
|----------------------------------|--------------------------------||
|----------------------------------|--------------------------------||
|----------------------------------|--------------------------------||
|---7--7-7---7-----7-7---7----7----|--7----7---7--7-7-7-7-7-7-7-7-7-||
|---7--7-7---7-----7-7---7----7----|--7----7---7--7-7-7-7-7-7-7-7-7-||


 Guitar Break
  D5
   S  S  S  S  S   S  S  S  S  S  S  S  S  S  S  S
|--------------------------------------------------|
|------------------------8-10--8-10-11-10--8-------|
|-----------9-10---9-10----------------------10--9-|
|-12-10-12-----------------------------------------|
|--------------------------------------------------|
|--------------------------------------------------|
|
|  S  S  S  S  S   S  S  S  S  S  S  S  S  S  S  S
|--------------------------------------------------|
|-------------10-----10-11-13-11-13s15-13-11-10----|
|-10--9-10-12-----12----------------------------12-|
|--------------------------------------------------|
|--------------------------------------------------|
|--------------------------------------------------|
|
|  q           H.
|--------------------------------------------------|
|--------------------------------------------------|
|--------------------------------------------------|
|--0-----------------------------------------------|
|--0-----------------------------------------------|
|--0-----------------------------------------------|


   S  S  S  S  S   S  S  S  S  S  S  S  S  S  S  S
|--------------------------------------------------|
|------------------------8-10--8-10-11-10--8-------|
|-----------9-10---9-10----------------------10--9-|
|-12-10-12-----------------------------------------|
|--------------------------------------------------|
|--------------------------------------------------|
|
|  S  S  S  S  S   S  S  S  S  S  S  S  S  S  S  S
|--------------------------------------------------|
|-------------10-----10-11-13-11-13s15-13-11-10----|
|-10--9-10-12-----12----------------------------12-|
|--------------------------------------------------|
|--------------------------------------------------|
|--------------------------------------------------|
|
|  q           H.
|--------------------------------------------------|
|--------------------------------------------------|
|--------------------------------------------------|
|--0-----------------------------------------------|
|--0-----------------------------------------------|
|--0-----------------------------------------------|


  F#5
   S  S  S  S  S   S  S  S  S  S  S  S  S  S  S  S
|--------------------------------------------------|
|-----------------------12-14-12-14-15-14-12-------|
|----------13-14--13-14----------------------14-13-|
|-16-14-16-----------------------------------------|
|--------------------------------------------------|
|--------------------------------------------------|
|
|  S  S  S  S  S   S  S  S  S  S  S  S  S  S  S  S
|--------------------------------------------------|
|-------------14-----14-15-17-15-17s19-17-15-14----|
|-14-13-14-16-----16----------------------------16-|
|--------------------------------------------------|
|--------------------------------------------------|
|--------------------------------------------------|
|
|  q           H.
|--------------------------------------------------|
|--------------------------------------------------|
|--------------------------------------------------|
|--4-----------------------------------------------|
|--4-----------------------------------------------|
|--4-----------------------------------------------|


   S  S  S  S  S  S  S  S  S   S  S  S  S  S  S  S
|---------------------------------------------------|
|----------------------12-14--12-14-15-14-12--------|
|----------13-14-13-14-----------------------14-13--|
|-16-14-16------------------------------------------|
|---------------------------------------------------|
|---------------------------------------------------|
|
|  S  S  S  S  S  S  S  S  S   S  S  S  S  S  S  S
|---------------------------------------------------|
|-------------14----14-15-17--15-17s19-17-15-14-----|
|-14-13-14-16----16-----------------------------16--|
|---------------------------------------------------|
|---------------------------------------------------|
|---------------------------------------------------|
|
|                                 PM------------|
|  H                      +E      S  S  S  S  S  S
|---------------------------------------------------|
|---------------------------------------------------|
|---------------------------------------------------|
|--4----------------------(4)-----------------------|
|--4----------------------(4)-----4--4--4--4--4--4--|
|--4----------------------(4)-----4--4--4--4--4--4--|


  D5
   S  S  S  S  S  S  S  S  S  S  S  S  S  S  S  S
|-------------------------------------------------|
|-----------------------8-10--8-10-11-10--8-------|
|-----------9-10--9-10----------------------10--9-|
|-12-10-12----------------------------------------|
|-------------------------------------------------|
|-------------------------------------------------|
|
|  S  S  S  S  S  S  S  S  S  S  S  S  S  S  S  S
|-------------------------------------------------|
|-------------10----10-11-13-11-13s15-13-11-10----|
|-10--9-10-12----12----------------------------12-|
|-------------------------------------------------|
|-------------------------------------------------|
|-------------------------------------------------|
|
|  PM----------------------------------------------
|  S  S  S  S  S  S  S  S  S  S  S  S  S  S  S  S
|-------------------------------------------------|
|-------------------------------------------------|
|-------------------------------------------------|
|-------------------------------------------------|
|--0--0--0--0--0--0--0--0--0--0--0--0--0--0--0--0-|
|--0--0--0--0--0--0--0--0--0--0--0--0--0--0--0--0-|


   S  S  S  S  S  S  S  S  S  S  S  S  S  S  S  S
|-------------------------------------------------|
|-----------------------8-10--8-10-11-10--8-------|
|-----------9-10--9-10----------------------10--9-|
|-12-10-12----------------------------------------|
|-------------------------------------------------|
|-------------------------------------------------|
|
|  S  S  S  S  S  S  S  S  S  S  S  S  S  S  S  S
|-------------------------------------------------|
|-------------10----10-11-13-11-13s15-13-11-10----|
|-10--9-10-12----12----------------------------12-|
|-------------------------------------------------|
|-------------------------------------------------|
|-------------------------------------------------|
|
|----------------------------------------------|
|  S  S  S  S  S  S  S  S  S  S  S  S  S  S  S  S
|-------------------------------------------------|
|-------------------------------------------------|
|-------------------------------------------------|
|-------------------------------------------------|
|--0--0--0--0--0--0--0--0--0--0--0--0--0--0--0--0-|
|--0--0--0--0--0--0--0--0--0--0--0--0--0--0--0--0-|


  F#5
   S  S  S  S  S  S  S  S  S  S  S  S  S  S  S  S
|-------------------------------------------------|
|----------------------12-14-12-14-15-14-12-------|
|----------13-14-13-14----------------------14-13-|
|-16-14-16----------------------------------------|
|-------------------------------------------------|
|-------------------------------------------------|
|
|  S  S  S  S  S  S  S  S  S  S  S  S  S  S  S  S
|-------------------------------------------------|
|-------------14----14-15-17-15-17s19-17-15-14----|
|-14-13-14-16----16----------------------------16-|
|-------------------------------------------------|
|-------------------------------------------------|
|-------------------------------------------------|
|
|  PM----------------------------------------------
|  S  S  S  S  S  S  S  S  S  S  S  S  S  S  S  S
|-------------------------------------------------|
|-------------------------------------------------|
|-------------------------------------------------|
|-------------------------------------------------|
|--4--4--4--4--4--4--4--4--4--4--4--4--4--4--4--4-|
|--4--4--4--4--4--4--4--4--4--4--4--4--4--4--4--4-|


   S  S  S  S  S  S  S  S  S  S  S  S  S  S  S  S
|--------------------------------------------------||
|----------------------12-14-12-14-15-14-12--------||
|----------13-14-13-14----------------------14-13--||
|-16-14-16-----------------------------------------||
|--------------------------------------------------||
|--------------------------------------------------||
|
|  S  S  S  S  S  S  S  S  S  S  S  S  S  S  S  S
|--------------------------------------------------||
|-------------14----14-15-17-15-17s19-17-15-14-----||
|-14-13-14-16----16----------------------------16--||
|--------------------------------------------------||
|--------------------------------------------------||
|--------------------------------------------------||
|
|----------------------------------------------|
|  S  S  S  S  S  S  S  S  S  S  S  S  S  S  S  S
|--------------------------------------------------||
|--------------------------------------------------||
|--------------------------------------------------||
|--------------------------------------------------||
|--4--4--4--4--4--4--4--4--4--4--4--4--4--4--4--4--||
|--4--4--4--4--4--4--4--4--4--4--4--4--4--4--4--4--||


 Bridge
  D5                      Db5
   S  S  S  S  S  S  S  S  S  S  S  S  S  S  S  S
|-17-------17-20-------17-15-------15-18-17-15----|
|-------18----------18----------17-------------17-|
|----19----------19----------17-------------------|
|-------------------------------------------------|
|-------------------------------------------------|
|-------------------------------------------------|
|
|  S  S  S  S  S  S  S  S  S  S  S  S  S  S  S  S
|-------------------------------------------------|
|-18-------18-22-------18-17-------17-20-18-17----|
|-------19----------19----------18-------------18-|
|----19----------19----------19-------------------|
|-------------------------------------------------|
|-------------------------------------------------|
|
|  q           q           q           q
|-------------------------------------------------|
|-------------------------------------------------|
|--7-----------------------6----------------------|
|--7-----------------------6----------------------|
|--5-----------------------4----------------------|
|-------------------------------------------------|


  D5    Bb5   A5    G5 F5 E5 D5
   E  E  E  E  E  E  S  S  S  S    E  +E   H.
|-------------------------------|----------------||
|-18----15----14----------------|----------------||
|----18----15----14-15-14-12--9-|-10-(10)\-------||
|-------------------------------|----------------||
|-------------------------------|----------------||
|-------------------------------|----------------||
|
|  E  E  E  E  E  E  S  S  S  S    E  +E   H.
|-------------------------------|----------------||
|-------------------------------|----------------||
|-19----15----14----------------|----------------||
|----19----17----15-17-15-14-11-|-12-(12)\-------||
|-------------------------------|----------------||
|-------------------------------|----------------||
|
|  q     q     q     S  S  S  S    q       H.
|-------------------------------|----------------||
|-------------------------------|----------------||
|--7-----3-----2----------------|----------------||
|--7-----3-----2-----5--3--2--0-|--0-------0-----||
|--5-----1-----0-----5--3--2--0-|--0-------0-----||
|--------------------5--3--2--0-|--0-------0-----||


 Breakdown Chorus
  Dm                           Fsus2/C      C
  Gtr I
                                <
  W                             Q.     S  S  Q    Q
|----------------------------|------------------/12-----|
|----------------------------|-13-----11-10-------------|
|----------------------------|--------------12----------|
|----------------------------|--------------------------|
|----------------------------|--------------------------|
|----------------------------|--------------------------|
|
| Gtr II
|                               <
| W                             Q.     S  S  Q    Q
|----------------------------|-------------------/8-----|
|----------------------------|-10------8--6--5----------|
|----------------------------|--------------------------|
|----------------------------|--------------------------|
|----------------------------|--------------------------|
|----------------------------|--------------------------|
|
| Gtr VI
| E. S S S E +S  S S S E S S    Q   E  S  S  Q    E S S
|----------------------------|--------------------------|
|-6--6-x-x-6-(6)-6-x-x-6-x-x-|--1---1--x--x--1----1-x-x-|
|-7--7-x-x-7-(7)-7-x-x-7-x-x-|--0---0--x--x--0----0-x-x-|
|-7--7-x-x-7-(7)-7-x-x-7-x-x-|--3---3--x--x--2----2-x-x-|
|-5--5-x-x-5-(5)-5-x-x-5-x-x-|--3---3--x--x--3----3-x-x-|
|----------------------------|--------------------------|


  Bb                                 Fsus2/C      C
   Q.         E  +E     E    Q        Q.     S  S  S  S  S  S  Q
|-10--------/13-(13)---12---10-----|--------------10------------------||
|----------------------------------|-13-----11-13----13-11-13---------||
|----------------------------------|--------------------------12------||
|----------------------------------|----------------------------------||
|----------------------------------|----------------------------------||
|----------------------------------|----------------------------------||
|
|  Q.         E  +E     E    Q        Q.     S  S  S  S  S  S  Q
|--6--------/10-(10)----8----6-----|--5---------5--6--5-----5---------||
|----------------------------------|---------8-----------8-----5------||
|----------------------------------|----------------------------------||
|----------------------------------|----------------------------------||
|----------------------------------|----------------------------------||
|----------------------------------|----------------------------------||
|
|  E. S S S   E  +S  S  S S  E S S    Q   E  S  S  Q           E S S
|----------------------------------|----------------------------------||
|--3--3-x-x---3--(3)-3--x-x--3-x-x-|--1---1--x--x--1-----------1-x-x--||
|--3--3-x-x---3--(3)-3--x-x--3-x-x-|--0---0--x--x--0-----------0-x-x--||
|--3--3-x-x---3--(3)-3--x-x--3-x-x-|--3---3--x--x--2-----------2-x-x--||
|--1--1-x-x---1--(1)-1--x-x--1-x-x-|--3---3--x--x--3-----------3-x-x--||
|----------------------------------|----------------------------------||


   Chorus
    D5                         F5            C/E
    Gtr I
     H        +E   E  +E   E    Q.      S  S  Q     Q
||---------------------------|--------------------/12---|
||o-10-------(10)---------10-|-13------11-10------------|
||----------------10-(10)----|---------------12---------|
||---------------------------|--------------------------|
||o--------------------------|--------------------------|
||---------------------------|--------------------------|
|
|   Gtr II
|    H        +E   E  +E   E    Q.      S  S  Q     Q
||---------------------------|---------------------/8---|
||o--6--------(6)----------6-|-10-------8--6--5---------|
||-----------------7--(7)----|--------------------------|
||---------------------------|--------------------------|
||o--------------------------|--------------------------|
||---------------------------|--------------------------|
|
|   Gtr III
|    E E E E  +E   E   E   E    E  E E  E     E E   E E
||---------------------------|--------------------------|
||o--------------------------|--------------------------|
||---------------------------|--------------------------|
||---0-0-0-0--(0)--0---0---0-|--3--3-3--3-----2-2---2-2-|
||o--0-0-0-0--(0)--0---0---0-|--3--3-3--3-----3-3---3-3-|
||---0-0-0-0--(0)--0---0---0-|--3--3-3--3-----2-2---2-2-|


  Bb5                        F5            C/E
   Q.       E  +E   E  Q      Q.      S  S  S  S  S  S  Q
|-10------/13-(13)-12-10---|---------------10-----------------||
|--------------------------|-13------11-13----13-11-13-------o||
|--------------------------|---------------------------12-----||
|--------------------------|----------------------------------||
|--------------------------|---------------------------------o||
|--------------------------|----------------------------------||
|
|  Q.       E  +E   E  Q      Q.      S  S  S  S  S  S  Q
|--6------/10-(10)--8--6---|--5----------5--6--5-----5--------||
|--------------------------|----------8-----------8-----5----o||
|--------------------------|----------------------------------||
|--------------------------|----------------------------------||
|--------------------------|---------------------------------o||
|--------------------------|----------------------------------||
|
|  E  E E   E  +E   E  E E    E  E E  E     E     E     E E
|--------------------------|----------------------------------||
|--------------------------|---------------------------------o||
|--3--3-3---3--(3)--3--3-3-|----------------------------------||
|--3--3-3---3--(3)--3--3-3-|--3--3-3--3-----2-----2-----2-2---||
|--1--1-1---1--(1)--1--1-1-|--3--3-3--3-----3-----3-----3-3--o||
|--------------------------|--3--3-3--3-----2-----2-----2-2---||


   Bridge
    F5                  Ab5            Eb/G
    Gtrs I, II
    Q.     Q   Q    E    +E   E  +E  E +E  E +E   E
||--------------------|-----------------------------|
||o-6------9---8---13-|-(13)-11-(11)-8-(8)-9-(9)-14-|
||--x------x---x----x-|-------x------x-----x------x-|
||--3------6---5---10-|-(10)--8--(8)-5-(5)-6-(6)-11-|
||o-------------------|-----------------------------|
||--------------------|-----------------------------|
|
|   Gtr III
|   E  E E E E E E  E     E   E   E  E  E  E  E   E
||--------------------|-----------------------------|
||o-------------------|-----------------------------|
||--------------------|-----------------------------|
||--3--3-3-3-3-3-3--3-|---6---6---6--6--5--5--5---5-|
||o-3--3-3-3-3-3-3--3-|---6---6---6--6--6--6--6---6-|
||--3--3-3-3-3-3-3--3-|---6---6---6--6--5--5--5---5-|


                  D.S.S. al Dbl. Coda
  Db5                  Ab5     Eb/G
   E  E  E E Q   E E   E E E E Q   Q
|--------------------|------------------||
|-14-13-11s9-9---9s8-|-8s9-9s4-4---4---o||
|--x--x--x---x---x---|-x---x---x---x----||
|-11-10--8s6-6---6s5-|-5s6-6s1-1---1----||
|--------------------|-----------------o||
|--------------------|------------------||
|
|  E  E  E E E E E E   E E E E E E E E
|--------------------|------------------||
|--------------------|-----------------o||
|--6--6--6-6-6-6-6-6-|------------------||
|--6--6--6-6-6-6-6-6-|-6-6-6-6-5-5-5-5--||
|--4--4--4-4-4-4-4-4-|-6-6-6-6-6-6-6-6-o||
|--------------------|-6-6-6-6-5-5-5-5--||


 Break
  &&
  Dm                           C
  Gtrs I, II
  W                            +W
|----------------------------|-----------------------------|
|----------------------------|-----------------------------|
|----------------------------|-----------------------------|
|-0--------------------------|-(0)-------------------------|
|-0--------------------------|-(0)-------------------------|
|-0--------------------------|-(0)-------------------------|
|
| Gtr V
| E. S S S E +S  S S S E S S    E. S S S E +S  S S S E S S
|----------------------------|-----------------------------|
|-6--6-x-x-6-(6)-6-x-x-6-x-x-|--5--5-x-x-5-(5)-5-x-x-5-x-x-|
|-7--7-x-x-7-(7)-7-x-x-7-x-x-|--5--5-x-x-5-(5)-5-x-x-5-x-x-|
|-7--7-x-x-7-(7)-7-x-x-7-x-x-|--5--5-x-x-5-(5)-5-x-x-5-x-x-|
|-5--5-x-x-5-(5)-5-x-x-5-x-x-|--3--3-x-x-3-(3)-3-x-x-3-x-x-|
|----------------------------|-----------------------------|


  Bbadd6                                              C
  +W                            +W
|-----------------------------|-------------------------------|
|-----------------------------|-------------------------------|
|-----------------------------|-------------------------------|
|-(0)-------------------------|-(0)---------------------------|
|-(0)-------------------------|-(0)---------------------------|
|-(0)-------------------------|-(0)---------------------------|
|
|  E. S S S E +S  S S S E S S    E  S S S S S S E S S E S S
|-----------------------------|-------------------------------|
|--3--3-x-x-3-(3)-3-x-x-3-x-x-|--3--3-3-3-3-3-3-3-x-x-5-x-x---|
|--0--0-x-x-0-(0)-0-x-x-0-x-x-|--0--0-0-0-0-0-0-0-x-x-5-x-x---|
|--3--3-x-x-3-(3)-3-x-x-3-x-x-|--3--3-3-3-3-3-3-3-x-x-5-x-x---|
|--1--1-x-x-1-(1)-1-x-x-1-x-x-|--1--1-1-1-1-1-1-1-x-x-3-x-x---|
|-----------------------------|-------------------------------|


  Dm                           C
  W                            +W
|----------------------------|-----------------------------|
|----------------------------|-----------------------------|
|----------------------------|-----------------------------|
|-0--------------------------|-(0)-------------------------|
|-0--------------------------|-(0)-------------------------|
|-0--------------------------|-(0)-------------------------|
|
| E. S S S E +S  S S S E S S    E. S S S E +S  S S S E S S
|----------------------------|-----------------------------|
|-6--6-x-x-6-(6)-6-x-x-6-x-x-|--5--5-x-x-5-(5)-5-x-x-5-x-x-|
|-7--7-x-x-7-(7)-7-x-x-7-x-x-|--5--5-x-x-5-(5)-5-x-x-5-x-x-|
|-7--7-x-x-7-(7)-7-x-x-7-x-x-|--5--5-x-x-5-(5)-5-x-x-5-x-x-|
|-5--5-x-x-5-(5)-5-x-x-5-x-x-|--3--3-x-x-3-(3)-3-x-x-3-x-x-|
|----------------------------|-----------------------------|


  Bbadd6                                   C
  +W                            +W
|-----------------------------|----------------------||
|-----------------------------|----------------------||
|-----------------------------|----------------------||
|-(0)-------------------------|-(0)------------------||
|-(0)-------------------------|-(0)------------------||
|-(0)-------------------------|-(0)------------------||
|
|  E. S S S E +S  S S S E S S    Q   E S S Q  E S S
|-----------------------------|----------------------||
|--3--3-x-x-3-(3)-3-x-x-3-x-x-|--3---3-x-x-5--5-x-x--||
|--0--0-x-x-0-(0)-0-x-x-0-x-x-|--0---0-x-x-5--5-x-x--||
|--3--3-x-x-3-(3)-3-x-x-3-x-x-|--3---3-x-x-5--5-x-x--||
|--1--1-x-x-1-(1)-1-x-x-1-x-x-|--1---1-x-x-3--3-x-x--||
|-----------------------------|----------------------||


   Interlude
    Dm                                    C
    Gtrs IV, V
    E.    S   S  S  E  +S  S S S  E S S    E. S S S E +S  S S S E S S
||--------------------------------------|-----------------------------|
||o-6-----6---x--x--6--(6)-6-x-x--6-x-x-|--5--5-x-x-5-(5)-5-x-x-5-x-x-|
||--7-----7---x--x--7--(7)-7-x-x--7-x-x-|--5--5-x-x-5-(5)-5-x-x-5-x-x-|
||--7-----7---x--x--7--(7)-7-x-x--7-x-x-|--5--5-x-x-5-(5)-5-x-x-5-x-x-|
||o-5-----5---x--x--5--(5)-5-x-x--5-x-x-|--3--3-x-x-3-(3)-3-x-x-3-x-x-|
||--------------------------------------|-----------------------------|
|
|   Gtr VI
|   S  E  S  +E     E  +Q         q        H.                   Q
||-------10-(10)-----------------13-----|-12--------------------8-----|
||o-------------------------------------|-----------------------------|
||--7s10-----------10-(10)-------14-----|-12--------------------9-----|
||--------------------------------------|-----------------------------|
||o-------------------------------------|-----------------------------|
||--------------------------------------|-----------------------------|


  Bbadd6                                            C
  E.  S S S  E  +S  S S S E S S   Q         E   S S  Q   E S S
|-------------------------------|--------------------------------|
|-3---3-x-x--3--(3)-3-x-x-3-x-x-|-3---------3---x-x--5---5-x-x---|
|-0---0-x-x--0--(0)-0-x-x-0-x-x-|-0---------0---x-x--5---5-x-x---|
|-3---3-x-x--3--(3)-3-x-x-3-x-x-|-3---------3---x-x--5---5-x-x---|
|-1---1-x-x--1--(1)-1-x-x-1-x-x-|-1---------1---x-x--3---3-x-x---|
|-------------------------------|--------------------------------|
|
| E.  S E    E  +H                S  E  S  +E   E    Q   Q
|-8--10-----10-(10)-------------|------10-(10)----------12-------|
|-------------------------------|--------------------------------|
|-9--10-----10-(10)-------------|-7s10---------10---12-----------|
|-------------------------------|--------------------------------|
|-------------------------------|--------------------------------|
|-------------------------------|--------------------------------|


  Dm                                   C
   E.  S   S  S  E  +S  S S S  E S S    E.  S   S  S  E  +S  S S S E S S
|------------------------------------|-----------------------------------|
|--6---6---x--x--6--(6)-6-x-x--6-x-x-|--5---5---x--x--5--(5)-5-x-x-5-x-x-|
|--7---7---x--x--7--(7)-7-x-x--7-x-x-|--5---5---x--x--5--(5)-5-x-x-5-x-x-|
|--7---7---x--x--7--(7)-7-x-x--7-x-x-|--5---5---x--x--5--(5)-5-x-x-5-x-x-|
|--5---5---x--x--5--(5)-5-x-x--5-x-x-|--3---3---x--x--3--(3)-3-x-x-3-x-x-|
|------------------------------------|-----------------------------------|
|
|  E.  S  +E     E  +Q         Q        E.  S  +E     E  +Q        q
|-----13-(13)-----------------15-----|-12------------12-(12)-------8-----|
|------------------------------------|-----13-(13)-----------------------|
|-14------------14-(14)-------15-----|-----------------------------9-----|
|------------------------------------|-----------------------------------|
|------------------------------------|-----------------------------------|
|------------------------------------|-----------------------------------|


  Bbadd6                                            C
  E.  S S S  E  +S  S S S E S S   Q         E   S S  Q   E S S  4x
|-------------------------------|-------------------------------||
|-3---3-x-x--3--(3)-3-x-x-3-x-x-|-3---------3---x-x--5---5-x-x-o||
|-0---0-x-x--0--(0)-0-x-x-0-x-x-|-0---------0---x-x--5---5-x-x--||
|-3---3-x-x--3--(3)-3-x-x-3-x-x-|-3---------3---x-x--5---5-x-x--||
|-1---1-x-x--1--(1)-1-x-x-1-x-x-|-1---------1---x-x--3---3-x-x-o||
|-------------------------------|-------------------------------||
|
| E.  S E    E  +H                S  E  S  +E   E    Q   Q      4x
|-8--10-----10-(10)-------------|------10-(10)----------12------||
|-------------------------------|------------------------------o||
|-9--10-----10-(10)----------
36 comments total. Showing first comments. show 1 bad comment
0 reply
FedEx_Man wrote on November 13 2005, 02:04 pm

this is the best song ever
i love the way it sounds like santana at the end thats my favorite part

+5 reply
synysterocks wrote on December 17 2005, 12:32 pm

its called recording genius....bat country when they play that harmonized solo dont you hear that rhythm in the background!? its called recording

I want to post or [tab]
guest
You may want to rate the tab now too:
select rating
Please do not post tabs as comments. Select "correction" instead!