Oops, an error
Loading. Please wait.

Sounding The Seventh Trumpet Bass Tab

157 views 1 this week
no commentswrite comment
1 2 3 4 5
please rate
Autoscroll
+/-
esc
set tempo
stop
Contributor
Difficulty
Tuning
advanced
D A D G B E
Hey! There's an official Ultimate Guitar app which is ideal
for learning songs when you're away from computer. Get the app
WARNING: You are trying to view
                                    content from Ultimate-Guitar.com
                                    in an unauthorized application,
                                    which is prohibited.

                                    Please use an official Ultimate
                                    Guitar Tabs application for iPhone,
                                    iPad or Android to access legitimate
                                    chords, guitar, bass, and drum tabs
                                    from Ultimate-Guitar.com database.

                                    Type "ultimate guitar tabs" in Apple
                                    App Store's or Android Market's
                                    search to find the application.
To End The Rapture
Turn The Other Way
Warmness On The Soul
The Art Of Subconscious Illusion
We Come Out At Night
Lips Of Deceit
Darkness Surrounding
An Epic Of Time Wasted
Breaking Their Hold
Forgotten Faces
Thick And Thin
Streets
Shattered By Broken Dreams

**All songs tabbed by Dave Vucko**


To End The Rapture

0:11
G|-----------------------------------------------------------------|
D|-----------------------------------------------------------------|
A|-----------------------------0-5-3-----3-3---3-3-1-----1-3-3-3-3-|
D|-0-------0--0--2-3-------3-5-------------------------3-----------|
   1 + 2 + Triplet 1 + 2 + 3 + 4 + 1 + 2 + 3 + 4 + 1 + 2 + 3 + 4 +

G|-----------------------------------------------------------------|
D|-----------------------------------------------------------------|
A|---------------------------------3-----3-3---3-3-1---1-1-3---3-3-|
D|-0---0-0-0--0--2-3-------3-3-3-3---------------------------------|
   1 + 2 + Triplet 1 + 2 + 3 + 4 + 1 + 2 + 3 + 4 + 1 + 2 + 3 + 4 +

0:27
G|-----------------------------------------------------------------|
D|---------------------------------------3-5-3-2-------------------|
A|-----------------------------0-5-3---3---------3-1-----1-3-3-3-3-|
D|-0-------0--0--2-3-----3-3-5-------------------------3-----------|
   1 + 2 + Triplet 1 + 2 + 3 + 4 + 1 + 2 + 3 + 4 + 1 + 2 + 3 + 4 +

G|-----------------------------------------------------------------|
D|-----------------------------------------------------------------|
A|-----------------------------0-5-3-----3-3-3-3-3-1-1-1-1-3-3-3---|
D|-0-------0--0--2-3-----3-3-5-----------------------------------3-|
   1 + 2 + Triplet 1 + 2 + 3 + 4 + 1 + 2 + 3 + 4 + 1 + 2 + 3 + 4 +

0:43
G|-----------------------------------------------------------------|
D|------------------------------------/2-5-5-3-2-------------------|
A|-----------------------------0-5-3-------------3-1-----1-3-3-3-3-|
D|-0-------0--0--2-3-----3-3-5-------------------------3-----------|
   1 + 2 + Triplet 1 + 2 + 3 + 4 + 1 + 2 + 3 + 4 + 1 + 2 + 3 + 4 +

G|-----------------------------------------------------------------|
D|-----------------------------------------------------------------|
A|-----------------------------0-5-3-----3-3-3-3-3-1---1-1-3-3-3-3-|
D|-0---0---0--0--2-3---3-3-3-5-------------------------------------|
   1 + 2 + Triplet 1 + 2 + 3 + 4 + 1 + 2 + 3 + 4 + 1 + 2 + 3 + 4 +

0:59
G|-----------------------------------------------------------------|
D|-----------------------------------------------------------------|
A|-----------------------------0-5-3-----3-3---3-3-1-----1-3-3-3---|
D|-0-------0--0--2-3-----3-3-5-------------------------3---------3-|
   1 + 2 + Triplet 1 + 2 + 3 + 4 + 1 + 2 + 3 + 4 + 1 + 2 + 3 + 4 +

G|-----------------------------------------------------------------|
D|-------------------------------------------5-3-------------------|
A|-----------------------------0-5-3---3-3-3-----3-1---1-1-3---3---|
D|-0-------0--0--2-3---3-3-3-5-----------------------------------3-|
   1 + 2 + Triplet 1 + 2 + 3 + 4 + 1 + 2 + 3 + 4 + 1 + 2 + 3 + 4 +

G|-----------------------------------------------------------------|
D|-----------------------------------------------------------------|
A|-----------------------------------------------------------------|
D|-0---------------------------------------------------------------|
   1 + 2 + 3 + 4 + 1 + 2 + 3 + 4 + 1 + 2 + 3 + 4 + 1 + 2 + 3 + 4 +

===============================================================

Turn The Other Way


G|-------------------------|-----------------------------------------------------------------|
D|-------------------------|-----------------------------------------------------------------|
A|-------------1---0-------|-----------------------------------------------------------------|
D|-0-----3-6-----------3-3-|-000---00000---0---00000---------000---00000---0---00000---0-1-1-|
   1 + 2 + 3 + 4 + 5 + 6 +   1 + 2 + 3 + 4 + 1 + 2 + 3 + 4 + 1 + 2 + 3 + 4 + 1 + 2 + 3 + 4 +

G|-----------------------------------------------------------------|
D|-----------------------------------------------------------------|
A|-----------------------------------------------------------------|
D|-000---00000---0---0-0-0---------000---00000---0---0-0-0---0-1-1-|
   1 + 2 + 3 + 4 + 1 + 2 + 3 + 4 + 1 + 2 + 3 + 4 + 1 + 2 + 3 + 4 +

G|-------------------------------------------------------------------|
D|o-----------------------------------------------------------------o|
A|o-----------------------------------------------------------------o|
D|--0-0---0-0-0---0---0-0-0---------0-0---0-0-0---0---0-0-0---0-1-1--|
    1 + 2 + 3 + 4 + 1 + 2 + 3 + 4 + 1 + 2 + 3 + 4 + 1 + 2 + 3 + 4 +

0:30
G|---------------------------------------------------------3-2-----|
D|-0-3-2---------------------------0-3-2--------h5---3---5-----3-2-|
A|-------3-1-----1---0-1-0-1-3-3---------3-1-----------------------|
D|-----------------------------------------------------------------|
   1 + 2 + 3 + 4 + 1 + 2 + 3 + 4 + 1 + 2 + 3 + 4 + 1 + 2 + 3 + 4 +

G|-----------------------------------------------------------------|
D|---3-2-----------------------------3-2--------h5---3---2-3-2-----|
A|-------3-1-----1---0-1-0-1-3-3---------3-1-------------------3---|
D|-0-------------------------------0-------------------------------|
   1 + 2 + 3 + 4 + 1 + 2 + 3 + 4 + 1 + 2 + 3 + 4 + 1 + 2 + 3 + 4 +

0:44
G|-----------------------------------------------------------------|
D|-----------------------------------------------------------------|
A|---------------------------------------------------------5-\-----|
D|-000---00000---0---00000---------000---00000---0---00000---------|
   1 + 2 + 3 + 4 + 1 + 2 + 3 + 4 + 1 + 2 + 3 + 4 + 1 + 2 + 3 + 4 +

G|-------------------------------------------------------------------|
D|o-----------------------------------------------------------------o|
A|o-----------------------------------------------------------------o|
D|--0-0---0-0-0---0---0-0-0---------0-0---0-0-0---0---0-0-0---0-1-1--|
    1 + 2 + 3 + 4 + 1 + 2 + 3 + 4 + 1 + 2 + 3 + 4 + 1 + 2 + 3 + 4 +

1:04
G|-----------------------------------|
D|-----------------------------------|
A|-------------------5-3-0-----------|
D|-0-----0-----0-----------6-5-3-0---|
   1 2 3 4 5 6 7 8 9 1 + 2 + 3 + 4 + 

1:07
G|-----------------------------------------------------------------|
D|-----------------------------------------------------------------|
A|-------------------------------------------------5-3-0-----------|
D|-0---0---0-0-0-0-3-0-0-5-0-0-6-0-1---1-1-1---1---------6-5-6-7-7-|
   1 + 2 + 3 + 4 + 1 + 2 + 3 + 4 + 1 + 2 + 3 + 4 + 1 + 2 + 3 + 4 +

G|-----------------------------------------------------------------|
D|-----------------------------------------------------------------|
A|-------------------------------------------------5-3-0-----------|
D|-0---0---0-0-0-0-3-0-0-5-0-0-6-0-1---1---1-1-1-1-------6-5-6-7-7-|
   1 + 2 + 3 + 4 + 1 + 2 + 3 + 4 + 1 + 2 + 3 + 4 + 1 + 2 + 3 + 4 +

1:17
G|-----------------------------------------------------------------|
D|-----------------------------------------------------------------|
A|-------------------------------------------------5-3-0-----------|
D|-0---0---0---0---3---0-5---0-6-0-1---1---1---1---------6-5-6-7-7-|
   1 + 2 + 3 + 4 + 1 + 2 + 3 + 4 + 1 + 2 + 3 + 4 + 1 + 2 + 3 + 4 +

G|-----------------------------------------------------------------|
D|-----------------------------------------------------------------|
A|-----------------------------------------------------------------|
D|-0---0---0---0---3-0-0-5-0-0-6-0-1---1---1---1---3-5-6-7-5-6-7-8-|
   1 + 2 + 3 + 4 + 1 + 2 + 3 + 4 + 1 + 2 + 3 + 4 + 1 + 2 + 3 + 4 +

1:28
G|-------------------------------------------------------------------|
D|o-----------------------------------------------------------------o|
A|o---------5---------------6---------------5-----------------------o|x8
D|--0-0---65------0---0---65--------0-0---65----0-0-0-0--------------|
    1 + 2 + 3 + 4 + 1 + 2 + 3 + 4 + 1 + 2 + 3 + 4 + 1 + 2 + 3 + 4 +

2:22
G|-------------------------------------------------------------------|
D|o-----------------------------------------------------------------o|
A|o-----------------------------------------------------------------o|
D|--0-0-------------0-0-------------0-0-------------0-0---0-1-1-3-3--|
    1 + 2 + 3 + 4 + 1 + 2 + 3 + 4 + 1 + 2 + 3 + 4 + 1 + 2 + 3 + 4 +

2:35
G|-----------------------------------------------------------------|
D|-----------------------------------------------------------------|
A|-----------------------------------------------------------------|
D|-3---3-3-3---3-1-3-1-3-3-5-5-7-7-5---5-5-5---5-5-0---0---0---0---|
   1 + 2 + 3 + 4 + 1 + 2 + 3 + 4 + 1 + 2 + 3 + 4 + 1 + 2 + 3 + 4 +

G|-----------------------------------------------------------------|
D|-----------------------------------------------------------------|
A|-----------------------------------------------------------------|
D|-1---1-1-1-1---1-1-1-1-1-1-1-1-1-3---3-3-3-3-3-3-4-4-4-4-4-4-4-4-|
   1 + 2 + 3 + 4 + 1 + 2 + 3 + 4 + 1 + 2 + 3 + 4 + 1 + 2 + 3 + 4 +

G|-----------------------------------------------------------------|
D|-----------------------------------------------------------------|
A|---------------------------------------------------------------0-|
D|-5---5-5-5-5-5-5-5-5-5-5-5-5-3-3-1-1-1-1-1-1-1-1-1-1-1-1-1-3-5---|
   1 + 2 + 3 + 4 + 1 + 2 + 3 + 4 + 1 + 2 + 3 + 4 + 1 + 2 + 3 + 4 +

G|-----------------------------------------------------------------|
D|-----------------------------------------------------------------|
A|-1---1---1---1---1---1---1---1-----------------------------------|
D|---------------------------------3---3---3---3---3-3-3-3-3---3-3-|
   1 + 2 + 3 + 4 + 1 + 2 + 3 + 4 + 1 + 2 + 3 + 4 + 1 + 2 + 3 + 4 +

2:59
G|------------------------------------------------------------------|
D|o-----------------------------------------------------------------|
A|o-----------------------------------------------------------------|
D|--5-5---------5---5-5-------------5-5---------5-5-5--6--5-1--3--6-|
    1 + 2 + 3 + 4 + 1 + 2 + 3 + 4 + 1 + 2 + 3 + 4 + Triplet Triplet

G|------------------------------------------------------------------|
D|-----------------------------------------------------------------o|
A|-----------------------------------------------------------------o|
D|-5-5---------5-5-5-5-------------5-5---------5-5-5--6--5-1--3--6--|
   1 + 2 + 3 + 4 + 1 + 2 + 3 + 4 + 1 + 2 + 3 + 4 + Triplet Triplet

3:23
G|-------------------------------------------------------------------|
D|o-----------------------------------------------------------------o|
A|o-----------------------------------------------------------------o|x4
D|--5-5---------5-5-5-5-------------5-5---------5-5-5--6--5-1--3--6--|
    1 + 2 + 3 + 4 + 1 + 2 + 3 + 4 + 1 + 2 + 3 + 4 + Triplet Triplet



3:51
G|-----------------------------------------------------------------|
D|-----------------------------------------------------------------|
A|-----------------3---3---3---3-3-1-----1-1-----1-3---3-3-3-------|
D|-0---0-0-0---0-0---------------------------3-5---------------3-2-|
   1 + 2 + 3 + 4 + 1 + 2 + 3 + 4 + 1 + 2 + 3 + 4 + 1 + 2 + 3 + 4 +

G|-----------------------------------------------------------------|
D|-----------------------------------------------------------------|
A|-----------------3---3---3---3-3-1---1---1---1---3---3-3-3-3-3-3-|
D|-0---0---0---0---------------------------------------------------|
   1 + 2 + 3 + 4 + 1 + 2 + 3 + 4 + 1 + 2 + 3 + 4 + 1 + 2 + 3 + 4 +

4:03
G|-----------------------------------------------------------------|
D|-----------------------------------------------------------------|
A|-----------------3---3-3-3---3-3-1---1-1-1-----1-3---3-3-3-------|
D|-0---0-0-0-0-0-0---------------------------3-5---------------3-2-|
   1 + 2 + 3 + 4 + 1 + 2 + 3 + 4 + 1 + 2 + 3 + 4 + 1 + 2 + 3 + 4 +

G|-----------------------------------------------------------------|
D|-----------------------------------------------------------------|
A|-----------------3---3---3-----3-1---1-1-1-----1-3---3---3---3---|
D|-0---0---0---0-------------3-5---------------5-------------------|
   1 + 2 + 3 + 4 + 1 + 2 + 3 + 4 + 1 + 2 + 3 + 4 + 1 + 2 + 3 + 4 +

4:15
G|-----------------------------------------------------------------|
D|-----------3-2---------------------------------------------------|
A|-5---5---5-----5-3---3-3-3---0---1---1-1-1-1---1-3---3---3---3---|
D|---------------------------------------------5-------------------|
   1 + 2 + 3 + 4 + 1 + 2 + 3 + 4 + 1 + 2 + 3 + 4 + 1 + 2 + 3 + 4 +

G|-----------------------------------------------------------------|
D|-----------------------------------------------------------------|
A|---------5---5-5-3---3---3-3---3-1---1-1-1-----1-3---3---3-------|
D|-0---0-----------------------5-------------3-5---------------3-2-|
   1 + 2 + 3 + 4 + 1 + 2 + 3 + 4 + 1 + 2 + 3 + 4 + 1 + 2 + 3 + 4 +

4:27
G|-----------------------------------------------------------------|
D|-------------------------------------------------------------3-2-|
A|-----------------3---3-3-3---3---1---1-1-1-----1-3---3-3-3-3-----|
D|-0---0-0-2-3-3-------------------------------3-------------------|
   1 + 2 + 3 + 4 + 1 + 2 + 3 + 4 + 1 + 2 + 3 + 4 + 1 + 2 + 3 + 4 +

G|-----------------------------------------------------------------|
D|-----------------------------------------------------------------|
A|-----------------3---3-3-3---3---1---1-1-1-----1-3---3---3-------|
D|-0---0-0-0-0-0-0---------------------------3-5---------------3-2-|
   1 + 2 + 3 + 4 + 1 + 2 + 3 + 4 + 1 + 2 + 3 + 4 + 1 + 2 + 3 + 4 +

4:38
G|-----------------------------------------------------------------|
D|-----------------------------------------------------------2-3-2-|
A|-------------0-0-3---3-3-3-----0-1-----1-1-----1-3---3-3-3-------|
D|-0---0-0-3-3-----------------5-------------3-5-------------------|
   1 + 2 + 3 + 4 + 1 + 2 + 3 + 4 + 1 + 2 + 3 + 4 + 1 + 2 + 3 + 4 +

G|-----------------------------------------------------------------|
D|---------2---3---------------------------------------------------|
A|-5---------------3-------3-----3-1---1-1-1-----1-3---3---3---3---|
D|---------------------------3-5-------------3-5-------------------|
   1 + 2 + 3 + 4 + 1 + 2 + 3 + 4 + 1 + 2 + 3 + 4 + 1 + 2 + 3 + 4 +

4:49
G|-----------------------------------------------------------------|
D|-----------------------------------------------------------------|
A|-------------1-5-3---3-3-3-3-3-3-1-----1-1-----1-3-----3-3---3---|
D|-0---0-0-0-0-------------------------------3-5-------------------|
   1 + 2 + 3 + 4 + 1 + 2 + 3 + 4 + 1 + 2 + 3 + 4 + 1 + 2 + 3 + 4 +

G|-----------------------------------------------------------------|
D|-------2-2---3---------------------------------------------------|
A|-5---5-----------3-----------3-5-1---1-1-1-----1-3---3---3-------|
D|-----------------------5-5-----------------3-5---------------3-2-|
   1 + 2 + 3 + 4 + 1 + 2 + 3 + 4 + 1 + 2 + 3 + 4 + 1 + 2 + 3 + 4 +

5:01
G|-----------------------------------------------------------------|
D|-----------------------------------------------------------------|
A|-----------------3---3---3-3-1-5-1---1-1-1-----1-3---3-3-3-3-----|
D|-0---0---0---0-----------------------------3-5---------------3-2-|
   1 + 2 + 3 + 4 + 1 + 2 + 3 + 4 + 1 + 2 + 3 + 4 + 1 + 2 + 3 + 4 +

G|-------------------------------------------------------------------|
D|o-----------------------------------------------------------------o|
A|o-----------------3---3---3---3---1---1---1---1---3---3---3---3---o|fade out repeat
D|--0---0---0---0----------------------------------------------------|
    1 + 2 + 3 + 4 + 1 + 2 + 3 + 4 + 1 + 2 + 3 + 4 + 1 + 2 + 3 + 4 +

===============================================================

Warmness On The Soul

1:54
G|-----------------------------------------------------------------|
D|-----------------------------------------------------------------|
A|---------------3-5-------5-5-----------------------------------2-|
D|-5-------5-5-----------------5-4-2---------------2-----2-2-4-5---|
   1 2 3 4 1 2 3 4 1 2 3 4 1 2 3 4 1 2 3 4 1 2 3 4 1 2 3 4 1 2 3 4

2:01
G|-----------------------------------------------------------------|
D|-------------------------------------------/-5---7-5-------------|
A|-3---------3-3-2-------------2-3-5-----5-5-----------5---5-5-5-2-|
D|-----------------5-------5---------------------------------------|
   1 2 3 4 1 2 3 4 1 2 3 4 1 2 3 4 1 2 3 4 1 2 3 4 1 2 3 4 1 2 3 4

2:10
G|-----------------------------------------------------------------|
D|---------------------------------5-------------------2-------7---|
A|-3-------3-3-2-3-5-------5-5-5-5-----5-------5---------2-5-----5-|
D|---------------------------------------5-------4-2---------------|
   1 2 3 4 1 2 3 4 1 2 3 4 1 2 3 4 1 2 3 4 1 2 3 4 1 2 3 4 1 2 3 4

2:18
G|-----------------------------------------------------------------|
D|-----------------------------------------------------------------|
A|-3-------3-3-2-3-5-----------------------------2-3-------3-3-2-0-|
D|-------------------------5---4---2-----------5-------------------|
   1 2 3 4 1 2 3 4 1 2 3 4 1 2 3 4 1 2 3 4 1 2 3 4 1 2 3 4 1 2 3 4

2:26
G|-----------------------------------------------------------------|
D|-----------------------------------------------------------------|
A|-------------2-3-5-----5-5-------------------0-2-3-------3-2-3-5-|
D|-5-------5-------------------5-4-2-------4-----------------------|
   1 2 3 4 1 2 3 4 1 2 3 4 1 2 3 4 1 2 3 4 1 2 3 4 1 2 3 4 1 2 3 4

2:34
G|-----------------------------------------------------------------|
D|---------------------------------2---2---2---2-0-----------------|
A|-------------2-3-5-----5---5-6-------------------3-------3-2-----|
D|-5-----5-5-5-----------------------2---2---------------------2-4-|
   1 2 3 4 1 2 3 4 1 2 3 4 1 2 3 4 1 2 3 4 1 2 3 4 1 2 3 4 1 2 3 4

2:43
G|-----------------------------------------------------------------|
D|-----------------------------------------------------------------|
A|-------------2-3-5---5-5---5-------------------2-3-------3-2-3-5-|
D|-5-------5-------------------5-4-2-----2-2-4-5-------------------|
   1 2 3 4 1 2 3 4 1 2 3 4 1 2 3 4 1 2 3 4 1 2 3 4 1 2 3 4 1 2 3 4

2:50
G|-----------------------------------------------------------------|
D|-----------------------------------------------------------------|
A|---------------3-5-----5-5---5---3-------3-------5-------5-------|
D|-5-----5-5---5-----------------------------------------------5-4-|
   1 2 3 4 1 2 3 4 1 2 3 4 1 2 3 4 1 2 3 4 1 2 3 4 1 2 3 4 1 2 3 4

2:59
G|-----------------------------------------------------------------|
D|---------2-------------------------------------------------------|
A|-------------------------------2-3-----3-3-2-3-4-5-----5-5-5-5-5-|
D|-2-----2---2-----2---2-4-5-4-2-----------------------------------|
   1 2 3 4 1 2 3 4 1 2 3 4 1 2 3 4 1 2 3 4 1 2 3 4 1 2 3 4 1 2 3 4

3:06
G|-----------------------------------------------------------------|
D|-----------------------------------------------------------------|
A|-------5-----5----------/5-----5-3-------3-3-2-3-5---------------|
D|-5-------5-----4-2---5-4-----5---------------------------5---4---|
   1 2 3 4 1 2 3 4 1 2 3 4 1 2 3 4 1 2 3 4 1 2 3 4 1 2 3 4 1 2 3 4

3:15
G|-----------------------------------------------------------------|
D|-----------------------------------------------------------------|
A|---------------2-3-----3-3-------------------2-3-5-----5-5-5-----|
D|-2-------2-5-2---------------2-4-5-----5-5-------------------5-4-|
   1 2 3 4 1 2 3 4 1 2 3 4 1 2 3 4 1 2 3 4 1 2 3 4 1 2 3 4 1 2 3 4

3:23
G|-----------------------------------------------------------4-----|
D|-----------------------------------------------------------------|
A|---------------2-3---3---3-2-3-5-------------2-3-5-----5-5---5-6-|
D|-2-------2-5-2-------------------5-------5-----------------------|
   1 2 3 4 1 2 3 4 1 2 3 4 1 2 3 4 1 2 3 4 1 2 3 4 1 2 3 4 1 2 3 4

3:31
G|-----------------------------------------------------------------|
D|---------4-5-4---------------------------------------------------|
A|-7-----7-------5-3-------3---2-3-------------2-3-5-----5---5-----|
D|---------------------------------5-----5-5-------------------5-4-|
   1 2 3 4 1 2 3 4 1 2 3 4 1 2 3 4 1 2 3 4 1 2 3 4 1 2 3 4 1 2 3 4

3:39
G|-----------------------------------------------------------------|
D|-----------------------------------------------------------------|
A|---------------2-3-----3-3-------------------2-3-5-----5---5-5-5-|
D|-2---------4-5---------------2-4-5-----5-5-----------------------|
   1 2 3 4 1 2 3 4 1 2 3 4 1 2 3 4 1 2 3 4 1 2 3 4 1 2 3 4 1 2 3 4

3:47
G|-----------------------------------------------------------------|
D|-----------------------------------------------------------------|
A|-3-----3-3-----3-5---------------------------------------2-0---2-|
D|-------------------0-------------2---------2-2-----2-4-5-----5---|
   1 2 3 4 1 2 3 4 1 2 3 4 1 2 3 4 1 2 3 4 1 2 3 4 1 2 3 4 1 2 3 4

3:55
G|-----------------------------------------------------------------|
D|-----------------------------------------------------9-------7---|
A|-3-----3-3---2-3-5-----5-5---5-5-----5-------5-----------5-------|
D|---------------------------------5-----5-4-----4-2---------------|
   1 2 3 4 1 2 3 4 1 2 3 4 1 2 3 4 1 2 3 4 1 2 3 4 1 2 3 4 1 2 3 4

4:04
G|-----------------------------------------------------------------|
D|-----------------------------------------------------------------|
A|-3---3-3-3---2-3-5-----------------------------------------------|
D|-------------------------5---4---2-------------------------------|
   1 2 3 4 1 2 3 4 1 2 3 4 1 2 3 4 1 2 3 4 1 2 3 4 1 2 3 4 1 2 3 4

===============================================================

The Art Of Subconscious Illusion

0:04
G|-----------------------------------------------------------------|
D|-----------------------------------------------------------------|
A|-3-3--33-3-33-3--------------3-5-6-66-66-6-66-66-1-11-11-1-6-5-5-|
D|---------------5-6-6---6-6---------------------------------------|
   1 + 2 + 3 + 4 + 1 + 2 + 3 + 4 + 1 + 2 + 3 + 4 + 1 + 2 + 3 + 4 +

G|-----------------------------------------------------------------|
D|-----------------------------------------------------------------|
A|-3-33-33-3-33-3--------------------------------------------------|
D|---------------5-6-6---6-6-6-----5-5-5-5-5-5-5-5-5---------------|
   1 + 2 + 3 + 4 + 1 + 2 + 3 + 4 + 1 + 2 + 3 + 4 + 1 + 2 + 3 + 4 +

0:13
G|-------------------------------------------------------------------|
D|o-----------------------------------------------------------------o|
A|o---------------------------5-4-----------------------------------o|x4
D|--5-3-5-6-5-3-0-3-5-3-5-6-5-------5-3-5-6-5-3-0-3-1---1---3---3----|
    1 + 2 + 3 + 4 + 1 + 2 + 3 + 4 + 1 + 2 + 3 + 4 + 1 + 2 + 3 + 4 +

0:32
G|-----------------------------------------------------------------|
D|-----------------------------------------------------------------|
A|-----------------------------------------------------------------|
D|-0---------------1-------3-------0-0-----0-0-----1-1---1-3-3-----|
   1 + 2 + 3 + 4 + 1 + 2 + 3 + 4 + 1 + 2 + 3 + 4 + 1 + 2 + 3 + 4 +

G|-----------------------------------------------------------------|
D|-----------------------------------------------------------------|
A|-----------------------------------------------------------------|
D|-0---------------1---1---3---3---0---0-0-0---0---1---1---3-3-3---|
   1 + 2 + 3 + 4 + 1 + 2 + 3 + 4 + 1 + 2 + 3 + 4 + 1 + 2 + 3 + 4 +

0:41
G|-----------------------------------------------------------------|
D|-----------------------------------------------------------------|
A|-----------------------------------------------------------------|
D|-0-0-0-0-0-0-0-0-1-1-1-1-3-3-3-3-0-0-0-0-0-0-0-0-1-1-1-1-3-3-3-3-|
   1 + 2 + 3 + 4 + 1 + 2 + 3 + 4 + 1 + 2 + 3 + 4 + 1 + 2 + 3 + 4 +

G|-----------------------------------------------------------------|
D|-----------------------------------------------------------------|
A|-----------------------------------------------------------------|
D|-0-0-0-0-0-0-0-0-1-1-1-1-3-3-3-3-0-0-0-0-0-0-0-0-1-1-1-1-3-------|
   1 + 2 + 3 + 4 + 1 + 2 + 3 + 4 + 1 + 2 + 3 + 4 + 1 + 2 + 3 + 4 +

0:50
G|-----------------------------------------------------------------|
D|-----------------------------------------------------------------|
A|---------------------------------------------------1-0-----------|
D|-0---------------0---------------0---------------0-----5-3-3-1-1-|
   1 + 2 + 3 + 4 + 1 + 2 + 3 + 4 + 1 + 2 + 3 + 4 + 1 + 2 + 3 + 4 +

G|-----------------------------------------------------------------|
D|-----------------------------------------------------------------|
A|---------------------------------------------------1-0-----------|
D|-0---------------0-----0---0---0-0---------------0-----5-3-3-1-1-|
   1 + 2 + 3 + 4 + 1 + 2 + 3 + 4 + 1 + 2 + 3 + 4 + 1 + 2 + 3 + 4 +

1:00
G|-------------------------------------------------------------------|
D|o-----------------------------------------------------------------o|
A|o-----------------------------3-1-----------------------------0---o|
D|--0---0-0---0-1---0---0-0---0-----0---0-0---0-1---0---3---5--------|
    1 + 2 + 3 + 4 + 1 + 2 + 3 + 4 + 1 + 2 + 3 + 4 + 1 + 2 + 3 + 4 +

1:09
G|-----------------------------------------------------------------|
D|-----------------------------------------------------------------|
A|-----------------------------3-1-----------------------------0---|
D|-0-----0---0-1---0-----0---0-----0-0---0---0-1---0---3---5-------|
   1 + 2 + 3 + 4 + 1 + 2 + 3 + 4 + 1 + 2 + 3 + 4 + 1 + 2 + 3 + 4 +

G|-----------------------------------------------------------------|
D|-----------------------------------------------------------------|
A|-----------------------------3-1-----------------------------0---|
D|-0-0---0---0-1---0-0---0---0-----0-0---0---0-1---0---3---5-------|
   1 + 2 + 3 + 4 + 1 + 2 + 3 + 4 + 1 + 2 + 3 + 4 + 1 + 2 + 3 + 4 +

1:19
G|-----------------------------------------------------------------|
D|-----------------------------------------------------------------|
A|-----------------------------------------------------------------|
D|-0---------------0---------------0---------------0---------------|
   1 + 2 + 3 + 4 + 1 + 2 + 3 + 4 + 1 + 2 + 3 + 4 + 1 + 2 + 3 + 4 +

G|-------------------------------------------------------------------|
D|o-----------------------------------------------------------------o|
A|o-------------0---------------0---------------0---------------0---o|
D|--0---3---5-------0---3---5-------0---3---5-------0---3---5--------|
    1 + 2 + 3 + 4 + 1 + 2 + 3 + 4 + 1 + 2 + 3 + 4 + 1 + 2 + 3 + 4 +

1:33
G|-----------------------------------------------------------------|
D|-----------------------------------------------------------------|
A|-----------------------------------------------------------------|
D|-0---------------1-------3---3---0-0-----0-0-0---1-1-----3-3-3---|
   1 + 2 + 3 + 4 + 1 + 2 + 3 + 4 + 1 + 2 + 3 + 4 + 1 + 2 + 3 + 4 +

G|-----------------------------------------------------------------|
D|-----------------------------------------------------------------|
A|-----------------------------------------------------------------|
D|-0-0-0-0-0-0-0-0-1-1-1-1-3-3-3-3-0-0-0-0-0-0-0-0-1-1-1-1-3-3-3-3-|
   1 + 2 + 3 + 4 + 1 + 2 + 3 + 4 + 1 + 2 + 3 + 4 + 1 + 2 + 3 + 4 +

1:42
G|-----------------------------------------------------------------|
D|-----------------------------------------------------------------|
A|---------3h5-------------3h5-6-----------3h5---------------------|
D|-0-----------3---0-----0---------0---0-0-----3---1---1---3---3---|
   1 + 2 + 3 + 4 + 1 + 2 + 3 + 4 + 1 + 2 + 3 + 4 + 1 + 2 + 3 + 4 +

G|-----------------------------------------------------------------|
D|-----------------------------------------------------------------|
A|---------3h5-------------3h5-6-----------3h5---------------------|
D|-0-----0-----3---0-----0---------0---0-0-----3---1---1---3---3---|
   1 + 2 + 3 + 4 + 1 + 2 + 3 + 4 + 1 + 2 + 3 + 4 + 1 + 2 + 3 + 4 +

G|-----------------------------------------------------------------|
D|-----------------------------------------------------------------|
A|---------3h5-------------3h5-6-----------3h5---------------------|
D|-0-----0-----3---0---0-0---------0---0-0-----3---1---1---3---3---|
   1 + 2 + 3 + 4 + 1 + 2 + 3 + 4 + 1 + 2 + 3 + 4 + 1 + 2 + 3 + 4 +

G|-----------------------------------------------------------------|
D|-----------------------------------------------------------------|
A|---------3h5-------------3h5-6-----------3h5---------------------|
D|-0---0-0-----3---0---0-0---------0---0-0-----3---1---1---3---3---|
   1 + 2 + 3 + 4 + 1 + 2 + 3 + 4 + 1 + 2 + 3 + 4 + 1 + 2 + 3 + 4 +

2:02
G|---------------------------------|-----------------------------------|
D|---------------------------------|o---------------------------------o|
A|---------------------------------|o---------------------------------o|
D|-0---------------6---------------|--5-3-5-6-5-3-0-3-5-3-5-6-5-3-0-3--|
   1 + 2 + 3 + 4 + 1 + 2 + 3 + 4 +    1 + 2 + 3 + 4 + 1 + 2 + 3 + 4 +

2:09
G|-----------------------------------------------------------------|
D|-----------------------------------------------------------------|
A|-----------------------------------------------------------------|
D|-0-------------------------------6-----------------------6-------|
   1 + 2 + 3 + 4 + 1 + 2 + 3 + 4 + 1 + 2 + 3 + 4 + 1 + 2 + 3 + 4 +

G|-----------------------------------------------------------------|
D|-----------------------------------------------------------------|
A|-----------------------------------------------------------------|
D|-5-------5---5---5---5---5---5---5---5---5---5---5---5---5---5---|
   1 + 2 + 3 + 4 + 1 + 2 + 3 + 4 + 1 + 2 + 3 + 4 + 1 + 2 + 3 + 4 +

2:18
G|-----------------------------------------------------------------|
D|-----------------------------------------------------------------|
A|-----------------------------------------------------------------|
D|-0---------------0---0---0---0---6-------6---6-------6---6---6---|
   1 + 2 + 3 + 4 + 1 + 2 + 3 + 4 + 1 + 2 + 3 + 4 + 1 + 2 + 3 + 4 +

G|-----------------------------------------------------------------|
D|-----------------------------------------------------------------|
A|-------------------------------------5---6---5---3---1---0-------|
D|-5-------5---5---5---5---5---5---5---------------------------5---|
   1 + 2 + 3 + 4 + 1 + 2 + 3 + 4 + 1 + 2 + 3 + 4 + 1 + 2 + 3 + 4 +

2:27
G|-----------------------------------------------------------------|
D|-----------------------------------------------------------------|
A|---------------------------------------------6-------------------|
D|-0-------------------------------6-------6-----------8---6---6---|
   1 + 2 + 3 + 4 + 1 + 2 + 3 + 4 + 1 + 2 + 3 + 4 + 1 + 2 + 3 + 4 +

G|-----------------------------------------------------------------|
D|-----------------------------------------------------------------|
A|-----------------------------------------------------------------|
D|-5-------5---5---5---5---5---5---5---3---5---3---5---3---1---0---|
   1 + 2 + 3 + 4 + 1 + 2 + 3 + 4 + 1 + 2 + 3 + 4 + 1 + 2 + 3 + 4 +

2:36
G|-----------------------------------------------------------------|
D|-----------------------------------------------------------------|
A|---------------------------------------------------------6-------|
D|-0---------------0---0---0---0---6-------6---6-------6-------6---|
   1 + 2 + 3 + 4 + 1 + 2 + 3 + 4 + 1 + 2 + 3 + 4 + 1 + 2 + 3 + 4 +

G|-----------------------------------------------------------------|
D|-----------------------------------------------------------------|
A|-------------------------------------------------1---3---5---6---|
D|-5-------5---5---5---5---5---5---5---5---5---5-------------------|
   1 + 2 + 3 + 4 + 1 + 2 + 3 + 4 + 1 + 2 + 3 + 4 + 1 + 2 + 3 + 4 +

2:45
G|-----------------------------------------------------------------|
D|-------------------------------------6---6-----------------------|
A|---------------------------------------------6-------6-----------|
D|-0-----------------------------------------------6-------6---6---|
   1 + 2 + 3 + 4 + 1 + 2 + 3 + 4 + 1 + 2 + 3 + 4 + 1 + 2 + 3 + 4 +

G|-----------------------------------------------------------------|
D|-----------------------------------------------------------------|
A|-----------------------------------------------------------------|
D|-5-------5---5---5---5---5---5---5---3---5---3---5---3---5---3---|
   1 + 2 + 3 + 4 + 1 + 2 + 3 + 4 + 1 + 2 + 3 + 4 + 1 + 2 + 3 + 4 +

2:54
G|-----------------------------------------------------------------|
D|-----------------------------------------------------------------|
A|-----------------------------------------------------6-----------|
D|-0---------------0---0---3---5---6-------6---6---6-------6---5---|
   1 + 2 + 3 + 4 + 1 + 2 + 3 + 4 + 1 + 2 + 3 + 4 + 1 + 2 + 3 + 4 +

G|-----------------------------------------------------------------|
D|-----------------------------------------------------------------|
A|-----------------------------------------------------------------|
D|-5-------5---5---5---5---5---3---5---5---5---5---5---5---5---3---|
   1 + 2 + 3 + 4 + 1 + 2 + 3 + 4 + 1 + 2 + 3 + 4 + 1 + 2 + 3 + 4 +

3:02
G|-----------------------------------------------------------------|
D|-----------------------------------------------------------------|
A|-----------------------------------------------------5---6-------|
D|-0-------0-------0-------0-------6-------6-------6-----------6---|
   1 + 2 + 3 + 4 + 1 + 2 + 3 + 4 + 1 + 2 + 3 + 4 + 1 + 2 + 3 + 4 +

G|-----------------------------------------------------------------|
D|-----------------------------------------------------------------|
A|-----------------------------------------------------------------|
D|-5-------5---5---5---5---5---5---5---5---5---5---5---5---5---5---|
   1 + 2 + 3 + 4 + 1 + 2 + 3 + 4 + 1 + 2 + 3 + 4 + 1 + 2 + 3 + 4 +

3:10
G|-----------------------------------------------------------------|
D|-----------------------------------------------------------------|
A|---------------------------------------------6-------6-----------|
D|-0-------0---0---0--0--0-0--0--0-6-------6-------6-------6---6---|
   1 + 2 + 3 + 4 + Triplet Triplet 1 + 2 + 3 + 4 + 1 + 2 + 3 + 4 +

G|-----------------------------------------------------------------|
D|---------------------------------5---5---5---5---5---5---5---\---|
A|-----------------------------------------------------------------|
D|-5-------5---5---5---5---5---5-----------------------------------|
   1 + 2 + 3 + 4 + 1 + 2 + 3 + 4 + 1 + 2 + 3 + 4 + 1 + 2 + 3 + 4 +

3:18
G|-----------------------------------------------------------------|
D|-----------------------------------------------------------------|
A|-----------------------------------------------------6-----------|
D|-0-------0-------0-------0---0---6---6---6---6---6-------6---6---|
   1 + 2 + 3 + 4 + 1 + 2 + 3 + 4 + 1 + 2 + 3 + 4 + 1 + 2 + 3 + 4 +

G|-----------------------------------------------------------------|
D|-----------------------------------------------------------------|
A|-----------------------------------------------------------------|
D|-5-------5---5---5---5---5---3---5---6---5---3---5---3---1---3---|
   1 + 2 + 3 + 4 + 1 + 2 + 3 + 4 + 1 + 2 + 3 + 4 + 1 + 2 + 3 + 4 +

3:27
G|-----------------------------------------------------------------|
D|-----------------------------------------------------------------|
A|-----------------------------------------------------6-----------|
D|-0-------------------------------6---------------6-------6-------|
   1 + 2 + 3 + 4 + 1 + 2 + 3 + 4 + 1 + 2 + 3 + 4 + 1 + 2 + 3 + 4 +

G|-----------------------------------------------------------------|
D|-----------------------------------------------------------------| B=Bend 
A|-----------------------------------------------------------------| R=ReleaseBend
D|-5-------b-------r-------b-------r-------b-------r-------b-------|
   1 + 2 + 3 + 4 + 1 + 2 + 3 + 4 + 1 + 2 + 3 + 4 + 1 + 2 + 3 + 4 +

===============================================================

We Come Out At Night

0:11
G|-------------------------------------------------------------------|
D|o-----------------------------------------------------------------o|
A|o-----------------------------3-3-------------5-------------------o|x6
D|--0-0-------------1-1-0-3-3-0-----1-1-0-0--------------------------|
    1 + 2 + 3 + 4 + 1 + 2 + 3 + 4 + 1 + 2 + 3 + 4 + 1 + 2 + 3 + 4 +

0:40
G|-----------------------------------------------------------------|
D|-----------------------------------------------------------------|
A|-----------------------------------------------------------------|
D|-1---------------4-----3-----1---0-------------------------------|
   1 + 2 + 3 + 4 + 1 + 2 + 3 + 4 + 1 + 2 + 3 + 4 + 1 + 2 + 3 + 4 +

G|-----------------------------------------------------------------|
D|-----------------------------------------------------------------|
A|---------------------------------------------0---1---------------|
D|-3---------------6-----4-----3---4-------------------------------|
   1 + 2 + 3 + 4 + 1 + 2 + 3 + 4 + 1 + 2 + 3 + 4 + 1 + 2 + 3 + 4 +

G|-----------------------------------------------------------------|
D|-----------------------------------------------------------------|
A|-----------------------------------------------------------------|
D|-1-------1-1-----4-----3-----1---0-------------------------------|
   1 + 2 + 3 + 4 + 1 + 2 + 3 + 4 + 1 + 2 + 3 + 4 + 1 + 2 + 3 + 4 +

G|---------------------------------|
D|---------------------------------|
A|---------------------------------|
D|-3---------------6-----4-----3---|
   1 + 2 + 3 + 4 + 1 + 2 + 3 + 4 + 

0:57
G|-------------------------------------------------------------------|
D|o-----------------------------------------------------------------o|
A|o-----------------------------------------------------------------o|x4
D|--1-1-------------1-1-------------0-0-------------0-0--------------|
    1 + 2 + 3 + 4 + 1 + 2 + 3 + 4 + 1 + 2 + 3 + 4 + 1 + 2 + 3 + 4 +

1:18
G|-----------------------------------------------------------------|
D|-----------------------------------------------------------------|
A|-1-------------/-3-------0---------------------------------------|
D|---------------------------------0-0-------------0-0-------------|
   1 + 2 + 3 + 4 + 1 + 2 + 3 + 4 + 1 + 2 + 3 + 4 + 1 + 2 + 3 + 4 +

G|-------------------------------------------------------------------|
D|o-----------------------------------------------------------------o|
A|o-----------------1-----3-----0-----------------------------------o|x3
D|--0-0-----------------------------0-0-------------0-0--------------|
    1 + 2 + 3 + 4 + 1 + 2 + 3 + 4 + 1 + 2 + 3 + 4 + 1 + 2 + 3 + 4 +

G|-------------------------------------------------------------------------------------------------|
D|-------------------------------------------------------------------------------------------------|
A|-----------------1-----3-----0-------------------------------------------------------------------|
D|-0-0-----------------------------0---------------------------------------------------------------|
   1 + 2 + 3 + 4 + 1 + 2 + 3 + 4 + 1 + 2 + 3 + 4 + 1 + 2 + 3 + 4 + 1 + 2 + 3 + 4 + 1 + 2 + 3 + 4 +

1:45
G|-----------------------------------------------------------------|
D|-----------------------------------------------------------------|
A|-----------------3---3-3-3-3-3-3---------------------------------|
D|-0-------------------------------3---3-3-3-3-2-3-5-3-2-3-5-3-2-3-|
   1 + 2 + 3 + 4 + 1 + 2 + 3 + 4 + 1 + 2 + 3 + 4 + 1 + 2 + 3 + 4 +

G|-----------------------------------------------------------------|
D|-----------------------------------------------------------------|
A|-----------------3---3-3-3-3-3-3---------------------------------|
D|-0---0-0-0-0-0-0-----------------3---3-3-3-3-3-3-333---222---333-|
   1 + 2 + 3 + 4 + 1 + 2 + 3 + 4 + 1 + 2 + 3 + 4 + 1 + 2 + 3 + 4 +

G|-----------------------------------------------------------------|
D|-----------------------------------------------------------------|
A|-----------------3---3-3-3-3-3-3---------------------------------|
D|-0---0-0-0-0-0-0-----------------3---3-3-3-3-2-3-5-3-2-3-5-3-2-3-|
   1 + 2 + 3 + 4 + 1 + 2 + 3 + 4 + 1 + 2 + 3 + 4 + 1 + 2 + 3 + 4 +

G|-----------------------------------------------------------------|
D|-----------------------------------------------------------------|
A|-----------------3---3-3-3-3-3-3---------------------------------|
D|-0---0-0-0-0-0-0-----------------3---3-3-3-3-3-3-333---222---333-|
   1 + 2 + 3 + 4 + 1 + 2 + 3 + 4 + 1 + 2 + 3 + 4 + 1 + 2 + 3 + 4 +

2:07
G|-----------------------------------------------------------------|
D|-----------------------------------------------------------------|
A|-----------------------------------------------------------------|
D|-0-------------1-0-------------0-1-----------------------------1-|
   1 + 2 + 3 + 4 + 1 + 2 + 3 + 4 + 1 + 2 + 3 + 4 + 1 + 2 + 3 + 4 +

G|-----------------------------------------------------------------|
D|-----------------------------------------------------------------|
A|-----------------------------------------------------------------|
D|-0-------------1-0-------------0-1-------------------1---1---1-1-|
   1 + 2 + 3 + 4 + 1 + 2 + 3 + 4 + 1 + 2 + 3 + 4 + 1 + 2 + 3 + 4 +

2:19
G|-------------------------------------------------------------------|
D|o-----------------------------------------------------------------o|
A|o-------------------/5--------------/6--------------/6----7--6----o|
D|--0--0--6-5--6--1-0-----6-5--6--0-1-----7-6--7--2-1-----6-------1--|
    Triplet Triplet Triplet Triplet Triplet Triplet Triplet Triplet

2:31
G|-------------------------------------------------------------------|
D|o-----------------------------------------------------------------o|
A|o-----------------------------------------------------------------o|x4
D|--000---000---000-----------------111---111---111------------------|
    1 + 2 + 3 + 4 + 1 + 2 + 3 + 4 + 1 + 2 + 3 + 4 + 1 + 2 + 3 + 4 +

2:53
G|-------------------------------------------------------------------|
D|o-----------------------------------------------------------------o|
A|o---------------------------------------------------------0-2-4-5-o|
D|--0-0---0-1---4---1-0---0-1-3-4---0-0---0-1---4---1-0---0----------|
    1 + 2 + 3 + 4 + 1 + 2 + 3 + 4 + 1 + 2 + 3 + 4 + 1 + 2 + 3 + 4 +

3:05
G|-------------------------------------------------------------------|
D|o-----------------------------------------------------------------o|
A|o-------------------------0-2-4-5-------------------------0-2-4-5-o|
D|--0-0-0-0---0---0-0-0-0-0---------0-0-0-0---0---0-0-0-0-0----------|
    1 + 2 + 3 + 4 + 1 + 2 + 3 + 4 + 1 + 2 + 3 + 4 + 1 + 2 + 3 + 4 +

G|-----------------------------------------------------------------|
D|-----------------------------------------------------------------|
A|-----------------------------------------------------------------|
D|-0---------------------------------------------------------------|
   1 + 2 + 3 + 4 + 1 + 2 + 3 + 4 + 1 + 2 + 3 + 4 + 1 + 2 + 3 + 4 +

Rest

3:37
G|-----------------|------------------------------------------------------------------|
D|-----------------|o-----------------------------------------------------------------|
A|-----------------|o-----------------3---3-3-3-3-3-3---------------------------------|
D|-333---222---333-|--0---0-0-0-0-0-0-----------------3---3-3-3-3-2-3-5-3-2-3-5-3-2-3-|
   1 + 2 + 3 + 4 +    1 + 2 + 3 + 4 + 1 + 2 + 3 + 4 + 1 + 2 + 3 + 4 + 1 + 2 + 3 + 4 +

G|------------------------------------------------------------------|
D|-----------------------------------------------------------------o|
A|-----------------3---3-3-3-3-3-3---------------------------------o|
D|-0---0-0-0-0-0-0-----------------3---3-3-3-3-3-3-333---222---333--|
   1 + 2 + 3 + 4 + 1 + 2 + 3 + 4 + 1 + 2 + 3 + 4 + 1 + 2 + 3 + 4 +

================================================================

Lips Of Deceit

0:19
G|-----------------------------------------------------------------|
D|-----------------------------------------------------------------|
A|-5---------0/3---1-------------7-8-------------8-7-------3-----7-|
D|-----------------------------------------------------------------|
   1 + 2 + 3 + 4 + 1 + 2 + 3 + 4 + 1 + 2 + 3 + 4 + 1 + 2 + 3 + 4 +

G|-----------------------------------------------------------------|
D|-----------------------------------------------------------------|
A|-5---------7-8-7-1-------1---0-------------------3---------1-3-1-|
D|-------------------------------5-3-----------3-------------------|
   1 + 2 + 3 + 4 + 1 + 2 + 3 + 4 + 1 + 2 + 3 + 4 + 1 + 2 + 3 + 4 +

G|-----------------------------------------------------------------|
D|-----------------------------------------------------------------|
A|-0-0-0-0-0-0-0-0-0-0-0-0-0-0-0-0-0-0-0-0-0-0-0-0-0-0-0-0-0-0-0-0-|
D|-----------------------------------------------------------------|
   1 + 2 + 3 + 4 + 1 + 2 + 3 + 4 + 1 + 2 + 3 + 4 + 1 + 2 + 3 + 4 +

0:46
G|-----------------------------------------------------------------|
D|-------------------------------2-3-3-3-3-3-3-3-3-2---2---2-3-2---|
A|-5---5-5-5-5-5-0-1---1-1-1-1-1-------------------------3-------3-|
D|-----------------------------------------------------------------|
   1 + 2 + 3 + 4 + 1 + 2 + 3 + 4 + 1 + 2 + 3 + 4 + 1 + 2 + 3 + 4 +

G|-----------------------------------------------------------------|
D|-----------1-2-3-------------------------------------------------|
A|-5-----5-5-------1---1-1-1-1-0-------------------3-----3-3---3---|
D|-------------------------------5-3-----3-3-3---3-----------------|
   1 + 2 + 3 + 4 + 1 + 2 + 3 + 4 + 1 + 2 + 3 + 4 + 1 + 2 + 3 + 4 +

G|-----------------------------------------------------------------|
D|-----------------------------------------------------------------|
A|-0-0-0-0-0-0-0-0-0-0-0-0-0-0-0-0-0-------------------------------|
D|-----------------------------------------------------------------|
   1 + 2 + 3 + 4 + 1 + 2 + 3 + 4 + 1 + 2 + 3 + 4 + 1 + 2 + 3 + 4 +

rest

1:18
G|-----------------------------------------------------------------|
D|-----------------------------------------------------------------|
A|-------------3-3-1-1-1-1-1-1-0-0---------3-------0-0-0-0-0-0-0---|
D|-0-0-0-0-0-0---------------------5-5-5-5-----5-----------------5-|
   1 + 2 + 3 + 4 + 1 + 2 + 3 + 4 + 1 + 2 + 3 + 4 + 1 + 2 + 3 + 4 +

G|-----------------------------------------------------------------|
D|-----------------------------------------------------------------|
A|-------------3-3-1-1-1-1-1-1-0-0---------3---4---5---5---5---5---|
D|-0-0-0-0-0-0---------------------5-5-5-5-------------------------|
   1 + 2 + 3 + 4 + 1 + 2 + 3 + 4 + 1 + 2 + 3 + 4 + 1 + 2 + 3 + 4 +

1:28
G|-----------------------------------------------------------------|
D|-----------------------------------------------------------------|
A|-------------3---1---1---1---0-----------3-------0---0---0---0---|
D|-0---0---0-----------------------5---5-------5-----------------5-|
   1 + 2 + 3 + 4 + 1 + 2 + 3 + 4 + 1 + 2 + 3 + 4 + 1 + 2 + 3 + 4 +

G|-----------------------------------------------------------------|
D|-----------------------------------------------------------------|
A|-------------3---1---1---1---0-----------3---4---5---5---5---5---|
D|-0---0---0-----------------------5---5---------------------------|
   1 + 2 + 3 + 4 + 1 + 2 + 3 + 4 + 1 + 2 + 3 + 4 + 1 + 2 + 3 + 4 +

1:37
G|-----------------------------------------------------------------|
D|-----------------------------------------------------------------|
A|-------------3---1---1---1---0-----------3-------0---0---0---0---|
D|-0---0---0-----------------------5---5-------5-----------------5-|
   1 + 2 + 3 + 4 + 1 + 2 + 3 + 4 + 1 + 2 + 3 + 4 + 1 + 2 + 3 + 4 +

G|-------------------------------------------------|
D|-------------------------------------------------|
A|-------------3---1---1---1---0-----------3---4---|
D|-0---0---0-----------------------5---5-----------|
   1 + 2 + 3 + 4 + 1 + 2 + 3 + 4 + 1 + 2 + 3 + 4 +

Triplets
G|-------------------------------------|
D|-7--5-----5--------------------------|
A|-------8-----8--7--5--7--8--7--5--3--|
D|-------------------------------------|
   1  2  3  1  2  3  1  2  3  1  2  3

1:48
G|-----------------------------------------------------------------|
D|-----------------------------------------------------------------|
A|-----------7-7-7h8-8-8-8-8-0-0-0h1-1-1-1-1-1-1-1---------4-4-4-4-|
D|-0-0-0-0-0---------------------------------------3-3-3-3---------|
   1 + 2 + 3 + 4 + 1 + 2 + 3 + 4 + 1 + 2 + 3 + 4 + 1 + 2 + 3 + 4 +

G|-----------------------------------------------------------------|
D|---------------------------------5-5-5-5-5-5-5-5---------2-3-2---|
A|-----------7-7-7h8-8-8-8-8-8-8-8-----------------3-3-3-3-------3-|
D|-0-0-0-0-0-------------------------------------------------------|
   1 + 2 + 3 + 4 + 1 + 2 + 3 + 4 + 1 + 2 + 3 + 4 + 1 + 2 + 3 + 4 +

1:59
G|-----------------------------------------------------------------|
D|-----------------------------------------------------------------|
A|-----------7-7-7h8-8-8-8-8-0-0-0h1-1-1-1-1-1-1-1---------4-4-4-4-|
D|-0-0-0-0-0---------------------------------------3-3-3-3---------|
   1 + 2 + 3 + 4 + 1 + 2 + 3 + 4 + 1 + 2 + 3 + 4 + 1 + 2 + 3 + 4 +

G|-----------------------------------------------------------------|
D|---------------------------------5---5-5---5-5-5---------2-3-2---|
A|-----------7-7-7h8-8-8-8-8-8-8-8-----------------3-3-3---------3-|
D|-0-0-0-0-0-------------------------------------------------------|
   1 + 2 + 3 + 4 + 1 + 2 + 3 + 4 + 1 + 2 + 3 + 4 + 1 + 2 + 3 + 4 +

2:09
G|-----------------------------------------------------------------|
D|-----------------------------------------------------------------|
A|-----------7-7-7h8-8-8-8-8-0-0-0h1-1-1-1-1-1-1-1---------4-4-4-4-|
D|-0-0-0-0-0---------------------------------------3-3-3-3---------|
   1 + 2 + 3 + 4 + 1 + 2 + 3 + 4 + 1 + 2 + 3 + 4 + 1 + 2 + 3 + 4 +

G|-----------------------------------------------------------------|
D|---------------------------------5-5-5-5-5-5-5-5---------2-3-2---|
A|-----------7-7-7h8-8-8-8-8-8-8-8-----------------3-3-3-3-------3-|
D|-0-0-0-0-0-------------------------------------------------------|
   1 + 2 + 3 + 4 + 1 + 2 + 3 + 4 + 1 + 2 + 3 + 4 + 1 + 2 + 3 + 4 +

2:20
G|-----------------------------------------------------------------|
D|-----------------------------------------------------------------|
A|-----------7-7-7h8-8-8-8-8-0-0-0h1-1-1-1-1-1-1-1---------4-4-4-4-|
D|-0-0-0-0-0---------------------------------------3-3-3-3---------|
   1 + 2 + 3 + 4 + 1 + 2 + 3 + 4 + 1 + 2 + 3 + 4 + 1 + 2 + 3 + 4 +

G|-----------------------------------------------------------------|
D|---------------------------------5-5-5-5-5-5-5-5-----------------|
A|-----------7-7-7h8-8-8-8-8-8-8-8-----------------3-3-3-3---------|
D|-0-0-0-0-0-------------------------------------------------3-3-3-|
   1 + 2 + 3 + 4 + 1 + 2 + 3 + 4 + 1 + 2 + 3 + 4 + 1 + 2 + 3 + 4 +

2:30
G|-----------------------------------------------------------------|
D|-----------------------------------------------------------------|
A|-------------3---1---1-1-1-1-1-5-3---3-3-3-3-3-4-5---5-5-5-5-----|
D|-0---0-0-0-0-------------------------------------------------5-3-|
   1 + 2 + 3 + 4 + 1 + 2 + 3 + 4 + 1 + 2 + 3 + 4 + 1 + 2 + 3 + 4 +

G|-----------------------------------------------------------------|
D|-----------------------------------------------------------------|
A|-------------3---1---1-1-1-1-1-5-3---3-3-3-3-5-7-5---5-5-5-5-----|
D|-0---0-0-0-0-------------------------------------------------5-3-|
   1 + 2 + 3 + 4 + 1 + 2 + 3 + 4 + 1 + 2 + 3 + 4 + 1 + 2 + 3 + 4 +

2:40
G|-----------------------------------------------------------------|
D|-----------------------------------------------------------------|
A|-------------3-\-1---1-1-1-1-1-/-3---3-3-3-3-3-/-5---5---5---5---|
D|-0---0-0-0-0-----------------------------------------------------|
   1 + 2 + 3 + 4 + 1 + 2 + 3 + 4 + 1 + 2 + 3 + 4 + 1 + 2 + 3 + 4 +

G|-----------------------------------------------------------------|
D|-----------------------------------------------------------------|
A|-------------3-\-1---1-1-1-1-1-/-3---3-3-3-3-5-7-5---5---5---5---|
D|-0---0---0-------------------------------------------------------|
   1 + 2 + 3 + 4 + 1 + 2 + 3 + 4 + 1 + 2 + 3 + 4 + 1 + 2 + 3 + 4 +

G|-----------------------------------------------------------------|
D|-----------------------------------------------------------------|
A|-----------------------------------------------------------------|
D|-0-r-------------------------------------------------------------|

G|-----------------------------------------------------------------|
D|-----------------------------------------------------------------|
A|-----------------------------------------------------------------|
D|-0---------------------------------------------------------------|

3:00
G|-----------------------------------------------------------------|
D|-----------------------------------------------------------------|
A|-------------3---1---1---1---1-2-3---3---3---3-4-5---5---5-------|
D|-0---0---0---------------------------------------------------5-3-|
   1 + 2 + 3 + 4 + 1 + 2 + 3 + 4 + 1 + 2 + 3 + 4 + 1 + 2 + 3 + 4 +

G|-----------------------------------------------------------------|
D|-----------------------------------------------------------------|
A|-------------3---1---1-1-1-1-1-1-3---3-3-3-3-3-3-5---5---5-------|
D|-0---0---0---------------------------------------------------5-3-|
   1 + 2 + 3 + 4 + 1 + 2 + 3 + 4 + 1 + 2 + 3 + 4 + 1 + 2 + 3 + 4 +

3:09
G|-----------------------------------------------------------------|
D|-----------------------------------------------------------------|
A|-------------3---1---1---1---1---3---3---3---3---5---5---5-------|
D|-0---0---0---------------------------------------------------0---|
   1 + 2 + 3 + 4 + 1 + 2 + 3 + 4 + 1 + 2 + 3 + 4 + 1 + 2 + 3 + 4 +

G|-----------------------------------------------------------------|
D|-----------------------------------------------------------------|
A|-------------3---1---1---1-1-1-1-3---3-3-3-3-5-7-5---5---5---3---|
D|-0---0---0-------------------------------------------------------|
   1 + 2 + 3 + 4 + 1 + 2 + 3 + 4 + 1 + 2 + 3 + 4 + 1 + 2 + 3 + 4 +

3:18
G|-----------------------------------------------------------------|
D|-----------------------------------------------------------------|
A|-5-----5-----5-----5-----3-3-3-3-5-5---5-----5-5---5-----3-3-3-3-|
D|-----------------------------------------------------------------|
   1 + 2 + 3 + 4 + 1 + 2 + 3 + 4 + 1 + 2 + 3 + 4 + 1 + 2 + 3 + 4 +

G|-----------------------------------------------------------------|
D|-----------------------------------------------------------------|
A|-5-5---5-----5-5---5-----3-3-3-3-5-----6-----5-------------------|
D|-----------------------------------------------------------------|
   1 + 2 + 3 + 4 + 1 + 2 + 3 + 4 + 1 + 2 + 3 + 4 + 1 + 2 + 3 + 4 +

3:27
G|-----------------------------------------------------------------|
D|-----------------------------------------------------------------|
A|-5-------------------------------5-------------------------------|
D|-------6-----5-----0-3-5-6-5-3-0-------6-----5-----0-3-5-6-5-3-0-|
   1 + 2 + 3 + 4 + 1 + 2 + 3 + 4 + 1 + 2 + 3 + 4 + 1 + 2 + 3 + 4 +

G|-----------------------------------------------------------------|
D|-----------------------------------------------------------------|
A|-5-------------------------------5-----------5-------------------|
D|-------6-----5-----0-3---6-5-3-0-------6-------------------------|
   1 + 2 + 3 + 4 + 1 + 2 + 3 + 4 + 1 + 2 + 3 + 4 + 1 + 2 + 3 + 4 +

3:37
G|-----------------------------------------------------------------|
D|-----------------------------------------------------------------|
A|-5-----------5-----6-6-6-6-6-6-6-5-----------5-------------------|
D|-------6-------------------------------6-------------------------|
   1 + 2 + 3 + 4 + 1 + 2 + 3 + 4 + 1 + 2 + 3 + 4 + 1 + 2 + 3 + 4 +

G|---------------------------------|
D|---------------------------------|
A|-5-----------5-------------------|
D|-------6-------------------------|
   1 + 2 + 3 + 4 + 1 + 2 + 3 + 4 + 

3:44
G|------------------------------------------------------------------|
D|o-----------------------------------------------------------------|
A|o-----------------0-0-0-0-0-0-0-0-1-1-1-1-1-1-1-1-----------------|
D|--0-0-0-0-0-0-0-0---------------------------------3-3-3-3-2-2-2-2-|
    1 + 2 + 3 + 4 + 1 + 2 + 3 + 4 + 1 + 2 + 3 + 4 + 1 + 2 + 3 + 4 +

G|------------------------------------------------------------------|---|
D|-----------------------------------------------------------------o|---|
A|-----------------0-0-0-0-0-0-0-0-1-1-1-1-1-1-1-1-----------------o|---|
D|-0-0-0-0-0-0-0-0---------------------------------3---3---2---2----|-0-|
   1 + 2 + 3 + 4 + 1 + 2 + 3 + 4 + 1 + 2 + 3 + 4 + 1 + 2 + 3 + 4 +

===============================================================

Darkness Surrounding

G|-----------------------------------------------------------------|
D|-------------------------------------------------------4-5-4-----|
A|-3-3---333-3-3-335-5---555-5-5-557-7---777-7-7-777-5-7-------7-5-|
D|-----------------------------------------------------------------|
   1 + 2 + 3 + 4 + 1 + 2 + 3 + 4 + 1 + 2 + 3 + 4 + 1 + 2 + 3 + 4 +

G|-----------------------------------------------------------------|
D|-----------------------------------------------------------------|
A|-3-3---333-3-3-335-5---555-5-5-557-7---777-7-7-777-7---777-7-7-77|
D|-----------------------------------------------------------------|
   1 + 2 + 3 + 4 + 1 + 2 + 3 + 4 + 1 + 2 + 3 + 4 + 1 + 2 + 3 + 4 +

0:10
G|-----------------------------------------------------------------|
D|-----------------------------------------------------------------|
A|-3---------------------------------------------------------------|
D|-------------------------------------------------14-\------------|

G|-------------------------------------------------------------------|
D|o-----------------------------------------------------------------o|
A|o-----------------------------------------------------------------o|
D|--2---2---2-3-0-3-2---2---2-3-0-3-2---2---2-3-0-3-2---2---2-3-0-3--|
    1 + 2 + 3 + 4 + 1 + 2 + 3 + 4 + 1 + 2 + 3 + 4 + 1 + 2 + 3 + 4 +

0:24
G|-----------------------------------------------------------------|
D|-------------------------------------------------------4-5-4-----|
A|-3-3---333-3-3-335-5---555-5-5-557-7---777-7-7-777-5-7-------7-5-|
D|-----------------------------------------------------------------|
   1 + 2 + 3 + 4 + 1 + 2 + 3 + 4 + 1 + 2 + 3 + 4 + 1 + 2 + 3 + 4 +

G|-----------------------------------------------------------------|
D|-----------------------------------------------------------------|
A|-3-3---333-3-3-335-5---555-5-5-557-7---777-7-7-777-7---777-7-7-77|
D|-----------------------------------------------------------------|
   1 + 2 + 3 + 4 + 1 + 2 + 3 + 4 + 1 + 2 + 3 + 4 + 1 + 2 + 3 + 4 +

G|-----------------------------------------------------------------|
D|-----------------------------------------------------------------|
A|-3---------------------------------------------------------------|
D|-------------------------------------------------14-\------------|

G|-------------------------------------------------------------------|
D|o-----------------------------------------------------------------o| x4
A|o-----------------------------------------------------------------o|
D|--2---2---2-3-0-3-2---2---2-3-0-3-2---2---2-3-0-3-2---2---2-3-0-3--|
    1 + 2 + 3 + 4 + 1 + 2 + 3 + 4 + 1 + 2 + 3 + 4 + 1 + 2 + 3 + 4 +

0:58
G|-------------------------------------------------------------------|
D|o-----------------------------------------------------------------o|
A|o-----------------3---2---------------------------3---2-----------o|
D|--2---22222---2-----------4---5---2---22222---2-----------5---4----|
    1 + 2 + 3 + 4 + 1 + 2 + 3 + 4 + 1 + 2 + 3 + 4 + 1 + 2 + 3 + 4 +

1:08
G|-----------------------------------------------------------------|
D|-----------------------------------------------------------------|
A|-------1-1---1---1-------1---1-----------1---1-------------------|
D|-2-----------------2-------------2---------------2-3-2-3-5-3-2-3-|
   1 + 2 + 3 + 4 + 1 + 2 + 3 + 4 + 1 + 2 + 3 + 4 + 1 + 2 + 3 + 4 +

G|------------------------------------------------------------------|
D|------------------------------------------------------------------|
A|-------1---1-1---1-------1---1-----------1---1--------------------|
D|-2-----------------2-------------2---------------2--3--2--3--5--3-|
   1 + 2 + 3 + 4 + 1 + 2 + 3 + 4 + 1 + 2 + 3 + 4 + 1 + 2 +  3 + 4 +

1:18
G|------------------------------------------------------------------|
D|------------------------------------------------------------------|
A|---------1-1-1-1---------1---1---1-------1-1-1-1------------------|
D|-2-2-------------2-2---------------2-------------2--3--2--3--5--3-|
   1 + 2 + 3 + 4 + 1 + 2 + 3 + 4 + 1 + 2 + 3 + 4 + 1 + 2 +  3 + 4 +

G|-------------------------------------------------------------------------|
D|-------------------------------------------------------------------------|
A|---------1-1-1-1---------1-1-1-1---------1-1-1-1-------------------------|
D|-2-2-----------------------------2-2-------------2--3--2--3--5--3--2-----|
   1 + 2 + 3 + 4 + 1 + 2 + 3 + 4 + 1 + 2 + 3 + 4 + 1 + 2 +  3 + 4 +

Rest
 
1:40
G|--------------------------------------------------------------------|
D|o------------------------------------------------------------------o|
A|o------------------------------------------------------------------o| x3
D|--0-2-0-2-3-2-0-2-----------------0-2-0-2-3-2-0-2-------------------|
    1 + 2 + 3 + 4 + 1 + 2 + 3 + 4 + 1 + 2 + 3 + 4 + 1 + 2 +  3 + 4 +

G|------------------------------------------------------------------|
D|------------------------------------------------------------------|
A|------------------------------------------------------------------|
D|-0-2-0-2-3-2-0-2-----------------0-2-0-2-3-2-0--------------------|
   1 + 2 + 3 + 4 + 1 + 2 + 3 + 4 + 1 + 2 + 3 + 4 + 1 + 2 +  3 + 4 +

G|------------------------------------------------------------------|
D|------------------------------------------------------------------|
A|------------------------------------------------------------------|
D|-0-2-0-2-3-2-0-2-----------------0-2-0-2-3-2-0-2------------------|
   1 + 2 + 3 + 4 + 1 + 2 + 3 + 4 + 1 + 2 + 3 + 4 + 1 + 2 +  3 + 4 +

G|------------------------------------------------------------------|
D|------------------------------------------------------------------|
A|------------------------------------------------------------------|
D|-0-2-0-2-3-2-0-2-----------------0-2-0-2-3-2-0-0------------------|
   1 + 2 + 3 + 4 + 1 + 2 + 3 + 4 + 1 + 2 + 3 + 4 + 1 + 2 +  3 + 4 +

G|------------------------------------------------------------------|
D|------------------------------------------------------------------|
A|------------------------------------------------------------------|
D|-0-2-0-2-3-2-0-2-----------------0-2-0-2-3-2-0-2------------------|
   1 + 2 + 3 + 4 + 1 + 2 + 3 + 4 + 1 + 2 + 3 + 4 + 1 + 2 +  3 + 4 +

G|------------------------------------------------------------------|
D|------------------------------------------------------------------|
A|------------------------------------------------------------------|
D|---------------------------------0-2-0-2-3-2-0--------------------|
   1 + 2 + 3 + 4 + 1 + 2 + 3 + 4 + 1 + 2 + 3 + 4 + 1 + 2 +  3 + 4 +

Rest

2:33
G|-----------------------------------------------------------------|
D|-----------------------------------------------------------------|
A|-----------------------------------------------------------------|
D|-2---2-2-3---2-------2-2-5---3---2---2-2-3---2-------2---2---3---|
   1 + 2 + 3 + 4 + 1 + 2 + 3 + 4 + 1 + 2 + 3 + 4 + 1 + 2 + 3 + 4 +

G|-----------------------------------------------------------------|
D|-----------------------------------------------------------------|
A|-----------------------------------------------------------------|
D|-2---2-2-3---2-------2-2-5---3---2---2-2-3---2-------3-------3---|
   1 + 2 + 3 + 4 + 1 + 2 + 3 + 4 + 1 + 2 + 3 + 4 + 1 + 2 + 3 + 4 +

G|-----------------------------------------------------------------|
D|-----------------------------------------------------------------|
A|-----------------------------------------------------------------|
D|-2---2-2-3---2-------2-2-5---3---2---2-2-3---2-------2---2---3---|
   1 + 2 + 3 + 4 + 1 + 2 + 3 + 4 + 1 + 2 + 3 + 4 + 1 + 2 + 3 + 4 +

G|-----------------------------------------------------------------|
D|-----------------------------------------------------------------|
A|-----------------------------------------------------------------|
D|-2---2-2-3---2-------2-2-5---3---2---2-2-3---2-------3-------3---|
   1 + 2 + 3 + 4 + 1 + 2 + 3 + 4 + 1 + 2 + 3 + 4 + 1 + 2 + 3 + 4 +
2:45
G|-----------------------------------------------------------------|
D|-----------------------------------------------------------------|
A|-------------3-/-5---------------3-----------3-/-5---------------|
D|-2---------------------------------------------------------------|
   1 + 2 + 3 + 4 + 1 + 2 + 3 + 4 + 1 + 2 + 3 + 4 + 1 + 2 + 3 + 4 +

G|-----------------------------------------------------------------|
D|-----------------------------------------------------------------|
A|-------------3---5---------------3---------------5---------------|
D|-2---------------------------------------------------------------|
   1 + 2 + 3 + 4 + 1 + 2 + 3 + 4 + 1 + 2 + 3 + 4 + 1 + 2 + 3 + 4 +

3:01
G|-----------------------------------------------------------------|
D|---------------------------------2-2-2-2-2-4-5-4-----------------|
A|---------------2-3-3-3-3-5-5-5-5-----------------3-3---3-5-5-----|
D|-2-2-2-2-2-2-5---------------------------------------5-------5-4-|
   1 + 2 + 3 + 4 + 1 + 2 + 3 + 4 + 1 + 2 + 3 + 4 + 1 + 2 + 3 + 4 +

3:10
G|-----------------------------------------------------------------|
D|-----------------------------------------------------------------|
A|---------------2-3-3-3-3-5-5-5-----------------2-3-3-2-3-5---5---|
D|-2-2-2-2-2-2-2-----------------5-2-2-2-2-2-2-2-------------------|
   1 + 2 + 3 + 4 + 1 + 2 + 3 + 4 + 1 + 2 + 3 + 4 + 1 + 2 + 3 + 4 +

3:21
G|-----------------------------------------------------------------|
D|-----------------------------5---------------2-------------------|
A|-------------3-/-5-------------5-3-------------2-5---------------|
D|-2-------2---------------------------------------=-----------5-\-|
   1 + 2 + 3 + 4 + 1 + 2 + 3 + 4 + 1 + 2 + 3 + 4 + 1 + 2 + 3 + 4 +

G|-----------------------------------------------------------------|
D|-----------------------------------------------------------------|
A|-----------------5---------------3-----------3---5---------------|
D|-2-----------2---------------------------------------------------|
   1 + 2 + 3 + 4 + 1 + 2 + 3 + 4 + 1 + 2 + 3 + 4 + 1 + 2 + 3 + 4 +

3:34
G|-----------------------------------------------------------------|
D|-----------------------------------------------------------------|
A|---------------3-5-----5-5---5---3-----3-3---3---5-----5-5-------|
D|-2-----2-2---2-----------------------------------------------5-4-|
   1 + 2 + 3 + 4 + 1 + 2 + 3 + 4 + 1 + 2 + 3 + 4 + 1 + 2 + 3 + 4 +

3:41
G|-----------------------------------------------------------------|
D|-----------------------------------------------------------------|
A|-------7-7---7---5-----5-5---5---3-----3-3---3-3-5-5-5-5-5-5-5-5-|
D|-2---------------------------------------------------------------|
   1 + 2 + 3 + 4 + 1 + 2 + 3 + 4 + 1 + 2 + 3 + 4 + 1 + 2 + 3 + 4 +

3:49
G|-----------------------------------------------------------------|
D|---------------------2-------5-----2---2---4-5-4-----------------|
A|-----------------3-3---3-5-5---5-----------------3-3---3-5-5-----|
D|-2-2-2-2-2-2-2-2-----------------2---2---2-----------5-------5-4-|
   1 + 2 + 3 + 4 + 1 + 2 + 3 + 4 + 1 + 2 + 3 + 4 + 1 + 2 + 3 + 4 +

3:57
G|-----------------------------------------------------------------|
D|---------2---------5-----------------------2-4-5-----2-----------|
A|-------2---2---2-3---3-2-5-5-------------2-------3-3---3-5-5-5-5-|
D|-2-4-5-------2---------------5-4-2-2-4-5-------------------------|
   1 + 2 + 3 + 4 + 1 + 2 + 3 + 4 + 1 + 2 + 3 + 4 + 1 + 2 + 3 + 4 +

4:07
G|-----------------------------------------------------------------|
D|---------------------2---------------2-2-------------2-------445-|
A|-----------------3-5---335-5-5-----------------2-3-3---335-5-----|
D|-2-----2---2-2-2---------------542-2-------225-------------------|
   1 + 2 + 3 + 4 + 1 + 2 + 3 + 4 + 1 + 2 + 3 + 4 + 1 + 2 + 3 + 4 +

4:16
G|---------------------------------------------------------------------|
D|-----2-2---4-5-4-----2-----------------2-------------2---------------|
A|-----------------3-3---3-5-5-5-------2---------2-3-3---3-5-5---------|
D|-2-2---------------------------5-2-2-------225---------------5-4-2---|
   1 + 2 + 3 + 4 + 1 + 2 + 3 + 4 + 1 + 2 + 3 + 4 + 1 + 2 + 3 + 4 +

4:30
G|-----------------------------------------------------------------|
D|-----------------------------------------2-----------2-------5-4-|
A|---------------2-3-3-2-3-5-5-5---------2---2---2-3-3---3-5-5-----|
D|-2-2-2-2-2-2-5-----------------542-4-5-------5-------------------|
   1 + 2 + 3 + 4 + 1 + 2 + 3 + 4 + 1 + 2 + 3 + 4 + 1 + 2 + 3 + 4 +

G|-----------------------------------------------------------------|
D|-2-2-4-4-5-4-2-4-------------------------2-----------2-----------|
A|-----------------3-3---3-5-5-----------2---2-----3-3---3-5-5-----|
D|---------------------5-------5-4-2-2-5-------5-2-------------5-4-|
   1 + 2 + 3 + 4 + 1 + 2 + 3 + 4 + 1 + 2 + 3 + 4 + 1 + 2 + 3 + 4 +

===============================================================

An Epic Of Time Wasted

G|-------------------------------------------------------------------|
D|o-----------------------------------------------------------------o|
A|o---------5-------------------------------------------------------o|x4
D|--0-----------6---5---0---3---5---6---5---3---0---3---5---1-1------|
    1 e + a 2 e + a 3 e + a 4 e + a 1 e + a 2 e + a 3 e + a 4 e + a

0:17
G|-------------------------------------------------------------------|  |-----|
D|o-----------------------------------------------------------------o|  |-----|
A|o---------3h5-----------------------------3h5---------------------o|x4|-----|
D|--0-----------0-3---0-2-3-5---1---0-----------0-3---0-2-3-5---7----|  |-0---|
    1 e + a 2 e + a 3 e + a 4 e + a 1 e + a 2 e + a 3 e + a 4 e + a

0:36
G|-------------------------------------------------------------------|
D|o-----------------------------------------------------------------o|
A|o---------3h5-----------------------------3h5---------------------o|x4
D|--0-0-0-------0-3---0-2-3-5---1---0-0-0-------0-3---0-2-3-5---7----|
    1 e + a 2 e + a 3 e + a 4 e + a 1 e + a 2 e + a 3 e + a 4 e + a

0:54
G|-----------------------------------------------------------------|
D|-----------------------------------------------------------------|
A|-----------------------------------------------------------------|
D|-0---0---0-1-0---0---0---0-1-0---0---0---0-1-0---0---------------|
   1 e + a 2 e + a 3 e + a 4 e + a 1 e + a 2 e + a 3 e + a 4 e + a

0:59
G|-----------------------------------------------------------------|
D|--------------------------------------------------------(Triplet)|
A|-----------------0-0---0-0-0---0-2-2-2-2-5-5-5-5-2---2---5--4--0-|
D|-5-5---5-5-5---5-------------------------------------------------|
   1 e + a 2 e + a 3 e + a 4 e + a 1 e + a 2 e + a 3 e + a 4 e + a

G|-----------------------------------------------------------------|
D|-----------------------------------------------------------------|
A|-----------------0-0---0-0-0---0---------------------------------|
D|-5-5---5-5-5---5-----------------4-4-4-4-4-4-4-4-4---------------|
   1 e + a 2 e + a 3 e + a 4 e + a 1 e + a 2 e + a 3 e + a 4 e + a

1:08
G|-----------------------------------------------------------------|
D|-----------------------------------------------------------------|
A|-----------------0-0-0-0-0-0-0-0-5-5-5-5-4-4-4-4-2-2-2-2-0-0-0-0-|
D|-5-5-5-5-5-5-5-5-------------------------------------------------|
   1 e + a 2 e + a 3 e + a 4 e + a 1 e + a 2 e + a 3 e + a 4 e + a

G|---------------------------------|
D|---------------------------------|
A|---------------------------------|
D|-5-5-5-5-5-5-5-5-4---------------|
   1 e + a 2 e + a 3 e + a 4 e + a 

1:14
G|-----------------------------------------------------------------|
D|-----------------------------------------------------------------|
A|-2-2-2-2-2-------2-2-2-2-2-0-------------------------------------|
D|---------------------------------5-5-5-5-5-------5-5-5-5-5-4-----|
   1 e + a 2 e + a 3 e + a 4 e + a 1 e + a 2 e + a 3 e + a 4 e + a

G|-----------------------------------------------------------------|
D|-----------------------------------------------------------------|
A|---------------------------------0-0-0-0-0---0---4-4-4---4-4-4---|
D|-2-2-2-2-2-------2-2-2-2-2-4-------------------------------------|
   1 e + a 2 e + a 3 e + a 4 e + a 1 e + a 2 e + a 3 e + a 4 e + a

1:25
G|-----------------------------------------------------------------|
D|-----------------------------------------------------------------|
A|-2---2-2-2-2-2-2-2-2-4-4-5-5-4-4---------------------------------|
D|---------------------------------5---5-5-5-5-5-5-5-5-5-5-5-5-4---|
   1 e + a 2 e + a 3 e + a 4 e + a 1 e + a 2 e + a 3 e + a 4 e + a

G|-----------------------------------------------------------------|
D|-----------------------------------------------------------------|
A|---------------------------------0---0-0-0-0-0-0-0-0-0-0-0-0-4---|
D|-0---0-0-0-0-0-0-0-0-0-0-0-0-4-----------------------------------|
   1 e + a 2 e + a 3 e + a 4 e + a 1 e + a 2 e + a 3 e + a 4 e + a

1:34
G|-----------------------------------------------------------------|
D|-----------------------------------------------------------------|
A|-2---2-2-2-2-2-2-2-2-2-2-5-5-4-4---------------------------------|
D|---------------------------------5---5-5-5-5-5-5-5-5-5-5-5-5-4---|
   1 e + a 2 e + a 3 e + a 4 e + a 1 e + a 2 e + a 3 e + a 4 e + a

G|-----------------------------------------------------------------|
D|-----------------------------------------------------------------|
A|---------------------------------0---0-0-0-0-0-0-0--0--0-0--0--0-|
D|-0---0-0-0-0-0-0-0-0-0-0-0-0-0-----------------------------------|
   1 e + a 2 e + a 3 e + a 4 e + a 1 e + a 2 e + a Triplet Triplet

1:44
G|-----------------------------------------------------------------|
D|-----------------------------------------------------------------|
A|-----------------------------------------------------------------|
D|-0-------------------------------1-------------------------------|
   1 e + a 2 e + a 3 e + a 4 e + a 1 e + a 2 e + a 3 e + a 4 e + a

G|-----------------------------------------------------------------|
D|-----------------------------------------------------------------|
A|-1---------------------------------------------------------------|
D|---------------------------------3-------------------------------|
   1 e + a 2 e + a 3 e + a 4 e + a 1 e + a 2 e + a 3 e + a 4 e + a

G|-----------------------------------------------------------------|
D|-----------------------------------------------------------------|
A|-----------------------------------------------------------------|
D|-0-------------------------------1-------------------------------|
   1 e + a 2 e + a 3 e + a 4 e + a 1 e + a 2 e + a 3 e + a 4 e + a

G|-----------------------------------------------------------------|
D|-----------------------------------------------------------------|
A|-1-----------------------1---3-----------------------------------|
D|---------------------------------3-----------------------3-------|
   1 e + a 2 e + a 3 e + a 4 e + a 1 e + a 2 e + a 3 e + a 4 e + a

2:04
G|-----------------------------------------------------------------|
D|-----------------------------------------------------------------|
A|-----------------------------------------------------------------|
D|-0---0---0---0---0---0---0---0---0---0---0---0---0---0---0---0---|
   1 e + a 2 e + a 3 e + a 4 e + a 1 e + a 2 e + a 3 e + a 4 e + a

G|-------------------------------------------------------------------|
D|o-----------------------------------------------------------------o|
A|o-----------------------------------------------------------------o|
D|--0---0-------0---0---------------0---0-------0---0----------------|
    1 e + a 2 e + a 3 e + a 4 e + a 1 e + a 2 e + a 3 e + a 4 e + a

2:20
G|-------------------------------------------------------------------|
D|o-----------------------------------------------------------------o|
A|o-----------------------------------------------------------------o|
D|--0---0---x-x-0---0---x-x-x-x-x-x-0---0---x-x-0---0---x-x-x-x-x-x--|
    1 e + a 2 e + a 3 e + a 4 e + a 1 e + a 2 e + a 3 e + a 4 e + a

2:30
G|-------------------------------------------------------------------|
D|o-----------------------------------------------------------------o|
A|o-----------------------------------------------------------------o|
D|--1-p-0---1-p-0---1-p-0---1-p-0---1-p-0---1-p-0---1-p-0---1-p-0----|
    1 e + a 2 e + a 3 e + a 4 e + a 1 e + a 2 e + a 3 e + a 4 e + a

2:41
G|-----------------------------------------------------------------|
D|-----------------------------------------------------------------|
A|-----------------------------------------------------------------|
D|-5-8-7-5-8-7-5-1-----------------5-8-7-5-8-7-5-1-----------------|
   1 e + a 2 e + a 3 e + a 4 e + a 1 e + a 2 e + a 3 e + a 4 e + a

2:46
G|-----------------------------------------------------------------|
D|-----------------------------------------------------------------|
A|-----------------------------------------------------------------|
D|-0-0-0-0-0-0-0-0-0-0-0-0-0-0-0-0-0-0-0-0-0-0-0-0-0-0-0-0-0-0-0-0-|
   1 e + a 2 e + a 3 e + a 4 e + a 1 e + a 2 e + a 3 e + a 4 e + a

G|-----------------------------------------------------------------|
D|-----------------------------------------------------------------|
A|-----------------------------------------------------------------|
D|-0-0-0-0-0-0-0-0-0-0-0-0-0-0-0-0-0-0-0-0-0-0-0-0-0-0-0-0---------|
   1 e + a 2 e + a 3 e + a 4 e + a 1 e + a 2 e + a 3 e + a 4 e + a

2:57
G|-------------------------------------------------------------------|
D|o-----------------------------------------------------------------o|
A|o-----------------------------------------------------------------o|
D|--1-1-0---1-1-0---1-1-0---1-1-0---1-1-0---1-1-0---1-1-0---1-1-0----|
    1 e + a 2 e + a 3 e + a 4 e + a 1 e + a 2 e + a 3 e + a 4 e + a

rest

3:30
G|-------------------------------------------------------------------------|
D|-------------------------------------------------------------------------|
A|-13-\-\--1---1-1-1-1-1-1-1---1-1-1-----------------------3---3-3-3-3-3-3-|
D|-----------------------------------3---3-0---0-0-0-0-0-0-----------------|
   4 e + a 1 e + a 2 e + a 3 e + a 4 e + a 1 e + a 2 e + a 3 e + a 4 e + a

G|-----------------------------------------------------------------|
D|-----------------------------------------------------------------|
A|-1---1-1-1-1-1-1-1---1-1-1-3---3-----------------3---3-3-3-3-3-3-|
D|---------------------------------0---0-0-0-0-0-0-----------------|
   1 e + a 2 e + a 3 e + a 4 e + a 1 e + a 2 e + a 3 e + a 4 e + a

G|-----------------------------------------------------------------|
D|-----------------------------------------------------------------|
A|-1---1-1-1-1-1-1-1---1-1-1-----------------------3---3-3-3-3-3-3-|
D|---------------------------3---3-0---0-0-0-0-0-0-----------------|
   1 e + a 2 e + a 3 e + a 4 e + a 1 e + a 2 e + a 3 e + a 4 e + a

G|-----------------------------------------------------------------|
D|-----------------------------------------------------------------|
A|-1---1-1-1-1-1-1-1---1-1-1-3---3-----------------3---3-3-3-3-3-3-|
D|---------------------------------0---0-0-0-0-0-0-----------------|
   1 e + a 2 e + a 3 e + a 4 e + a 1 e + a 2 e + a 3 e + a 4 e + a

3:52
G|-----------------------------------------------------------------|
D|-----------------------------------------------------------------|
A|-1---1-1-1-1-1-1-1-1-1-1-1-----------------------3-3-3-3-3-3-3-3-|
D|---------------------------3---3-0---0-0-0-0-0-0-----------------|
   1 e + a 2 e + a 3 e + a 4 e + a 1 e + a 2 e + a 3 e + a 4 e + a

G|-----------------------------------------------------------------|
D|-----------------------------------------------------------------|
A|-1---1-1-1-1-1-1-1-1-1-1-1-3---------------------3-3-3-3-3-3-3-3-|
D|---------------------------------0---0-0-0-0-0-0-----------------|
   1 e + a 2 e + a 3 e + a 4 e + a 1 e + a 2 e + a 3 e + a 4 e + a

G|-----------------------------------------------------------------|
D|-----------------------------------------------------------------|
A|-1---1-1-1-1-1-1-1-1-1-1-1-----------------------3-3-3-3-3-3-3-3-|
D|---------------------------3---3-0---0-0-0-0-0-0-----------------|
   1 e + a 2 e + a 3 e + a 4 e + a 1 e + a 2 e + a 3 e + a 4 e + a

G|-----------------------------------------------------------------|
D|-----------------------------------------------------------------|
A|-1---1-1-1-1-1-1-1-1-1-1-1-3-------------------------------------|
D|---------------------------------0-------------------------------|
   1 e + a 2 e + a 3 e + a 4 e + a 1 e + a 2 e + a 3 e + a 4 e + a

===============================================================

Breaking Their Hold

G|-----------------------------------------------------------------|
D|-----------------------------------------------------------------|
A|-----------------------------------------------------------------|
D|-4-----------------------------------------------------------1-/-|
   1 + 2 + 3 + 4 + 1 + 2 + 3 + 4 + 1 + 2 + 3 + 4 + 1 + 2 + 3 + 4 +

G|-----------------------------------------------------------------|
D|-----------------------------------------------------------------|
A|-----------------------------------------------------------------|
D|-5-5---5-3-3---3-1-1---1-1-1---1-4-4---4-4-4---4-4-4-----4---4-4-|
   1 + 2 + 3 + 4 + 1 + 2 + 3 + 4 + 1 + 2 + 3 + 4 + 1 + 2 + 3 + 4 +

G|-----------------------------------------------------------------|
D|-----------------------------------------------------------------|
A|-----------------------------------------------------------------|
D|-5-5---5-3-3---3-1-1---1-1-1---1-4-4---4-4-4---4-4-4---4-4-4-4-4-|
   1 + 2 + 3 + 4 + 1 + 2 + 3 + 4 + 1 + 2 + 3 + 4 + 1 + 2 + 3 + 4 +

G|-----------------------------------------------------------------|
D|-----------------------------------------------------------------|
A|-----------------------------------------------------------------|
D|-5-5---5-3-3---3-1-1---1-1-1---1-4-4---4-4-4---4-4-4---4-4-4---4-|
   1 + 2 + 3 + 4 + 1 + 2 + 3 + 4 + 1 + 2 + 3 + 4 + 1 + 2 + 3 + 4 +

G|-----------------------------------------------------------------|
D|-----------------------------------------------------------------|
A|-----------------------------------------------------------------|
D|-5-5---5-3-3---3-1-1---1-1-1---1-4-----4-4---4-4-4-----4-4---4-4-|
   1 + 2 + 3 + 4 + 1 + 2 + 3 + 4 + 1 + 2 + 3 + 4 + 1 + 2 + 3 + 4 +

0:27
G|-------------------------------------------------------------------|
D|o-----------------------------------------------------------------o|
A|o---------------------------------------------------------3---2---o|
D|--2---------------2---------------2---------------3---2------------|
    1 + 2 + 3 + 4 + 1 + 2 + 3 + 4 + 1 + 2 + 3 + 4 + 1 + 2 + 3 + 4 +

G|-------------------------------------------------|
D|-3---2---8---7---7--7--7-7--7--7-7---------------|
A|-------------------------------------------------|
D|-------------------------------------------------|
   1 + 2 + 3 + 4 + 1 + 2 + 3 + 4 + 1 + 2 + 3 + 4 + 

0:41
G|-------------------------------------------------------------------|
D|o-----------------------------3-2---------------------------------o|
A|o---3-2---3-2---3---3-2---3-2-------3-2---3-2---3---------3---2---o|x4
D|--2-----2-----2---2-----2---------2-----2-----2---3---2------------|
    1 + 2 + 3 + 4 + 1 + 2 + 3 + 4 + 1 + 2 + 3 + 4 + 1 + 2 + 3 + 4 +

1:00
G|---------3---2---------------------------3---2---------------------------3---2---|
D|-3---2---------------------------3---2---------------------------3---2-----------|
A|-------------------------3---2---------------------------3---2-------------------|
D|-----------------3---2---------------------------3---2---------------------------|
   1 + 2 + 3 + 4 + 1 + 2 + 3 + 4 + 1 + 2 + 3 + 4 + 1 + 2 + 3 + 4 + 1 + 2 + 3 + 4 +

G|-------------------------3---2-----------------------------------|
D|-----------------3---2-------------------------------------------|
A|---------3---2---------------------------------------------------|
D|-3---2-----------------------------------------------------------|
   1 + 2 + 3 + 4 + 1 + 2 + 3 + 4 + 1 + 2 + 3 + 4 + 1 + 2 + 3 + 4 +

===============================================================

Forgotten Faces

G|-------------------------------------------------------------------|
D|o-----------------------------------------------------------------o|
A|o---------5---------------5h6-6-----------3-3-3-----------6h8-8---o|x4
D|--0-0-0-0---------0-0-0-0---------0-0-0-0---------0-0-0-0----------|
    1 + 2 + 3 + 4 + 1 + 2 + 3 + 4 + 1 + 2 + 3 + 4 + 1 + 2 + 3 + 4 +

G|-----------------------------------------------------------------|
D|-----------------------------------------------------------------|
A|-----------------------------------------3---3-----------6h8-8---|
D|-0-----------------------0-------0-0-0-0---------0-0-0-0---------|
   1 + 2 + 3 + 4 + 1 + 2 + 3 + 4 + 1 + 2 + 3 + 4 + 1 + 2 + 3 + 4 +

G|-------------------------------------------------------------(x3)--|-----------------|
D|o-----------------------------------------------------------------o|-----------------|
A|o---------5---------------5h6-6-----------3-3-3-----------6h8-8---o|-5-5-5-----------|
D|--0-0-0-0---------0-0-0-0---------0-0-0-0---------0-0-0-0----------|-----------------|
    1 + 2 + 3 + 4 + 1 + 2 + 3 + 4 + 1 + 2 + 3 + 4 + 1 + 2 + 3 + 4 +    1 + 2 + 3 + 4 +

0:42
G|-----------------------------------------------------------------|
D|-----------------------------------------------------------------|
A|-5-5---5---5-3-5-3---3---3-3-3-3-6-6---8---8-6-8-5-5-5-----------|
D|-------------------------------------------------------------0-0-|
   1 + 2 + 3 + 4 + 1 + 2 + 3 + 4 + 1 + 2 + 3 + 4 + 1 + 2 + 3 + 4 +

G|-----------------------------------------------------------------|
D|-----------------------------------------------------------------|
A|-5-5---5---5-3-5-3---3---3-3-3-3-6---6-8-----6-8-5-5-5-----------|
D|-----------------------------------------------------------------|
   1 + 2 + 3 + 4 + 1 + 2 + 3 + 4 + 1 + 2 + 3 + 4 + 1 + 2 + 3 + 4 +

G|-----------------------------------------------------------------|
D|-----------------------------------------------------------------|
A|-5-5---5---5-3-5-3---3---3-3-3-3-6-6---8---8-6-8-5-5-5-----------|
D|-----------------------------------------------------------------|
   1 + 2 + 3 + 4 + 1 + 2 + 3 + 4 + 1 + 2 + 3 + 4 + 1 + 2 + 3 + 4 +

G|-----------------------------------------------------------------|
D|-----------------------------------------------------------------|
A|-5-5---5---5-3-5-3---3---3-3-3-3-6---6-8-----6-8-5---\-----------|
D|---------------------------------------------------------0-------|
   1 + 2 + 3 + 4 + 1 + 2 + 3 + 4 + 1 + 2 + 3 + 4 + 1 + 2 + 3 + 4 +

G|-----------------------------------------------------------------|
D|-----------------------------------------------------------------|
A|-------------------------------------------------5---5-\---------|
D|-----------------1-----------3-----------5---------------0-------|
   1 + 2 + 3 + 4 + 1 + 2 + 3 + 4 + 1 + 2 + 3 + 4 + 1 + 2 + 3 + 4 +

G|-----------------------------------------------------------------|
D|-----------------------------------------------------------------|
A|-------------------------------------------------5-5-5-----------|
D|-----------------1-----------3-----------5-----------------------|
   1 + 2 + 3 + 4 + 1 + 2 + 3 + 4 + 1 + 2 + 3 + 4 + 1 + 2 + 3 + 4 +

1:11
G|-----------------------------------------------------------------|
D|-----------------------------------------------------------------|
A|-5-5---5---5-3-5-3---3---3-3-3-3-6-6---8---8-6-8-5-5-5-----------|
D|-----------------------------------------------------------------|
   1 + 2 + 3 + 4 + 1 + 2 + 3 + 4 + 1 + 2 + 3 + 4 + 1 + 2 + 3 + 4 +

G|-----------------------------------------------------------------|
D|-----------------------------------------------------------------|
A|-5-5---5---5-3-5-3---3---3-3-3-3-6-6---8---8-6-8-5-5-5-----------|
D|-------------------------------------------------------------0-0-|
   1 + 2 + 3 + 4 + 1 + 2 + 3 + 4 + 1 + 2 + 3 + 4 + 1 + 2 + 3 + 4 +

G|-----------------------------------------------------------------|
D|-----------------------------------------------------------------|
A|-5-5---5---5-3-5-3---3---3-3-3-3-6---6-8---8-6-8-5-5-5-----------|
D|-----------------------------------------------------------------|
   1 + 2 + 3 + 4 + 1 + 2 + 3 + 4 + 1 + 2 + 3 + 4 + 1 + 2 + 3 + 4 +

G|-------------------------------------------------|
D|-------------------------------------------------|
A|-5-5---5---5-3-5-3---3---3-3-3-3-6---6-8-----6-8-|
D|-------------------------------------------------|
   1 + 2 + 3 + 4 + 1 + 2 + 3 + 4 + 1 + 2 + 3 + 4 + 

1:30
G|-----------------------------------------------------------------|
D|-----------------------------------------------------------------|
A|-5-----7-----8---3-3---8-----7---------------------4-5-7-5-4-0-0-|
D|---------------------------------5-----5-5---5---5---------------|
   1 + 2 + 3 + 4 + 1 + 2 + 3 + 4 + 1 + 2 + 3 + 4 + 1 + 2 + 3 + 4 +

G|-----------------------------------------------------------------|
D|-----------------------------------------------------------------|
A|-5---5-7-----8---3---/-8-----7-----------------------------------|
D|---------------------------------5---5-5-5-5-5-5-7---3---5---7---|
   1 + 2 + 3 + 4 + 1 + 2 + 3 + 4 + 1 + 2 + 3 + 4 + 1 + 2 + 3 + 4 +

G|-----------------------------------------------------------------|
D|-----------------------------------------------------------------|
A|-5-----7-----8---3---/-8-----7---------------------4-5-7-5-4-0-0-|
D|---------------------------------5-----5-5---5---5---------------|
   1 + 2 + 3 + 4 + 1 + 2 + 3 + 4 + 1 + 2 + 3 + 4 + 1 + 2 + 3 + 4 +

G|-----------------------------------------------------------------|
D|-----------------------------------------------------------------|
A|-5---5-7-----8---3---/-8-----7---------------------7-5-4-5-4-0---|
D|---------------------------------5---5-5-5-5-5-5-5-------------5-|
   1 + 2 + 3 + 4 + 1 + 2 + 3 + 4 + 1 + 2 + 3 + 4 + 1 + 2 + 3 + 4 +

1:50
G|-------------------------------------------------------------------|
D|o-----------------------------------------------------------------o|
A|o-------------------------------------------------1-1-1-----------o|x4
D|--0-0-0-0-0-------5-5-5-5-5-------3-3-3-3-3---------------3-3-3----|
    1 + 2 + 3 + 4 + 1 + 2 + 3 + 4 + 1 + 2 + 3 + 4 + 1 + 2 + 3 + 4 +

2:09
G|-----------------------------------------------------------------|
D|-----------------------------------------------------------------|
A|-----------------------------------------------------------------|
D|-0-------------0-0---------0---0-3---3-3-3---3-3---3-3-3-3---3-3-|
   1 + 2 + 3 + 4 + 1 + 2 + 3 + 4 + 1 + 2 + 3 + 4 + 1 + 2 + 3 + 4 +

G|-----------------------------------------------------------------|
D|-----------------------------------------------------------------|
A|-----------------------------------------------------------------|
D|-0-------0-----0---0-0-0-0---0-0-3-------3---3-3---3-3-3-3---3-3-|
   1 + 2 + 3 + 4 + 1 + 2 + 3 + 4 + 1 + 2 + 3 + 4 + 1 + 2 + 3 + 4 +

2:21
G|-----------------------------------------------------------------|
D|-----------------------------------------------------------------|
A|-----------------------------------------------------------------|
D|-0-------0-----0---------0-0-0-0-3---3-3-3-----3---3-3-3-3---3-3-|
   1 + 2 + 3 + 4 + 1 + 2 + 3 + 4 + 1 + 2 + 3 + 4 + 1 + 2 + 3 + 4 +

G|-----------------------------------------------------------------|
D|-----------------------------------------------------------------|
A|-----------------------------------------------------------------|
D|-0-------0-----0---0-0---0---0-0-3-3-3-3-3-3-3-3-3-3-3-3-3-3-3-3-|
   1 + 2 + 3 + 4 + 1 + 2 + 3 + 4 + 1 + 2 + 3 + 4 + 1 + 2 + 3 + 4 +

2:31
G|-----------------------------------------------------------------|
D|-----------------------------------------------------------------|
A|-----------------------------------------------------------------|
D|-0-----0-----0-0---0-0---0-0-0-0-3-----3-----3-3---3-3---3-3-3-3-|
   1 + 2 + 3 + 4 + 1 + 2 + 3 + 4 + 1 + 2 + 3 + 4 + 1 + 2 + 3 + 4 +

G|-----------------------------------------------------------------|
D|-----------------------------------------------------------------|
A|-----------------------------------------------------------------|
D|-0-----0-----0-0---0-0---0-0-0-0-3-----3-3---3-3---3-3---3-3-3-3-|
   1 + 2 + 3 + 4 + 1 + 2 + 3 + 4 + 1 + 2 + 3 + 4 + 1 + 2 + 3 + 4 +

G|-----------------------------------------------------------------|
D|-----------------------------------------------------------------|
A|-----------------------------------------------------------------|
D|-0-0-0-0-----0-0---0-0---0-0-0-0-3-----3-----3-3---3-3---3-3-3-3-|
   1 + 2 + 3 + 4 + 1 + 2 + 3 + 4 + 1 + 2 + 3 + 4 + 1 + 2 + 3 + 4 +

G|-----------------------------------------------------------------|
D|-----------------------------------------------------------------|
A|-----------------------------------------------------------------|
D|-0-----0-----0-0---0-0---0-0-0-0-3---3---3---3---3---3---3---3---|
   1 + 2 + 3 + 4 + 1 + 2 + 3 + 4 + 1 + 2 + 3 + 4 + 1 + 2 + 3 + 4 +

2:52
G|-----------------------------------------------------------------|
D|-----------------------------------------------------------------|
A|-1-----1-1-1-1-1-1-1-1---1-1---1-----------------3-----3-3-3-3-3-|
D|---------------------------------0-----0-0-0-0-0-----------------|
   1 + 2 + 3 + 4 + 1 + 2 + 3 + 4 + 1 + 2 + 3 + 4 + 1 + 2 + 3 + 4 +

G|-----------------------------------------------------------------|
D|-----------------------------------------------------------------|
A|-1---1-1-1---1-1-1---1--/13----------------------3---3-3-3-3-3---|
D|-----------3---------------------0---0-0-0-0-0-------------------|
   1 + 2 + 3 + 4 + 1 + 2 + 3 + 4 + 1 + 2 + 3 + 4 + 1 + 2 + 3 + 4 +

G|-----------------------------------------------------------------|
D|-----------------------------------------------------------------|
A|-1---1-1-1---1-1-1---1-3-1-0-----5---\---------------------------|
D|-----------3-----------------3-----------0-----------------------|
   1 + 2 + 3 + 4 + 1 + 2 + 3 + 4 + 1 + 2 + 3 + 4 + 1 + 2 + 3 + 4 +

G|-----------------------------------------------------------------|
D|-----------------------------------------------------------------|
A|-5---\---------------------------5---\---------------------------|
D|---------0-------------------------------0-----------------------|
   1 + 2 + 3 + 4 + 1 + 2 + 3 + 4 + 1 + 2 + 3 + 4 + 1 + 2 + 3 + 4 +

G|-----------------------------------------------------------------|
D|-----------------------------------------------------------------|
A|-5---\-------------------0-------5---5-\-----------------0---0---|
D|---------0-------0h3-0h5-----------------0---0-0-3---5-----------|
   1 + 2 + 3 + 4 + 1 + 2 + 3 + 4 + 1 + 2 + 3 + 4 + 1 + 2 + 3 + 4 +

G|-----------------------------------------------------------------|
D|-----------------------------------------------------------------|
A|-5---5-\-----------------0---0---5---5-\-----------------0---0---|
D|---------0---0-0-3---5-------------------0---0-0-3---5-----------|
   1 + 2 + 3 + 4 + 1 + 2 + 3 + 4 + 1 + 2 + 3 + 4 + 1 + 2 + 3 + 4 +

G|-----------------------------------------------------------------|
D|-----------------------------------------------------------------|
A|-5---5-\-----------------0---0---5---\---------------------------|
D|---------0---0-0-3---5-------------------0-----------------------|
   1 + 2 + 3 + 4 + 1 + 2 + 3 + 4 + 1 + 2 + 3 + 4 + 1 + 2 + 3 + 4 +

===============================================================

Thick and Thin

Intro
G|-------------------------------------------------------------------|
D|o-----------------------------------------------------------------o|
A|o-----------------------------------------------------------------o|x3
D|--0----------------------------------------------------------------|
    1 + 2 + 3 + 4 + 1 + 2 + 3 + 4 + 1 + 2 + 3 + 4 + 1 + 2 + 3 + 4 +

G|-----------------------------------------------------------------|
D|-----------------------------------------------------------------|
A|-----------------------------------------------------------------|
D|-0-----------------------------------------------1--0----3--5----|
   1 + 2 + 3 + 4 + 1 + 2 + 3 + 4 + 1 + 2 + 3 + 4 + Triplet Triplet

0:21
G|-----------------------------------------------------------------|
D|-----------------------------------------------------------------|
A|---------------------------0-3-5-5-55-55-5-55-55-3-0-3-0---------|
D|-0-00-00-0-00-00-0-00-00-5-------------------------------5-3-2-0-|
   1 + 2 + 3 + 4 + 1 + 2 + 3 + 4 + 1 + 2 + 3 + 4 + 1 + 2 + 3 + 4 +

0:26
G|-----------------------------------------------------------------|
D|-----------------------------------------------------------------|
A|-----------------------------------------------------------------|
D|-0-0---0-0-0---0-0-0---0-0-0-2---3-3---3-3-3---3-3-3---3-3-3-3---|
   1 + 2 + 3 + 4 + 1 + 2 + 3 + 4 + 1 + 2 + 3 + 4 + 1 + 2 + 3 + 4 +

G|-----------------------------------------------------------------|
D|-----------------2-2-2-3-3-3-2-2---------------------------------|
A|-3-3---3-3-3---3-----------------1-1---1-1-1---1-----------------|
D|-------------------------------------------------7---\---3---2---|
   1 + 2 + 3 + 4 + 1 + 2 + 3 + 4 + 1 + 2 + 3 + 4 + 1 + 2 + 3 + 4 +

0:35
G|-----------------------------------------------------------------|
D|-----------------------------------------------------------------|
A|-----------------------------------------------------------------|
D|-0-0---0-0-0---0-0-0---0-0-0-0-2-3-3---3-3-3---3-3-3---3-3-3-3-5-|
   1 + 2 + 3 + 4 + 1 + 2 + 3 + 4 + 1 + 2 + 3 + 4 + 1 + 2 + 3 + 4 +

G|-----------------------------------------------------------------|
D|-----------------2-2-2-3-3-3-2-2---------------------------------|
A|-3-3---3-3-3---3-----------------1-1---1-1---1---0---------------|
D|----------------------------------------------------5--3-5--3--2-|
   1 + 2 + 3 + 4 + 1 + 2 + 3 + 4 + 1 + 2 + 3 + 4 + Triplet Triplet

0:46
G|-------------------------------------------------------------------|
D|o-----------------------------------------------------------------o|
A|o-------------------------------------------------3--1--0-1--0----o|x4
D|--1p0---1p0---00001p0---1p0---00001p0---1p0---0000--------------3--|
    1 + 2 + 3 + 4 + 1 + 2 + 3 + 4 + 1 + 2 + 3 + 4 + Triplet Triplet

1:12
G|-----------------------------------------------------------------|
D|-----------------------------------------------------------------|
A|-----------------3-----5-----3h5---------------------------------|
D|-0---0-------0-------------------3---3-------3-3-5-----3-----2h3-|
   1 + 2 + 3 + 4 + 1 + 2 + 3 + 4 + 1 + 2 + 3 + 4 + 1 + 2 + 3 + 4 +

G|-----------------------------------------------------------------|
D|-----------------------------------------------------------------|
A|-----------------3-----5-----3h5---------------------------------|
D|-0-0-0-------0-------------------3---3-------3-3-5-----3-----2---|
   1 + 2 + 3 + 4 + 1 + 2 + 3 + 4 + 1 + 2 + 3 + 4 + 1 + 2 + 3 + 4 +

G|-----------------------------------------------------------------|
D|-----------------------------------------------------------------|
A|-----------------3-----5-----3h5---------------------------------|
D|-0---0-------0-------------------3---3-------3-3-5---5-3---3-2---|
   1 + 2 + 3 + 4 + 1 + 2 + 3 + 4 + 1 + 2 + 3 + 4 + 1 + 2 + 3 + 4 +

G|---------------------------------------------------------------------------------|
D|---------------------------------------------------------------------------------|
A|-----------------3-----5-----3h5-------------------------------------------------|
D|-0---0-------0-0-----------------3---3---3-3-3-3-5---5-3---3-2h3-0---------------|
   1 + 2 + 3 + 4 + 1 + 2 + 3 + 4 + 1 + 2 + 3 + 4 + 1 + 2 + 3 + 4 + 1 + 2 + 3 + 4 +

1:33
G|-------------------------------------------------------------------|
D|o-----------------------------------------------------------------o|
A|o-----------------------------------------------------------------o|
D|--0---3---2---0---3---0---6---7---5---8---7---5---3---2---3---0----|
    1 + 2 + 3 + 4 + 1 + 2 + 3 + 4 + 1 + 2 + 3 + 4 + 1 + 2 + 3 + 4 +

1:42
G|-----------------------------------------------------------------|
D|-----------------------------------------------------------------|
A|-----------------3-----5-----3h5---------------------------------|
D|-0---0-------0-0-----------------3---3-------3-3-5---5-3---3-2---|
   1 + 2 + 3 + 4 + 1 + 2 + 3 + 4 + 1 + 2 + 3 + 4 + 1 + 2 + 3 + 4 +

G|-----------------------------------------------------------------|
D|-----------------------------------------------------------------|
A|-----------------3-----5-----3h5---------------------------------|
D|-0---0-------0-0-----------------3---3-------3-3-5-----3-----2h3-|
   1 + 2 + 3 + 4 + 1 + 2 + 3 + 4 + 1 + 2 + 3 + 4 + 1 + 2 + 3 + 4 +

G|-----------------------------------------------------------------|
D|-----------------------------------------------------------------|
A|-----------------3-----5-----3h5---------------------------------|
D|-0---0-------0-0-----------------3---3-------3-3-5-5-5-3---3-2h3-|
   1 + 2 + 3 + 4 + 1 + 2 + 3 + 4 + 1 + 2 + 3 + 4 + 1 + 2 + 3 + 4 +

G|---------------------------------------------------------------------------------|
D|---------------------------------------------------------------------------------|
A|-----------------3-----5-----3h5-------------------------------------------------|
D|-0---0-------0-0-----------------3---3-------3-3-5---5-3---3-2h3-0---------------|
   1 + 2 + 3 + 4 + 1 + 2 + 3 + 4 + 1 + 2 + 3 + 4 + 1 + 2 + 3 + 4 + 1 + 2 + 3 + 4 +

2:03
G|-------------------------------------------------------------------|
D|o-----------------------------------------------------------------o|
A|o-----------------------------------------------------------------o|
D|--0---3---2---0---3---0---6---7---5---8---7---5---3---2---3---0----|
    1 + 2 + 3 + 4 + 1 + 2 + 3 + 4 + 1 + 2 + 3 + 4 + 1 + 2 + 3 + 4 +

2:12
G|-------------------------------------------------------------------|
D|o-----------------------------------------------------------------o|
A|o-1p0---0h1p0---0h1p0---0h1p0-------------------------------------o|
D|----------------------------------1p0-----3---5---1p0-----3---5----|
    1 + 2 + 3 + 4 + 1 + 2 + 3 + 4 + 1 + 2 + 3 + 4 + 1 + 2 + 3 + 4 +

G|-----------------------------------------------------------------|
D|-----------------------------------------------------------------|
A|-----------------------------------------------------------------|
D|-3-------------------0---2---3---5---5---5---5---6---------------|
   1 + 2 + 3 + 4 + 1 + 2 + 3 + 4 + 1 + 2 + 3 + 4 + 1 + 2 + 3 + 4 +

2:27
G|-------------------------------------------------------------------|
D|o-----------------------------------------------------------------o|
A|o-----------------------------------------------------------------o|x4
D|--0-0-0-------0---0---0---3---5---0-0-0-------0---0---0---6-5-3-3--|
    1 + 2 + 3 + 4 + 1 + 2 + 3 + 4 + 1 + 2 + 3 + 4 + 1 + 2 + 3 + 4 +

G|-----------------------------------------------------------------|
D|-----------------------------------------------------------------|
A|-----------------------------------------------------------------|
D|-3-------------------0---2---3---5---5---5---5---6---------------|
   1 + 2 + 3 + 4 + 1 + 2 + 3 + 4 + 1 + 2 + 3 + 4 + 1 + 2 + 3 + 4 +

G|-------------------------------------------------------------------|
D|o-----------------------------------------------------------------o|
A|o-----------------------------------------------------------------o|x4
D|--0-0-0-------0---0---0---3---5---0-0-0-------0---0---0---6-5-3-3--|
    1 + 2 + 3 + 4 + 1 + 2 + 3 + 4 + 1 + 2 + 3 + 4 + 1 + 2 + 3 + 4 +

G|-----------------------------------------------------------------|
D|-----------------------------------------------------------------|
A|-----------------------------------------------------------------|
D|-3-------------------0---2---3---5---5---5---5---6---6---6---6---|
   1 + 2 + 3 + 4 + 1 + 2 + 3 + 4 + 1 + 2 + 3 + 4 + 1 + 2 + 3 + 4 +

3:15
G|-----------------------------------------------------------------|
D|-----------------------------------------------------------------|
A|-5-----------------------------------------------0---------------|
D|-----------------1--0----3--5----0------------------5--3-5--3--2-|
   1 + 2 + 3 + 4 + Triplet Triplet 1 + 2 + 3 + 4 + Triplet Triplet 

3:21
G|-----------------------------------------------------------------|
D|-----------------------------------------------------------------|
A|-----------------------------------------------------------0-2-5-|
D|-0-0---0-0-0---0-0-0---0-0-0-2-2-3-3---3-3-3---3-3-3---3-3-------|
   1 + 2 + 3 + 4 + 1 + 2 + 3 + 4 + 1 + 2 + 3 + 4 + 1 + 2 + 3 + 4 +

G|-----------------------------------------------------------------|
D|-----------------2-2-2-3-3-3-2-2---------------------------------|
A|-3-3---3-3-3---3-----------------1-1---1-1-1-1-1-----------------|
D|-------------------------------------------------7---7-\-3---2---|
   1 + 2 + 3 + 4 + 1 + 2 + 3 + 4 + 1 + 2 + 3 + 4 + 1 + 2 + 3 + 4 +

G|-----------------------------------------------------------------|
D|-----------------------------------------------------------------|
A|-----------------------------------------------------------------|
D|-0-0---0-0-0---0-0-0---0-0-0-0-2-3-3---3-3-3---3-3-3---3-3-3-3-5-|
   1 + 2 + 3 + 4 + 1 + 2 + 3 + 4 + 1 + 2 + 3 + 4 + 1 + 2 + 3 + 4 +

G|-----------------------------------------------------------------|
D|-----------------2-2-2-3-3-3-2-2---------------------------------|
A|-3-3---3-3-3---3-----------------1-1---1-1---1---0---------------|
D|----------------------------------------------------5--3-5--3--2-|
   1 + 2 + 3 + 4 + 1 + 2 + 3 + 4 + 1 + 2 + 3 + 4 + Triplet Triplet

3:40
G|-------------------------------------------------------------------|
D|o-----------------------------------------------------------------o|
A|o-------------------------------------------------3--1--0-1--0----o|x4
D|--1p0---1p0---00001p0---1p0---00001p0---1p0---0000--------------3--|
    1 + 2 + 3 + 4 + 1 + 2 + 3 + 4 + 1 + 2 + 3 + 4 + Triplet Triplet

G|-----------------------------------------------------------------|
D|-----------------------------------------------------------------|
A|-----------------------------------------------------------------|
D|-0---------------------------------------------------------------|
   1 + 2 + 3 + 4 + 1 + 2 + 3 + 4 + 1 + 2 + 3 + 4 + 1 + 2 + 3 + 4 +

===============================================================

Streets

G|-----------------------------------------------------------------|
D|---------------------------------2h3-3-3-3-3-3-3-3---3---3---3-2-|
A|-0---0-0-0---0-0-0-0-0-0-0-0-0-0---------------------------------|
D|-----------------------------------------------------------------|
   1 + 2 + 3 + 4 + 1 + 2 + 3 + 4 + 1 + 2 + 3 + 4 + 1 + 2 + 3 + 4 +

G|-----------------------------------------------------------------|
D|---------------------------------0h2-2---2---2---2---2---2---2---|
A|-3---3-3-3---3-3-3-3-3-3-3-3-3-3---------------------------------|
D|-----------------------------------------------------------------|
   1 + 2 + 3 + 4 + 1 + 2 + 3 + 4 + 1 + 2 + 3 + 4 + 1 + 2 + 3 + 4 +

0:07
G|-----------------------------------------------------------------|
D|---------------------------------2h3-3---3---3---3---3---3---3-2-|
A|-0---0---0---0-0-0---0-0-0-0-0-----------------------------------|
D|-----------------------------------------------------------------|
   1 + 2 + 3 + 4 + 1 + 2 + 3 + 4 + 1 + 2 + 3 + 4 + 1 + 2 + 3 + 4 +

G|-----------------------------------------------------------------|
D|---------------------------------2---2---2---2---2---2---2---2---|
A|-3---3-3-3-3-3---3---3---3---3-----------------------------------|
D|-----------------------------------------------------------------|
   1 + 2 + 3 + 4 + 1 + 2 + 3 + 4 + 1 + 2 + 3 + 4 + 1 + 2 + 3 + 4 +

0:14
G|-----------------------------------------------------------------|
D|---------------------------------3---3---3---3-3-3---3---3---3-2-|
A|-0---0---0---0-0-0---0---0---0-0---------------------------------|
D|-----------------------------------------------------------------|
   1 + 2 + 3 + 4 + 1 + 2 + 3 + 4 + 1 + 2 + 3 + 4 + 1 + 2 + 3 + 4 +

G|-----------------------------------------------------------------|
D|---------------------------------2---2---2---2-2-2---2---2-------|
A|-3---3---3---3-3-3---3---3---3-3-----------------------------3---|
D|-----------------------------------------------------------------|
   1 + 2 + 3 + 4 + 1 + 2 + 3 + 4 + 1 + 2 + 3 + 4 + 1 + 2 + 3 + 4 +

G|-----------------------------------------------------------------|
D|---------------------------------3---3---3---3-3-3---3---3---3-2-|
A|-0---0---0---0-0-0---0---0---0-0---------------------------------|
D|-----------------------------------------------------------------|
   1 + 2 + 3 + 4 + 1 + 2 + 3 + 4 + 1 + 2 + 3 + 4 + 1 + 2 + 3 + 4 +

G|-----------------------------------------------------------------|
D|---------------------------------2---2---2---2---2---2---2---2---|
A|-3---3---3---3-3-3---3---3---3-3---------------------------------|
D|-----------------------------------------------------------------|
   1 + 2 + 3 + 4 + 1 + 2 + 3 + 4 + 1 + 2 + 3 + 4 + 1 + 2 + 3 + 4 +

G|-----------------------------------------------------------------|
D|-----------------------------------------------------------------|
A|-0---------------------------------------------------------------|
D|-----------------------------------------------------------------|
   1 + 2 + 3 + 4 + 1 + 2 + 3 + 4 + 1 + 2 + 3 + 4 + 1 + 2 + 3 + 4 +

0:31
G|-----------------------------------------------------------------|
D|-----------------3-3---3-3--3--3-----------------2-2---2-2-------|
A|-0-----0-0--0--0-----------------3-3---3-3--3--3-------------3-2-|
D|-----------------------------------------------------------------|
   1 + 2 + Triplet 1 + 2 + Triplet 1 + 2 + Triplet 1 + 2 + 3 + 4 +

G|-----------------------------------------------------------------|
D|-----------------3-3---3-3--3--3-----------------2---2---2---2---|
A|-0-0---0-0--0--0-----------------3-3---3-3--3--3-----------------|
D|-----------------------------------------------------------------|
   1 + 2 + Triplet 1 + 2 + Triplet 1 + 2 + Triplet 1 + 2 + 3 + 4 +

0:41
G|-----------------------------------------------------------------|
D|-----------------3-3---3-3--3--5-----------------2-2---2-2-------|
A|-0-0---0-0--0--0-----------------3-3---3-3--3--3-------------3-2-|
D|-----------------------------------------------------------------|
   1 + 2 + Triplet 1 + 2 + Triplet 1 + 2 + Triplet 1 + 2 + 3 + 4 +

G|-----------------------------------------------------------------|
D|-----------------3-3---3-3--3--3-----------------2-2-2-2-2-2-2-2-|
A|-0-0---0-0--0--0-----------------3-3---3-3--3--3-----------------|
D|-----------------------------------------------------------------|
   1 + 2 + Triplet 1 + 2 + Triplet 1 + 2 + Triplet 1 + 2 + 3 + 4 +

0:52
G|-----------------------------------------------------------------|
D|-3-3---3-3--3--2---------------2-0-0---0-0--0--0-----------------|
A|-----------------3-3---3-3--3--------------------0-0---0-0--0--0-|
D|-----------------------------------------------------------------|
   1 + 2 + Triplet 1 + 2 + Triplet 1 + 2 + Triplet 1 + 2 + Triplet

G|-----------------------------------------------------------------|
D|-3-3---3-3--3--2-----------------2-2-2-2-2-2-2-2-2---------------|
A|-----------------3-3---3-3--3--3---------------------------------|
D|-----------------------------------------------------------------|
   1 + 2 + Triplet 1 + 2 + Triplet 1 + 2 + 3 + 4 + 1 + 2 + 3 + 4 +

1:01
G|-----------------------------------------------------------------|
D|-3-3---3-3--3--2------------3--2-0-0---0-0--0--0---------------2-|
A|-----------------3-3---3-3-----------------------0-0---0-0--0----|
D|-----------------------------------------------------------------|
   1 + 2 + Triplet 1 + 2 + Triplet 1 + 2 + Triplet 1 + 2 + Triplet

G|-----------------------------------------------------------------|
D|-3-3---3-3--3--2-----------------2-2-2-2-2-2-2-2-2---------------|
A|-----------------3-3---3-3--3--3---------------------------------|
D|-----------------------------------------------------------------|
   1 + 2 + Triplet 1 + 2 + Triplet 1 + 2 + 3 + 4 + 1 + 2 + 3 + 4 +

1:11
G|-----------------------------------------------------------------|
D|-----------------------------------------------------------------|
A|-0---0-0-0---0-0-0-0-0-0-0h3---3---------------------------------|
D|---------------------------------3---3-3-3-3-3---5---5-5-5-5-5---|
   1 + 2 + 3 + 4 + 1 + 2 + 3 + 4 + 1 + 2 + 3 + 4 + 1 + 2 + 3 + 4 +

G|-----------------------------------------------------------------|
D|-----------------------------------------------------------------|
A|-0---0-0-0-0-0-0-0-0-0-0-0h3---3---------------------------------|
D|---------------------------------3---3-3-3-3-3-3-5---5-5-5-5-5-5-|
   1 + 2 + 3 + 4 + 1 + 2 + 3 + 4 + 1 + 2 + 3 + 4 + 1 + 2 + 3 + 4 +

1:20
G|-----------------------------------------------------------------|
D|-----------------------------------------------------------------|
A|-0---0-0-0-0-0-0-0-0-0-0-0h3---3---------------------------------|
D|---------------------------------3---3-3-3-3-3-3-5---5-5-5-5-5-5-|
   1 + 2 + 3 + 4 + 1 + 2 + 3 + 4 + 1 + 2 + 3 + 4 + 1 + 2 + 3 + 4 +

G|-----------------------------------------------------------------|
D|-----------------------------------------------------------------|
A|-0---0-0-0-0-0-0-0-0-0-0-0h3---3---------------------------------|
D|---------------------------------3---3-3-3-3-3---5---5---5-5-5-5-|
   1 + 2 + 3 + 4 + 1 + 2 + 3 + 4 + 1 + 2 + 3 + 4 + 1 + 2 + 3 + 4 +

1:30
G|-----------------------------------------------------------------|
D|-----------------------------------------------------------------|
A|-0---0---0-0-0-------------------3---3---3-3-3-------------------|
D|---------------3---3-3-3-3---3-----------------5---5-5---5---5---|
   1 + 2 + 3 + 4 + 1 + 2 + 3 + 4 + 1 + 2 + 3 + 4 + 1 + 2 + 3 + 4 +

G|-----------------------------------------------------------------|
D|-----------------------------------------------------------------|
A|-0---0---0---0-------------------3---3---3---3--/7---7---7---7---|
D|-----------------3---3---3---3-----------------------------------|
   1 + 2 + 3 + 4 + 1 + 2 + 3 + 4 + 1 + 2 + 3 + 4 + 1 + 2 + 3 + 4 +

1:39
G|-----------------------------------------------------------------|
D|-----------------3-3---3-3--3--3-----------------2-2---2-2--2--3-|
A|-0-0---0-0--0--0-----------------3-3---3-3--3--3-----------------|
D|-----------------------------------------------------------------|
   1 + 2 + Triplet 1 + 2 + Triplet 1 + 2 + Triplet 1 + 2 + Triplet

G|-----------------------------------------------------------------|
D|-----------------3-3---3-3--3--2-----------------2---2---2---2---|
A|-0-0---0-0--0--0-----------------3-3---3-3--3--3-----------------|
D|-----------------------------------------------------------------|
   1 + 2 + Triplet 1 + 2 + Triplet 1 + 2 + Triplet 1 + 2 + 3 + 4 +

1:49
G|-----------------------------------------------------------------|
D|---------------2-3-3---3-3--3--3-----------------2-2---2-2-0-----|
A|-0-0---0-0--0--------------------3-3---3-3--3--3-------------3-2-|
D|-----------------------------------------------------------------|
   1 + 2 + Triplet 1 + 2 + Triplet 1 + 2 + Triplet 1 + 2 + 3 + 4 +

G|-----------------------------------------------------------------|
D|-----------------3-3---3-3--3--2-----------------2---2---2---2---|
A|-0-0---0-0--0--0-----------------3-3---3-3-3-3-3-----------------|
D|-----------------------------------------------------------------|
   1 + 2 + Triplet 1 + 2 + Triplet 1 + 2 + 3 + 4 + 1 + 2 + 3 + 4 +


1:58
G|-----------------------------------------------------------------|
D|-3-3---3-3--3--2-------------2-2-0-0---0-0-2-3-2-----------------|
A|-----------------3-3---3-3-----------------------0-0---0-0--0--0-|
D|-----------------------------------------------------------------|
   1 + 2 + Triplet 1 + 2 + 3 + 4 + 1 + 2 + 3 + 4 + 1 + 2 + Triplet

G|-----------------------------------------------------------------|
D|-3-3---3-3--3--2-----------------2-2-2-2-2-2-2-2-2---------------|
A|-----------------3-3---3-3--3--3---------------------------------|
D|-----------------------------------------------------------------|
   1 + 2 + Triplet 1 + 2 + Triplet 1 + 2 + 3 + 4 + 1 + 2 + 3 + 4 +

2:08
G|-----------------------------------------------------------------|
D|-3-3---3-3--3--2---------------2-0-0---0-0--2--3------------0--2-|
A|-----------------3-3---3-3--3--------------------0-0---0-0-------|
D|-----------------------------------------------------------------|
   1 + 2 + Triplet 1 + 2 + Triplet 1 + 2 + Triplet 1 + 2 + Triplet

G|-----------------------------------------------------------------|
D|-3-3---3-3--3--2-----------------2-2-2-2-2-2-2-2-2---------------|
A|-----------------3-3---3-3--3--3---------------------------------|
D|-----------------------------------------------------------------|
   1 + 2 + Triplet 1 + 2 + Triplet 1 + 2 + 3 + 4 + 1 + 2 + 3 + 4 +

2:17
G|-----------------------------------------------------------------|
D|-----------------------------------------------------------------|
A|-0---------------------------------------------------------------|
D|-----------------------------------------------------------------|
   1 + 2 + 3 + 4 + 1 + 2 + 3 + 4 + 1 + 2 + 3 + 4 + 1 + 2 + 3 + 4 +

G|-----------------------------------------------------------------|
D|-----------------------------------------------------------------|
A|-0---------------------------------------------------------------|
D|---------------------------------3-3-3-3-3-3-3-3-5-5-5-5-5-5-5-5-|
   1 + 2 + 3 + 4 + 1 + 2 + 3 + 4 + 1 + 2 + 3 + 4 + 1 + 2 + 3 + 4 +

2:27
G|-----------------------------------------------------------------|
D|-----------------------------------------------------------------|
A|-0---0-0-0---0-0-0---0-0-0h3---3---------------------------------|
D|---------------------------------3---3-3-3-3-3-3-5---5-5-5-5-5-5-|
   1 + 2 + 3 + 4 + 1 + 2 + 3 + 4 + 1 + 2 + 3 + 4 + 1 + 2 + 3 + 4 +

G|-----------------------------------------------------------------|
D|-----------------------------------------------------------------|
A|-0---0-0-0-0-0-0-0-0-0-0-0h3---3---------------------------------|
D|---------------------------------3---3-3-3-3-3-3-5---5-5-5-5-5-5-|
   1 + 2 + 3 + 4 + 1 + 2 + 3 + 4 + 1 + 2 + 3 + 4 + 1 + 2 + 3 + 4 +

2:36
G|-----------------------------------------------------------------|
D|-----------------------------------------------------------------|
A|-0---0-0-0-0-0-0-0-0-0-0-0h3-------------------------------------|
D|---------------------------------3---3-3-3-3-3-/-5---5-5-5-5-5-/-|
   1 + 2 + 3 + 4 + 1 + 2 + 3 + 4 + 1 + 2 + 3 + 4 + 1 + 2 + 3 + 4 +

G|-----------------------------------------------------------------|
D|-----------------------------------------------------------------|
A|-----0-0-0-0-0-0-0-0-0-0-0h3-------------------------------------|
D|-7-------------------------------3---3-3-3-3-3-/-5---5-5-5-5-5-/-|
   1 + 2 + 3 + 4 + 1 + 2 + 3 + 4 + 1 + 2 + 3 + 4 + 1 + 2 + 3 + 4 +

G|-----------------------------------------------------------------|
D|-----------------------------------------------------------------|
A|-----0-0-0-0-0-0-0-0-0-0-0h3-------------------------------------|
D|-7-------------------------------3---3-3-3-3-3-/-5---5-5-5-5-5-/-|
   1 + 2 + 3 + 4 + 1 + 2 + 3 + 4 + 1 + 2 + 3 + 4 + 1 + 2 + 3 + 4 +

G|-----------------------------------------------------------------|
D|-----------------------------------------------------------------|
A|-----0-0-0-0-0-0-0-0-0-0-0h3---3---------------------------------|
D|-7-------------------------------3---3-3-3-3-3-/-5---5-5-5-5-5-/-|
   1 + 2 + 3 + 4 + 1 + 2 + 3 + 4 + 1 + 2 + 3 + 4 + 1 + 2 + 3 + 4 +

G|-----------------------------------------------------------------|
D|-----------------------------------------------------------------|
A|-0---------------------------------------------------------------|
D|-----------------------------------------------------------------|
   1 + 2 + 3 + 4 + 1 + 2 + 3 + 4 + 1 + 2 + 3 + 4 + 1 + 2 + 3 + 4 +

=================================================================

Shattered By Broken Dreams

1:04
G|-----------------------------------------------------------------|
D|-----------------------------------------------------------------|
A|-3---3---3-----3---3-3---3---------------------------------------|
D|-----------------------------5-5-2---2---2---2-2---2-2---2---5-5-|
   1 e + a 2 e + a 3 e + a 4 e + a 1 e + a 2 e + a 3 e + a 4 e + a

G|-----------------------------------------------------------------|
D|-----------------------------------------------------------------|
A|-0---0---0---0-0---0-0---0---0-0---------------------2-3-5-3-2-2-|
D|---------------------------------5---5---5-----5---5-------------|
   1 e + a 2 e + a 3 e + a 4 e + a 1 e + a 2 e + a 3 e + a 4 e + a

1:19
G|-----------------------------------------------------------------|
D|-----------------------------------------------2---------2-------|
A|-3-------3-----3---2-3-2-2-0-----------------2---------2-----3-2-|
D|-----------------------------5-4-2-------2-----------------------|
   1 e + a 2 e + a 3 e + a 4 e + a 1 e + a 2 e + a 3 e + a 4 e + a

G|-----------------------------------------------------------------|
D|-----------------------------------------------------------------|
A|-0-------0-----0-0-0-0---0---------------------------------2-3-5-|
D|---------------------------0-2-4-5---5---5---5---5---5---5-------|
   1 e + a 2 e + a 3 e + a 4 e + a 1 e + a 2 e + a 3 e + a 4 e + a

1:34
G|-----------------------------------------------------------------|
D|-----------------------------------------------2-----2-----------|
A|-3---3-3-3---3-3---3-3---3-2-----------------2-----2-------------|
D|-----------------------------5-4-2-------2---------------2-2-5-5-|
   1 e + a 2 e + a 3 e + a 4 e + a 1 e + a 2 e + a 3 e + a 4 e + a

G|-----------------------------------------------------------------|
D|-----------------------------------------------------------------|
A|-0-------0-----0---0-0-0-0---0-0---------------------------------|
D|---------------------------------5---5---5---5---5---5---5---5---|
   1 e + a 2 e + a 3 e + a 4 e + a 1 e + a 2 e + a 3 e + a 4 e + a

1:49
G|-----------------------------------------------------------------|
D|-----------------------------------------------------------------|
A|-3---3-3-3---3-3---3-3---3-2-------------------------------------|
D|-----------------------------5-4-2---2---2---2---2---2---2-2-5-5-|
   1 e + a 2 e + a 3 e + a 4 e + a 1 e + a 2 e + a 3 e + a 4 e + a

G|-----------------------------------------------------------------|
D|-----------------------------------------------------------------|
A|-0---0-0-0---0-0---0-0---0-0-0-0---------------------------------|
D|---------------------------------5---5---5---5---5---5---5---5---|
   1 e + a 2 e + a 3 e + a 4 e + a 1 e + a 2 e + a 3 e + a 4 e + a

2:04
G|-----------------------------------------------------------------|
D|-----------------------------------------------------------------|
A|-----------------------------3-2-0---0-0-0-0-0-0-0-0-0-0-0-0-3-2-|
D|-2---2-2-2-2-2-2-3-2-0-2-3-2-------------------------------------|
   1 e + a 2 e + a 3 e + a 4 e + a 1 e + a 2 e + a 3 e + a 4 e + a

G|-----------------------------------------------------------------|
D|-----------------------------------------------------------------|
A|-0---0-0-0-0-0-0-0-0-0-0-0-0-3-2-0---0-0-0-0-0-0-0-0-0-0-0-0-3-2-|
D|-----------------------------------------------------------------|
   1 e + a 2 e + a 3 e + a 4 e + a 1 e + a 2 e + a 3 e + a 4 e + a

2:19
G|---------------------------------|
D|---------------------------------|
A|-0---0-0-0-0-0-0-0-0-----3-0-----|
D|---------------------------------|
   1 e + a 2 e + a 3 e + a 4 e + a 

2:22
G|-------------------------------------------------------------------|
D|o-----------------------------------------------------------------o|
A|o-0---0-0-0---------------0-2-----0---0-0-0---------------0-2-----o|
D|------------3-3-3-3-2-2-2-------------------3-3-3-3-2-2-2----------|
    1 e + a 2 e + a 3 e + a 4 e + a 1 e + a 2 e + a 3 e + a 4 e + a

2:37
G|-----------------------------------------------------------------|
D|-----------------------------------------------------------------|
A|-0---------------------------------------------------------------|
D|-----------------------------------------------------------------|
   1 e + a 2 e + a 3 e + a 4 e + a 1 e + a 2 e + a 3 e + a 4 e + a

G|-----------------------------------------------------------------|
D|--------------------------------------------------/7-3-2-----3-2-|
A|---------------------------------------------------------3-2-----|
D|-----------------------------------------------------------------|
   1 e + a 2 e + a 3 e + a 4 e + a 1 e + a 2 e + a 3 e + a 4 e + a

2:51
G|------------------------------------------------------------------|
D|-----------------------2-3-3--------------------------------------|
A|-------------------2-3-------3-2------------------/7-8-7------8-7-|
D|-7---\---3-----------------------7---\-------------------10-9-----|
   1 e + a 2 e + a 3 e + a 4 e + a 1 e + a 2 e + a 3 e + a 4  e + a

G|-----------------------------------------------------------------|
D|-------------------/-7-----------------------------------0-2-3-2-|
A|-------------------------8---7---------------------0-2-3---------|
D|-7---\---------------------------7---\---------------------------|
   1 e + a 2 e + a 3 e + a 4 e + a 1 e + a 2 e + a 3 e + a 4 e + a

3:05
G|-----------------------------------------------------------------|
D|-----------------------------------------------------------------|
A|-0---0---0---0---0---0---0---0---0---0---0---0---0---------------|
D|-----------------------------------------------------------------|
   1 e + a 2 e + a 3 e + a 4 e + a 1 e + a 2 e + a 3 e + a 4 e + a

3:11 faster tempo
G|-----------------------------------------------------------------|
D|-----------------------------------------------------------------|
A|-----------------------------------------------------------------|
D|-0---0-0---0-0---0---0-0---0-0---2---2-2---2-2---2-------2---2---|
   1 e + a 2 e + a 3 e + a 4 e + a 1 e + a 2 e + a 3 e + a 4 e + a

G|-----------------------------------------------------------------|
D|-----------------------------------------------------------------|
A|-------------------------------------------------3-------2-------|
D|-------0---0-0---0---0-0---0-0---2-------2-----------------------|
   1 e + a 2 e + a 3 e + a 4 e + a 1 e + a 2 e + a 3 e + a 4 e + a

3:17
G|-----------------------------------------------------------------|
D|-----------------------------------------------------------------|
A|-0-0-0-0-0-0-0-0-0-0-0-0-0-0-0-0-3-3-3-3-3-3-3-3-3-3-3-3-3-3-3-3-|
D|-----------------------------------------------------------------|
   1 e + a 2 e + a 3 e + a 4 e + a 1 e + a 2 e + a 3 e + a 4 e + a

G|-----------------------------------------------------------------|
D|-----------------------------------------------------------------|
A|-----------------------------------------------------2---3---2---|
D|-5-5-5-5-5-5-5-5-5-5-5-5-5-5-5-5-2-2-2-2-2-2-2-2-2---------------|
   1 e + a 2 e + a 3 e + a 4 e + a 1 e + a 2 e + a 3 e + a 4 e + a

3:24
G|-----------------------------------------------------------------|
D|-----------------------------------------------------------------|
A|-0-0-0-0-0-0-0-0-0-0-0-0-0-0-0-0-3-3-3-3-3-3-3-3-3-3-3-3-3-3-3-3-|
D|-----------------------------------------------------------------|
   1 e + a 2 e + a 3 e + a 4 e + a 1 e + a 2 e + a 3 e + a 4 e + a

G|-----------------------------------------------------------------|
D|-----------------------------------------------------------------|
A|-----------------------------------------------------------------|
D|-5-5-5-5-5-5-5-5-5-5-5-5-5-5-5-5-2-------2-------2-------2-------|
   1 e + a 2 e + a 3 e + a 4 e + a 1 e + a 2 e + a 3 e + a 4 e + a

3:30
G|-----------------------------------------------------------------|
D|-----------------------------------------------------------------|
A|-0---0-0---0-0---0---0-0---0-2---3---3-3---3-3---3---5---3---2---|
D|-----------------------------------------------------------------|
   1 e + a 2 e + a 3 e + a 4 e + a 1 e + a 2 e + a 3 e + a 4 e + a

G|-----------------------------------------------------------------|
D|-----------------------------------------------------------------|
A|-----------------------2-----------------------------------------|
D|-5---5-5---5-5---5---5-------5---2---2-2---2-2---2---2-2---2-2---|
   1 e + a 2 e + a 3 e + a 4 e + a 1 e + a 2 e + a 3 e + a 4 e + a

3:36
G|-----------------------------------------------------------------|
D|-----------------------------------------------------------------|
A|-0---0-0---0-0---0---0-0---0-2---3---3-3---3-3---3---3-3---3-3---|
D|-----------------------------------------------------------------|
   1 e + a 2 e + a 3 e + a 4 e + a 1 e + a 2 e + a 3 e + a 4 e + a

G|-----------------------------------------------------------------|---|
D|-----------------------------------------------------------------|---|
A|-----------------------------------------------------------------|-0-|
D|-5---5-5---5-5---5---5-5---5-5---2---2---2---2---2---2---2---2---|---|
   1 e + a 2 e + a 3 e + a 4 e + a 1 e + a 2 e + a 3 e + a 4 e + a

rest

3:48 slower tempo
G|-------------------------------------------------------------------|  |---|
D|o-----------------------------------------------------------------o|x4|---|
A|o-0-0-0-------------------3---2---0-0-0-------------------3---2---o|  |-0-|
D|------------0-2-3-0-0-0---------------------0-2-3-0-0-0------------|  |---|
    1 e + a 2 e + a 3 e + a 4 e + a 1 e + a 2 e + a 3 e + a 4 e + a

Pause

4:21
G|-----------------------------------------------------------------|
D|-------------------------------------2-------2-------2-----------|
A|-3-----3-3---3-3-3---3-3-3-2-------------------------------------|
D|-----------------------------5-4-2-------2-----2---2-----2---5-5-|
   1 e + a 2 e + a 3 e + a 4 e + a 1 e + a 2 e + a 3 e + a 4 e + a

G|-----------------------------------------------------------------|
D|-----------------------------------------------------------------|
A|-0-----0-0-----0-0-0-2---3---2-----------------------------2-3-5-|
D|---------------------------------5---5---5---5---5---5---5-------|
   1 e + a 2 e + a 3 e + a 4 e + a 1 e + a 2 e + a 3 e + a 4 e + a

4:34
G|-----------------------------------------------------------------|
D|-----------------------------------------------------------------|
A|-3---3-3-3-----3-3-2-3-5-3-2---------------------------------3-2-|
D|-----------------------------5-4-2---2---2-2-2-2---2-2---2-2-----|
   1 e + a 2 e + a 3 e + a 4 e + a 1 e + a 2 e + a 3 e + a 4 e + a

G|-----------------------------------------------------------------|
D|-----------------------------------------------------------------|
A|-0-----0-0---------0-0---0-0-------------------------------2-3-5-|
D|-----------------------------2-4-5---5---5---5---5---5---5-------|
   1 e + a 2 e + a 3 e + a 4 e + a 1 e + a 2 e + a 3 e + a 4 e + a

4:47
G|-----------------------------------------------------------------|
D|-----------------------------------------------------------------|
A|-3---3-3-3-3---3-3---3---3-2---------------------------------2---|
D|-----------------------------5-4-2---2-2-2-2---2-2-2-2-2-2-------|
   1 e + a 2 e + a 3 e + a 4 e + a 1 e + a 2 e + a 3 e + a 4 e + a

G|-----------------------------------------------------------------|
D|-----------------------------------------------------------------|
A|-0-----0-0-0---0-0-0-2-2-3-3-5-5---------------------------2-3-5-|
D|---------------------------------5---5---5---5---5---5---5-------|
   1 e + a 2 e + a 3 e + a 4 e + a 1 e + a 2 e + a 3 e + a 4 e + a

5:00
G|-----------------------------------------------------------------|
D|-----------------------------------------------------------------|
A|-3---3-3-3-3-3-3-3-3-3-3-3-3---------------------------------3-2-|
D|-----------------------------5-4-2---2-2-2-2-2-2-2-2-2-2-2-2-----|
   1 e + a 2 e + a 3 e + a 4 e + a 1 e + a 2 e + a 3 e + a 4 e + a

G|-----------------------------------------------------------------|
D|-----------------------------------------------------------------|
A|-0---0-0-0-0-0-0-0-0-0-0-0-0-------------------------------------|
D|-----------------------------2-4-5---5---5---5---5---5---5---5---|
   1 e + a 2 e + a 3 e + a 4 e + a 1 e + a 2 e + a 3 e + a 4 e + a

5:13
G|-----------------------------------------------------------------|
D|-----------------------------------------------------------------|
A|-----------------------------------------------------------------|
D|-2-------------------------------2-------------------------------|
   1 e + a 2 e + a 3 e + a 4 e + a 1 e + a 2 e + a 3 e + a 4 e + a

5:19 faster tempo
G|------------------------------------------------------------------|
D|o-----------------------------------------------------------------|
A|o-----------------------------------------------------------------|
D|--2---2-2---2-2---2---2-2---2-2---5---5-5---5-5---5---5-5---5-5---|
    1 e + a 2 e + a 3 e + a 4 e + a 1 e + a 2 e + a 3 e + a 4 e + a

G|------------------------------------------------------------------|
D|-----------------------------------------------------------------o|
A|-----------------------------------------------------------------o|
D|-0-0-0-0-0-0-0-0-0-0-0-0-0-0-0-0-0-0-0-0-0-0-0-0-0-0-0-0-0-0-0-0--|
   1 e + a 2 e + a 3 e + a 4 e + a 1 e + a 2 e + a 3 e + a 4 e + a

5:31
G|-----------------------------------------------------------------|
D|-----------------------------------------------------------------|
A|-----------------------------------------------------------------|
D|-2---2-2---2-2---2---2-2---2-2---5---5-5---5-5---5---5-5---5-5---|
   1 e + a 2 e + a 3 e + a 4 e + a 1 e + a 2 e + a 3 e + a 4 e + a

G|-----------------------------------------------------------------|
D|-----------------------------------------------------------------|
A|-----------------------------------------------------------------|
D|-0---0-0---0-0---0---0-0---0-0---0-0-0-0-0-0-0-0-0-0-0-0-0-0-0-0-|
   1 e + a 2 e + a 3 e + a 4 e + a 1 e + a 2 e + a 3 e + a 4 e + a

5:37
G|-----------------------------------------------------------------|
D|-----------------------------------------------------------------|
A|-----------------------------------------------------------------|
D|-2---2-2---2-2---2---2-2---2-2---5---5-5---5-5---5---5-5---5-5---|
   1 e + a 2 e + a 3 e + a 4 e + a 1 e + a 2 e + a 3 e + a 4 e + a

G|-----------------------------------------------------------------|
D|-----------------------------------------------------------------|
A|---------------------------------2-2-2-2-2-2-2-2-2-2-2-2-2-2-2-2-|
D|-0---0-0---0-0---0---0-0---0-0-----------------------------------|
   1 e + a 2 e + a 3 e + a 4 e + a 1 e + a 2 e + a 3 e + a 4 e + a

5:42
G|------------------------------------------------------------------|
D|o-----------------------------------------------------------------|
A|o-3---3-3---3-3---3---3-3---3-3---3---3-3---3-3---3-----2---------|
D|--------------------------------------------------------------5---|
    1 e + a 2 e + a 3 e + a 4 e + a 1 e + a 2 e + a 3 e + a 4 e + a

G|------------------------------------------------------------------|
D|-----------------------------------------------------------------o|
A|-----------------------------------------------------------------o|x4
D|-2---2-2---2-2---2---2-2---2-2---2---2-2---2-2---2---2-2---2-2----|
   1 e + a 2 e + a 3 e + a 4 e + a 1 e + a 2 e + a 3 e + a 4 e + a

6:06
G|-----------------------------------------------------------------|
D|-----------------------------------------------------------------|
A|-3---3-3---3-3---3---3-3---3-3---3---3-3---3-3---3---3-3---3-3---|
D|-----------------------------------------------------------------|
   1 e + a 2 e + a 3 e + a 4 e + a 1 e + a 2 e + a 3 e + a 4 e + a

G|-----------------------------------------------------------------|
D|-----------------------------------------------------------------|
A|-----------------------------------------------------------------|
D|-0---0-0---0-0---0---0-0---0-0---0-------0-------0-------0-------|
   1 e + a 2 e + a 3 e + a 4 e + a 1 e + a 2 e + a 3 e + a 4 e + a

6:11
G|-----------------------------------------------------------------|
D|-----------------------------------------------------------------|
A|-----------------------------------------------------------------|
D|-5---5-5---5-5---5---5-----------3---3-3---3-3---3-----3-----3---|
   1 e + a 2 e + a 3 e + a 4 e + a 1 e + a 2 e + a 3 e + a 4 e + a

G|-----------------------------------------------------------------|
D|-----------------------------------------------------------------|
A|-----------------------------------------------------------------|
D|-2---2-2---2-2---2-----2-----2---0---0-0---0-0---0---0---0---0---|
   1 e + a 2 e + a 3 e + a 4 e + a 1 e + a 2 e + a 3 e + a 4 e + a

6:17
G|-----------------------------------------------------------------|
D|-----------------------------------------------------------------|
A|-3---3-3---3-3---3---3-3---3-3---3---3-3---3-3---3---3-3---3-----|
D|-------------------------------------------------------------2---|
   1 e + a 2 e + a 3 e + a 4 e + a 1 e + a 2 e + a 3 e + a 4 e + a

G|-----------------------------------------------------------------|
D|-----------------------------------------------------------------|
A|-----------------------------------------------------------------|
D|-0---0-0---0-0---0---0-0---0-0---0-------0-------0-------0-------|
   1 e + a 2 e + a 3 e + a 4 e + a 1 e + a 2 e + a 3 e + a 4 e + a

6:22
G|-----------------------------------------------------------------|
D|-----------------------------------------------------------------|
A|-----------------------------------------------------------------|
D|-5---5-5---5-5---5---5-----------3---3-3---3-3---3-----3-----3---|
   1 e + a 2 e + a 3 e + a 4 e + a 1 e + a 2 e + a 3 e + a 4 e + a

G|-----------------------------------------------------------------|
D|-----------------------------------------------------------------|
A|-----------------------------------------------------------------|
D|-2---2-2---2-2---2-----2-----2---0---0-0---0-0---0-----0-----0---|
   1 e + a 2 e + a 3 e + a 4 e + a 1 e + a 2 e + a 3 e + a 4 e + a

6:28 slower tempo
G|------------------------------------------------------------------|---|
D|------------------------------------------------------------------|---|
A|-3---------------3---2---0----------------------------------------|---|
D|-----------------------------5---0---------------4--4--4--4--4--4-|-5-|
   1 e + a 2 e + a 3 e + a 4 e + a 1 e + a 2 e + a 3 e + a  4 e + a

================================================================
Tabbed by Dave Vucko
comments
We did not receive enough feedback on this tab! Please rate:
print report bad tab
1 2 3 4 5
I want to post or [tab]
guest
You may want to rate the tab now too:
select rating
Please do not post tabs as comments. Select "correction" instead!