Oops, an error
Loading. Please wait.

Sounding The Seventh Trumpet Tab

ver1
ver1

Album

More versions @911Tabs.com
6,925 views 3 this week
10 commentsread comments
1 2 3 4 5
worth learning
x 7
add to favorites launch autoscroll
font size
0
reset
Autoscroll
+/-
esc
set tempo
stop
Contributor
WARNING: You are trying to view
                                    content from Ultimate-Guitar.com
                                    in an unauthorized application,
                                    which is prohibited.

                                    Please use an official Ultimate
                                    Guitar Tabs application for iPhone,
                                    iPad or Android to access legitimate
                                    chords, guitar, bass, and drum tabs
                                    from Ultimate-Guitar.com database.

                                    Type "ultimate guitar tabs" in Apple
                                    App Store's or Android Market's
                                    search to find the application.
TO END THE RAPTURE
(From the 2002 Album SOUNDING THE SEVENTH TRUMPET)


Gtr I (D A D G B E) - 'Lead Guitar'
Gtr II (D A D G B E) - 'Rythm Guitar'

 Intro/Solo
  Q=122
  D5          E5   F5                     C5              Bb5     C5
 4/4
  Gtr I
   ~~               ~~                     ~~               ~~~~
|----------------|----------------------|---------------|-------------------|
|----------------|----------------------|---------------|-------------------|
|----------------|-------------12-12s14-|-12------------|-------------------|
|-12----12-12-14-|-15----10s15----------|-------15--14--|-[15]----14--------|
|----------------|----------------------|---------------|-------------/15---|
|----------------|----------------------|---------------|-------------------|
|
| Gtr II
|----------------|----------------------|---------------|-------------------|
|----------------|----------------------|---------------|-------------------|
|----------------|----------------------|---------------|-------------------|
|--0-----0--0--2-|--3-----3-----3--3----|-10------------|---8-----10--------|
|--0-----0--0--2-|--3-----3-----3--3----|-10------------|---8-----10--------|
|--0-----0--0--2-|--3-----3-----3--3----|-10------------|---8-----10--------|


  D5            E5  F5                 C5
   ~~                ~~            ~~~~~~~~~
|-----------------|------------------|----------------------|
|-----------------|------------------|----------------------|
|-----------------|---------------17-|-(17)---17S19---------|
|-12----12---14---|-15----14---15----|----------------------|
|-----------------|------------------|----------------------|
|-----------------|------------------|----------------15-17-|
|
|-----------------|------------------|----------------------|
|-----------------|------------------|----------------------|
|-----------------|------------------|----------------------|
|--0-----0-0----2-|--3-----3-3-----3-|--10------------------|
|--0-----0-0----2-|--3-----3-3-----3-|--10------------------|
|--0-----0-0----2-|--3-----3-3-----3-|--10------------------|


  Bb5                           C5
|---------------------------------------------------------------|
|---------------------------------------------------------------|
|----------------------------------------------14-15-14-15-17---|
|-------------------------------14-15-17-14-15------------------|
|-------------12-13-15-17-15-17---------------------------------|
|-15-17-15-17---------------------------------------------------|
|
|---------------------------------------------------------------|
|---------------------------------------------------------------|
|---------------------------------------------------------------|
|--8----------------------------10------------------------------|
|--8----------------------------10------------------------------|
|--8----------------------------10------------------------------|


  D5          E5   F5
|----------------|-------------------------------|
|----------------|---------20----20------20s==22-|
|-19-------19-21-|-22s==17----17------17---------|
|----------------|-------------------------------|
|-------17-------|-------------------------------|
|----------------|-------------------------------|
|
|----------------|-------------------------------|
|----------------|-------------------------------|
|----------------|-------------------------------|
|--0-----0--0--2-|--3-------3-------3-------3----|
|--0-----0--0--2-|--3-------3-------3-------3----|
|--0-----0--0--2-|--3-------3-------3-------3----|


  C5
   ~~
|------20-18-18-17-17-13-15-15-13-------12-12-|
|-20------------------------------13-13-------|
|---------------------------------------------|
|---------------------------------------------|
|---------------------------------------------|
|---------------------------------------------|
|
|---------------------------------------------|
|---------------------------------------------|
|---------------------------------------------|
|-10------------------------------------------|
|-10------------------------------------------|
|-10------------------------------------------|


  Bb5                                 C5
|-17-15-13-------------------------------------------------------------|
|----------17-15-13----------------------------------------------------|
|-------------------15-14-12-------------------------12-12-14-14-15-17-|
|----------------------------14-15-14-14-14-15-17-19-------------------|
|----------------------------------------------------------------------|
|----------------------------------------------------------------------|
|
|----------------------------------------------------------------------|
|----------------------------------------------------------------------|
|----------------------------------------------------------------------|
|--8----------------------------------10-------------------------------|
|--8----------------------------------10-------------------------------|
|--8----------------------------------10-------------------------------|


  D5                                 E5
   ~~
|-17------------------------------------------|
|---------------------------------------------|
|-------21-19-17-21-19---17-19-16-17-19-16-17-|
|---------------------------------------------|
|---------------------------------------------|
|---------------------------------------------|
|
|---------------------------------------------|
|---------------------------------------------|
|---------------------------------------------|
|--0-----0-------------0--------------2-------|
|--0-----0-------------0--------------2-------|
|--0-----0-------------0--------------2-------|


  F5
|---------------------------------------------------------------------------|
|---------------------------------------------------------------------------|
|-17-22-14-16-17-14-16-17-19-12-14-16-19-17-16-14-12---16-17-21-14-15-17-18-|
|---------------------------------------------------------------------------|
|---------------------------------------------------------------------------|
|---------------------------------------------------------------------------|
|
|---------------------------------------------------------------------------|
|---------------------------------------------------------------------------|
|---------------------------------------------------------------------------|
|--3-----------------------------------3-------------3--------------3-------|
|--3-----------------------------------3-------------3--------------3-------|
|--3-----------------------------------3-------------3--------------3-------|


  C5
|-------------------------------------------------------15-17-10-13-12-15-|
|-------18-11-15-13-17-18-15-11-20-17-18-13-15-11-18-20-------------------|
|-16-17-------------------------------------------------------------------|
|-------------------------------------------------------------------------|
|-------------------------------------------------------------------------|
|-------------------------------------------------------------------------|
|
|-------------------------------------------------------------------------|
|-------------------------------------------------------------------------|
|-------------------------------------------------------------------------|
|-10----------------------------------------------------------------------|
|-10----------------------------------------------------------------------|
|-10----------------------------------------------------------------------|


  Bb5                                 C5
|-13-17-13-15-18-13-20-18-15-20-17-15-18-15-20-15-20-18-16-17-15-10-15-20-|
|-------------------------------------------------------------------------|
|-------------------------------------------------------------------------|
|-------------------------------------------------------------------------|
|-------------------------------------------------------------------------|
|-------------------------------------------------------------------------|
|
|-------------------------------------------------------------------------|
|-------------------------------------------------------------------------|
|-------------------------------------------------------------------------|
|--8----------------------------------10----------------------------------|
|--8----------------------------------10----------------------------------|
|--8----------------------------------10----------------------------------|


  D5        E5
   ~~
|-22-----------|
|--------------|
|--------------|
|--------------|
|--------------|
|--------------|
|
|--------------|
|--------------|
|--------------|
|--0----0-0-2--|
|--0----0-0-2--|
|--0----0-0-2--|


 Verse/Outro
  F5           C5          Bb5  C5
  Gtrs I, II
|------------|-----------|------------|
|------------|-----------|------------|
|------------|-----------|------------|
|-3----3-3-3-|-10--------|-8----10----|
|-3----3-3-3-|-10--------|-8----10----|
|-3----3-3-3-|-10--------|-8----10----|


    D5       E5  F5           C5          Bb5  C5
                                                      3x
||-------------|------------|-----------|-------------||-------------|-------|
||o------------|------------|-----------|------------o||-------------|-------|
||-------------|------------|-----------|-------------||-------------|-------|
||--0----0-0-2-|-3----3-3-3-|-10--------|-8----10-----||-(10)--------|-(10)--|
||o-0----0-0-2-|-3----3-3-3-|-10--------|-8----10----o||-(10)--------|-(10)--|
||--0----0-0-2-|-3----3-3-3-|-10--------|-8----10-----||-(10)--------|-(10)--|

Tablature Legend
----------------
 h   - hammer-on
 p   - pull-off
 b   - bend
 pb  - pre-bend
 r   - bend release (if no number after the r, then release immediately)
 /\  - slide into or out of (from/to "nowhere")
 s   - legato slide
 S   - shift slide
 - natural harmonic
[n]  - artificial harmonic
n(n) - tapped harmonic
 ~   - vibrato
 T   - tap

-----------------------------------------------------------------------------
			 TURN THE OTHER WAY
-----------------------------------------------------------------------------

ARTIST: Avenged Sevenfold
SONG:  Turn The Other Way
ALBUM:  Sounding The Seventh Trumpet


Riff A:

e|-------------------|
B|-------------------|
G|-------------------|
D|--0---3-6--8-7--3~-|
A|--0---3-6--8-7--3~-|
D|--0---3-6--8-7--3~-|

---

Riff B:

e|----------------------------------------------------|
B|----------------------------------------------------|
G|----------------------------------------------------|
D|--000-00000-0-00000-----(5)-000-00000-0-00000--0-1--|
A|--000-00000-0-00000-(5)-----000-00000-0-00000--0-1--|
D|--000-00000-0-00000---------000-00000-0-00000--0-1--|
    ... ..... . .....         ... ..... . .....  .

---

Riff C:

e|--------------------------------------------------------|
B|--------------------------------------------------------|
G|--------------------------------------------------------|
D|--000-00000-0-00000-----(5)-----000-00000-0-00000--0-1--|
A|--000-00000-0-00000-(5)-----(5)-000-00000-0-00000--0-1--|
D|--000-00000-0-00000-------------000-00000-0-00000--0-1--|
    ... ..... . .....             ... ..... . .....  .

---

Riff D:

e|----------------------------------------------------------------|
B|----------------------------------------------------------------|
G|----------------------------------------------------------------|
D|--0-0---0-0-0---0---0-0-0-----(5)-0-0---0-0-0---0---0-0-0--0-1--|
A|--0-0---0-0-0---0---0-0-0-(5)-----0-0---0-0-0---0---0-0-0--0-1--|
D|--0-0---0-0-0---0---0-0-0---------0-0---0-0-0---0---0-0-0--0-1--|

---

Riff E:

e|--------------------------------------------------------------------|
B|--------------------------------------------------------------------|
G|--------------------------------------------------------------------|
D|--0-0---0-0-0---0---0-0-0-----(5)-----0-0---0-0-0---0---0-0-0--0-1--|
A|--0-0---0-0-0---0---0-0-0-(5)-----(5)-0-0---0-0-0---0---0-0-0--0-1--|
D|--0-0---0-0-0---0---0-0-0-------------0-0---0-0-0---0---0-0-0--0-1--|

---

Riff F:

e|-------------------------------|
B|-------------------------------|
G|-------------------------------|
D|-------------------------------|
A|--5-8-7----8--8-7-8-7-8/10-10--|
D|--------10-8--8-7-8-7-8/10-10--|

---

Riff G:

e|-------------------------------------|
B|-------------------------------------|
G|-------------------------------------|
D|------------------------7h8----------|
A|--5-8-7----8--8h10-8-10-----8p7-8-7--|
D|--------10-8--------------------8-7--|

---

Riff H:

e|------------------------------|
B|------------------------------|
G|------------------------------|
D|------------------------------|
A|--5-8-7----8--8h10-8-7-8-7----|
D|-------10-8---------------10--|
    .

---

Riff I:

e|------------------------------------------------|
B|------------------------------------------------|
G|-------------------------------------------7-/--|
D|--000-00000-0-00000-----000-00000-0-00000--7-/--|
A|--000-00000-0-00000-----000-00000-0-00000--5-/--|
D|--000-00000-0-00000-----000-00000-0-00000-------|
    ... ..... . .....     ... ..... . .....

---

Riff J:

e|-------------------------------|
B|-------------------------------|
G|-------------------------------|
D|--0---0---0---------------(5)--|
A|--0---0---0---5-3-0------------|
D|--0---0---0---------6-5-3------|

---

Riff K:

e|-----------------------------------------------------------|
B|-----------------------------------------------------------|
G|-----------------------------------------------------------|
D|--0--0--0--0------------------1--1--1--1--------------(5)--|
A|--0--0--0--0------------------1--1--1--1--5-3-0------------|
D|--0--0--0--0--3p0-0-5p0-0-3p0-1--1--1--1--------6-5-3------|

---

Riff L:

e|-----------------------------------------------------------|
B|-----------------------------------------------------------|
G|----------------------------------------------------5p0-6--|
D|--0-0-----------0-0---------0-0-----------0-0-0-0----------|
A|--0-0------6p5--0-0------6--0-0------6p5--0-0-0-0----------|
D|--0-0--6p5------0-0--6p5----0-0--6p5------0-0-0-0----------|

---

Riff M:

e|-------------------------------|
B|-------------------------------|
G|-------7---8--------/8---10----|
D|--0-0----7---7--0-0----8----8--|
A|--0-0-----------0-0------------|
D|--0-0-----------0-0------------|

---

Riff N:

e|------------------------------------------------------|
B|------------------------------------------------------|
G|-------10h12p10---------------------------------------|
D|--0-0-----------12-10--12h13p12p10--------------------|
A|--0-0------------------------------13-12-13p12-10-12--|
D|--0-0-------------------------------------------------|

---

Riff O:

e|------------------------------------|
B|------------------------------------|
G|-------10-12------------------------|
D|--0-0--------12--12-13-12-10----10--|
A|--0-0------------------------13-----|
D|--0-0-------------------------------|

---

Riff P:

e|---------------------------------------------------|
B|--6------8-8-10-10-11-----3------------------------|
G|--5------7-7--9--9-10-----2------------------------|
D|--3------5-5--7--7--8-----0-----1------3-----0-----|
A|--3-x12--5-5--7--7--8-x8--0-x8--1-x16--3-x8--0-x8--|
D|--3------5-5--7--7--8-----0-----1------3-----0-----|

e|-------------------------------------------------|
B|-------------------------------------------------|
G|---------------------3------------7-7---7-7-7-7--|
D|--5------3-3--1------3-x16--3-----7-7---7-7-7-7--|
A|--5-x14--3-3--1-x16--1------3-x8--5-5---5-5-5-5--|
D|--5------3-3--1-------------3--------------------|

---

Riff Q:

e|----------------------------------------|
B|----------------------------------------|
G|----------------------------------------|
D|--5-5---5-5-5-5----5-5---555-6-5-1-3-6--|
A|--5-5---5-5-5-5----5-5---555-6-5-1-3-6--|
D|--5-5---5-5-5-5----5-5---555-6-5-1-3-6--|
                             . . . . . .

---

Riff R:

e|---------------------------------------------------|
B|---------------------------------------------------|
G|----------------------------0h2-0------------------|
D|-----------------------------------3--2-3-2-0---2--|
A|----5-6-5--5-8-7-5-3-3--0-1-------------------3----|
D|--0------------------------------------------------|

---

Riff S:

e|----------------------------------------------------------|
B|----------------------------------------------------------|
G|----------------------------------------------------------|
D|-------------------5/7-5--7-8-7--8-10-8--7--5-7-5---------|
A|----5-6-5--5-8-7-5--------------------------------8-7--8--|
D|--0-------------------------------------------------------|


reapeat riff r and riff s while song fades out


----------------------------------------------------------------------
			DARKNESS SOUROUNDING
----------------------------------------------------------------------
AVENGED SEVENFOLD-DARKNESS SOUROUNDING


e:-------------------|-------------------------|
B:-------------------|-------------------------|
G:---5---7---9--(x2)-|--5x---------------------|
D:---5---7---9-------|--5x---------------------|
A:---3---5---7-------|--3x---------------------|
D:-------------------|---------\pick slide\----|

0:15 Riff A x8
e:--------------------|
B:--------------------|
G:--------------------|
D:--2-2--2h3p2-0-3----|
A:--------------------|
D:--------------------|

0:25 (repeat intro riff)

0:39 (repeat Riff A) x8


0:49 Riff B x8
e:--------------------------------------|
B:--------------------------------------|
G:--------------------------------------|
D:---2-2--2h3p2-0-3---2-2--2h3p2-0-3----|
A:---2-2--------------2-2---------------|
D:---2-2--------------2-2---------------|

0:58 Riff C
...... ...... x2
e:-----------------------------------------------------------|
B:-------------------------------------------------5/8--7*---|
G:------------------4/5-4--------------------4/5-4-----------|
D:------22222222--2-------4-5*---22222222--2-----------------|
A:------22222222-----------------22222222--------------------|
D:------22222222-----------------22222222--------------------|

1:08 Riff D . . . . . . .
e:--------------------------------------------------|
B:--------------------------------------------------|
G:--------------------------------------------------|
D:----2-3-3--3p1--3-3----2-3-3-3--------------------|
A:----2-1-1--1-1--1-1----2-1-1-1--------------------|
D:----2------------------2---------2-3-2-3-5-3-2----|
. . . . . .
e:----------------------------------------------------------|
B:----------------------------------------------------------|
G:----------------------------------------------------------|
D:----2-3-3--3p1--3-3----2-3-3-3--------------------2--2----|
A:----2-1-1--1-1--1-1----2-1-1-1--------------------2--2----|
D:----2------------------2--------2--3--2--3--5--3--2--2----|


1:20 Riff E . . . . . . . .
e:------------------------------------------------------------|
B:------------------------------------------------------------|
G:------------------------------------------------------------|
D:-------3-3-3--2-2--3-3--3p1--3-3-3--------------------2-2---|
A:-------1-1-1--2-2--1-1--1-1--1-1-1--------------------2-2---|
D:--------------2-2-------------------2--3--2--3--5--3--2-2---|
. . . . . . . .
e:-----------------------------------------------------------------|
B:-----------------------------------------------------------------|
G:-----------------------------------------------------------------|
D:-------3-3-3-----------3-3-3--2-2--3-3-3--------------------2~---|
A:-------1-1-1--(pause)--1-1-1--2-2--1-1-1--------------------2~---|
D:------------------------------2-2---------2--3--2--3--5--3--2~---|


1:40 (bass riff)


1:50 Riff F . . . . . . . . . . . . . . . . . . . . . . . .
e:---------------------------------------------------------------|
B:---------------------------------------------------------------|
G:---------------------------------------------------------------|
D:-------------0-2-0-2-3-2-0-2--0-2-0-2-3-2-0-2--0-2-0-2-3-2-0-2-|
A:-------------0-2-0-2-3-2-0-2--0-2-0-2-3-2-0-2--0-2-0-2-3-2-0-2-|
D:-------------0-2-0-2-3-2-0-2--0-2-0-2-3-2-0-2--0-2-0-2-3-2-0-2-|
. . . . . . . 1:58
e:-------------------|----------------|
B:-------------------|----------------|
G:-------------------|----------------|
D:--0-2-0-2-3-2-0----|----------------|
A:--0-2-0-2-3-2-0----|----------------|
D:--0-2-0-2-3-2-0----|--\pick slide\--|

1:59 Riff G
e:--------------------------------------------------------------------|
B:--------------------------------------------------------------------|
G:--------------------------------------------------------------------|
D:--0-2-0-2-3-2-0-0--0-2-0-2-3-2-0-0--0-2-0-2-3-2-0-0--0-2-0-2-3-0----|
A:--0-2-0-2-3-2-0-0--0-2-0-2-3-2-0-0--0-2-0-2-3-2-0-0--0-2-0-2-3-0----|
D:--0-2-0-2-3-2-0-0--0-2-0-2-3-2-0-0--0-2-0-2-3-2-0-0--0-2-0-2-3-0----|

e:----------------|
B:----------------|
G:----------------|
D:----------------|
A:----------------|
D:--(pick slide)--|

e:---------------------------------------------------------------------|
B:---------------------------------------------------------------------|
G:---------------------------------------------------------------------|
D:--0-2-0-2-3-2-0-0--0-2-0-2-3-2-0-0-------------------0-2-0-2-3-0~----|
A:--0-2-0-2-3-2-0-0--0-2-0-2-3-2-0-0----(pause)--------0-2-0-2-3-0~----|
D:--0-2-0-2-3-2-0-0--0-2-0-2-3-2-0-0-------------------0-2-0-2-3-0~----|


2:21 Riff H . . . . . . . . . . . . . . . . . . . . . . . .
e:-----------------------------------------------------------------------|
B:-----------------------------------------------------------------------|
G:-----------------------------------------------------------------------|
D:-------------2-2-2-3-2-3-2--2-2-3-2-3-2--2-2-2-3-2-3-2--2-2-2-2-2-2-2--|
A:-------------2-2-2-3-2-3-2--2-2-3-2-3-2--2-2-2-3-2-3-2--2-2-2-2-2-2-2--|
D:-------------2-2-2-3-2-3-2--2-2-3-2-3-2--2-2-2-3-2-3-2--2-2-2-2-2-2-2--|

. . . . . . . . . . . . . . . . . . . .
e:----------------------------------------------------------|
B:----------------------------------------------------------|
G:----------------------------------------------------------|
D:-----2-2-3-2-3-2--2-2-3-2-3-2--2-2-2-3-2-3-2---3-3-3-3----|
A:-----2-2-3-2-3-2--2-2-3-2-3-2--2-2-2-3-2-3-2---1-1-1-1----|
D:-----2-2-3-2-3-2--2-2-3-2-3-2--2-2-2-3-2-3-2--------------|

. . . . . . . . . . . . . . . . . . . . . . . .
e:---------------------------------------------------------------|
B:---------------------------------------------------------------|
G:---------------------------------------------------------------|
D:-----2-2-2-3-2-3-2--2-2-3-2-3-2--2-2-2-3-2-3-2--2-2-2-2-2-2-2--|
A:-----2-2-2-3-2-3-2--2-2-3-2-3-2--2-2-2-3-2-3-2--2-2-2-2-2-2-2--|
D:-----2-2-2-3-2-3-2--2-2-3-2-3-2--2-2-2-3-2-3-2--2-2-2-2-2-2-2--|

. . . . . . . . . . . . . . . . . . . .
e:----------------------------------------------------------|
B:----------------------------------------------------------|
G:----------------------------------------------------------|
D:-----2-2-3-2-3-2--2-2-3-2-3-2--2-2-2-3-2-3-2---3-3-3-3----|
A:-----2-2-3-2-3-2--2-2-3-2-3-2--2-2-2-3-2-3-2---1-1-1-1----|
D:-----2-2-3-2-3-2--2-2-3-2-3-2--2-2-2-3-2-3-2--------------|

. . . . . . . . . . . . . . .
e:--------------------------------------------------------------------|
B:--------------------------------------------------------------------|
G:--------------------------------------------------------------------|
D:---2-2-2-3-2-3-2--2-2-3-2-2-2--2-2-2-3-2-3-2--2-2-2-3-2--3-3-3-3----|
A:---2-2-2-3-2-3-2--2-2-3-2-2-2--2-2-2-3-2-3-2--2-2-2-3-2--1-1-1-1----|
D:---2-2-2-3-2-3-2--2-2-3-2-2-2--2-2-2-3-2-3-2--2-2-2-3-2-------------|

. . . . . . . . . . . . . . . . . .
e:--------------------------------------------------------------------|
B:--------------------------------------------------------------------|
G:--------------------------------------------------------------------|
D:---2-2-2-3-2-3-2--2-2-3-2-2-2--2-2-2-3-2-3-2--2-2-2-3-2--3-3-3-3----|
A:---2-2-2-3-2-3-2--2-2-3-2-2-2--2-2-2-3-2-3-2--2-2-2-3-2--1-1-1-1----|
D:---2-2-2-3-2-3-2--2-2-3-2-2-2--2-2-2-3-2-3-2--2-2-2-3-2-------------|

2:46 Riff I x2
e:--------------------------------|
B:--------------------------------|
G:-------------4-------------4~---|
D:------2----4-----2--5----4------|
A:----2----5-----3-------5--------|
D:--2-----------------------------|

3:02 Riff J . . . . . . . . x4
e:---------------------------------------------------------|
B:---------------------------------------------------------|
G:---------------------------------------------------------|
D:--------------2-2--2-2--2-2--2-2---5-5--5-5--0-0--0-0----|
A:--------------2-2--2-2--2-2--2-2---3-3--3-3--0-0--0-0----|
D:--------------2-2--2-2--2-2--2-2-------------0-0--0-0----|

3:21
(repeat Riff I) x4

3:49
(repeat Riff J) x4

4:07 x4 4:26
e:-------------------------------|--------|
B:-------------------------------|--------|
G:-----------------0------0------|--------|
D:-----2--2~-----2------3--------|---2~---|
A:-----2--2~---3------4----------|---2~---|
D:-----2--2~---------------------|---2~---|

TAB LEGEND:
--------------
. PALM MUTING

----------------------------------------------------------------
		THE ART OF SUBCONCISCIOUS ILLUSION
----------------------------------------------------------------

Artist: Avenged Sevenfold
Song: The Art Of Subconscious Illusion
Album: Sounding the Seventh Trumpet

. - Palm Mute
* - Harmonc
H - Hammer On
P - Pull Off
/ - Slide Up
~ - Let Ring
-------------------------

Guitar 1:						     2x
|-------------------------------------------------------------|
|-------------------------------------------------------------|
|-5-5-5-5-5-5-5-6-6-6-6-6-6-6---------------------------------|
|-5-3-3-5-5-5-5-6-6-6-6-6-6-6---------------------------------|
|-3-3-3-3-3-3-3-4-4-4-4-4-4-4---------------------------------|
|-------------------------------------------------------------|
    . .   . .     . .   . .

Guitar 2: Pick Slide

Both Guitars
|-------------------------------------------------------------|
|-------------------------------------------------------------|
|-5>----8>-----------5>---------------------------------------|
|-5>-6>-8>-8>-10/6---5>-6>--2-2-2-2-2-2-2-2-2-2---------------|
|-3>-6>-6>-8>--8/4---3>-6>--2-2-2-2-2-2-2-2-2-2---------------|
|----6>----8>-----------6>--2-2-2-2-2-2-2-2-2-2---------------|
                            . . . . . . . . . .

|--------------------------------|------------------------------|
|--------------------------------|------------------------------| After 2x with Palm Mute
|--------------------------------|------------------------------| Do 2x  WITH out
|---------------------------3-2--|------------------------------|
|-5-4-5-7-5-4-2-4-5-4-5-7-5------|---5-4-5-7-5-4-2-4-5-4-5--1-3-|
|-5-4-5-7-5-4-2-4-5-4-5-7-5------|---5-4-5-7-5-4-2-4-5-4-5--1-3-|
  . . . . . . . . . . . . .          . . . . . . . . . . .


|-----------------------------------------------------|
|-----------------------------------------------------|
|----------5*-----------------------------------------|
|-0-1-3-0------1-3-0~---1-3-0~---1-3------------------|
|-0-1-3-0------1-3-0~---1-3-0~---1-3------------------|
|-0-1-3-0------1-3-0~---1-3-0~---1-3------------------|

				     4x
|-------------------------------------|
|-------------------------------------|
|-------------------------------------|
|--0-0-0-0-0-0-0-0-1-1-1-1-3-3-3-3----|
|--0-0-0-0-0-0-0-0-1-1-1-1-3-3-3-3----|
|--0-0-0-0-0-0-0-0-1-1-1-1-3-3-3-3----|
PM . . . . . . . . . . . . . . . .

Guitar 1:					        6x
|---------------------5----------------------------------|
|---5-5-5-6-5-5-5h6h8---5-5-5-6--------------------------|
|---5-5-5---5-5---------5-5-5---0-3-2-0---0--------------|
|---------------------------------------4----2p0---------|
|--------------------------------------------------------|
|--------------------------------------------------------|
      .       .           .     . . . . . .

Guitar 2:
|-----------------------------------------------|
|-----------------------------------------------|
|-------------------------------0-3-2-0---0-----|
|-0---------0-----------0---------------4---2P0-|
|-0---------0-----------0-----------------------|
|-0---------0-----------0-----------------------|
                                . . . . . .

|-----------------------------------------------|
|-----------------------------------------------|
|-------------------------------0-3-2-0---0-----|
|-0---------0--0--0-0-0-----------------4---2P0-|
|-0---------0--0--0-0-0-------------------------|
|-0---------0--0--0-0-0-------------------------|
                                . . . . . .
			     4x
|-----------------------------|
|-----------------------------|
|-----------------------------|
|-0-0-1-0-0-3-0-0-1--0-3-5-7--|
|-0-0-1-0-0-3-0-0-1--0-3-5-7--|
|-0-0-1-0-0-3-0-0-1--0-3-5-7--|
		     . . . .

Guitar 1:	 12x
|------------------|
|------------------|
|--0-3-2-0---0-----|
|----------4---2P0-|
|------------------|
|------------------|
   . . . . . .

Guitar 2:
|---------------------------|
|---------------------------|
|---------------------------|
|--0-----3-----5-----7------|
|--0-----3-----5-----7------|
|--0-----3-----5-----7------|

		  4x
|------------------|
|------------------|
|------------------|
|-0-3-5-7-0-3-5-7--|
|-0-3-5-7-0-3-5-7--|
|-0-3-5-7-0-3-5-7--|

Both Guitars
|-----------------------|
|-----------------------|
|----------5*-----------|
|-0-1-3-0------1-3------|
|-0-1-3-0------1-3------|
|-0-1-3-0------1-3------|

				     2x
|-------------------------------------|
|-------------------------------------|
|-------------------------------------|
|--0-0-0-0-0-0-0-0-1-1-1-1-3-3-3-3----|
|--0-0-0-0-0-0-0-0-1-1-1-1-3-3-3-3----|
|--0-0-0-0-0-0-0-0-1-1-1-1-3-3-3-3----|
PM . . . . . . . . . . . . . . . .
						             4x
|-------------------------------------------------------------|
|-------------------------------------------------------------|
|-------------------------------------------------------------|
|-0-0-0-------0-0-0-----5-0-0-0-------1-3---------------------|
|-0-0-0-5h7-0-0-0-0-5h7---0-0-0-5h7-0-1-3---------------------|
|-0-0-0-------0-0-0-------0-0-0-------1-3---------------------|
    . .         . .         . .
					4x
|-----------|----------------------------|
|-----------|----------------------------|
|-----------|----------------------------|
|-12~---6~--|-5-4-5-7-5-4-2-4-5-4-5-7-5--|
|-12~---6~--|-5-4-5-7-5-4-2-4-5-4-5-7-5--|
|-12~---6~--|-5-4-5-7-5-4-2-4-5-4-5-7-5--|
	      . . . . . . . . . . . . .
		       			   2x
|-------------------------------------------|
|-------------------------------------------|
|-------------------------------------------|
|-12~---6~--5--5-5-5-5-5-5-5-5-5-5-5-5-5-5--|
|-12~---6~--5--5-5-5-5-5-5-5-5-5-5-5-5-5-5--|
|-12~---6~--5--5-5-5-5-5-5-5-5-5-5-5-5-5-5--|
               . . . . . . . .

Pick Slide Back & Forth

|----------------------------|
|----------------------------|
|----------------------------|
|-5-5-5-5-5-5-5-5-5-5-5-5-5--|
|-5-5-5-5-5-5-5-5-5-5-5-5-5--|
|-5-5-5-5-5-5-5-5-5-5-5-5-5--|
  . . . . . . . . . . . . .

		       			   3x
|-------------------------------------------|
|-------------------------------------------|
|-------------------------------------------|
|-12~---6~--5--5-5-5-5-5-5-5-5-5-5-5-5-5-5--|
|-12~---6~--5--5-5-5-5-5-5-5-5-5-5-5-5-5-5--|
|-12~---6~--5--5-5-5-5-5-5-5-5-5-5-5-5-5-5--|
               . . . . . . . .
G. 1		       G. 2
|---------------------|---------------|
|---------------------|---------------|
|---------------------|---------------|
|-12~---6~--5---------|-12~---6~---0--|
|-12~---6~--5H6P5H6P5-|-12~---6~---0--|
|-12~---6~--5---------|-12~---6~---0--|


--------------------------------------------------------
		WE COME OUT AT NIGHT
--------------------------------------------------------


Artist: Avenged Sevenfold
Title: We Come Out At Night
Album: Sounding The Seventh Trumpet


Both Guitars...
SLIGHT Palm Mute
e|---------------------------------------------|
B|---------------------------------------------|
G|-:-:-----:-:-:-:-:-:-:-:-:-:-:-:---------1---| Play
D|-0-0-----0-0-0-1-1-0-1-1-0-0-0-0---------1---|  6x
A|-0-0-----0-0-0-1-1-0-1-1-0-0-0-0---------1---|
D|-0-0-----0-0-0-1-1-0-1-1-0-0-0-0-------------|

Guitar One plays above 4x

Guitar Two:
e|----------------------------------------|
B|----------------------------------------|
G|---/7--8---/10--12--8-7--8--5-3--5--3---| Play
D|----------------------------------------|  2x
A|----------------------------------------|
D|----------------------------------------|

Both Guitars:
e|--------------------------------------------------|
B|--------------------------------------------------|
G|--------------------------------------------------|
D|-1-----/4--3--1-0-------3-----6--4--3-4---7---8---|
A|-1-----/4--3--1-0-------3-----6--4--3-4---7---8---|
D|-1-----/4--3--1-0-------3-----6--4--3-4---7---8---|

e|------------------------------------------|
B|------------------------------------------|
G|-----::-----------------------------------|
D|-1---11---4--3--1-0-------3-----6--4--3---|
A|-1---11---4--3--1-0-------3-----6--4--3---|
D|-1---11---4--3--1-0-------3-----6--4--3---|

Guitar One:
e|-------------------------------------------------|
B|-------------------------------------------------|
G|---.-------------.-------------.-------------.---| Play
D|-1-1-----------1-1-----------0-0-----------0-0---|  4x
A|-1-1-----------1-1-----------0-0-----------0-0---|
D|-1-1-----------1-1-----------0-0-----------0-0---|

Guitar Two:
e|--------------------------------------------------------------------|
B|--------------------------------------------------------------------|
G|--8-8-8-8---------8-8-8-8---------11-11-11-11---------11-11-11-11---| Play
D|--x-x-x-x---------x-x-x-x----------x--x--x--x----------x--x--x--x---|  4x
A|--6-6-6-6---------6-6-6-6----------9--9--9--9----------9--9--9--9---|
D|--------------------------------------------------------------------|

Both Guitars:
e|-------------------------------------------------|
B|-------------------------------------------------|
G|-3----5----2---:-:-----------:-:-----------:-:---| Play
D|-3----5----2---0-0-----------0-0-----------0-0---|  2x
A|-1----3----0---0-0-----------0-0-----------0-0---|
D|---------------0-0-----------0-0-----------0-0---|

e|---------------------------------------------------------|
B|-----------------------7-------------8-------------7-----|
G|-3----5----2---:-:---7---7---:-:---8---8---:-:---7---7---| Play
D|-3----5----2---0-0-----------0-0-----------0-0-----------|  2x
A|-1----3----0---0-0-----------0-0-----------0-0-----------|
D|---------------0-0-----------0-0-----------0-0-----------|

e|--------------------|
B|--------------------|
G|-3----5----2--------|
D|-3----5----2---0~---|
A|-1----3----0---0~---|
D|---------------0~---|

Breakdown... Key Changes to D minor (F major):
e|------------------------------------------------------------------------------|
B|------------------------------------------------------------------------------|
G|-------------------5-5-5-5-5-5-5-5--------------------------------------------|
D|-0-0-0-0-0-0-0-0-0-5-5-5-5-5-5-5-5-3-3-3-3-3-3--------------------------------|
A|-0-0-0-0-0-0-0-0-0-3-3-3-3-3-3-3-3-3-3-3-3-3-3--------------------------------|
D|-0-0-0-0-0-0-0-0-0-----------------3-3-3-3-3-3-2-3-5-3-2-3-5-3-2-3---| Play---|

e|---------------------------------------------------------------------|
B|---------------------------------------------------------------------|x2
G|-------------------5-5-5-5-5-5-5-5-----------------:::---:::---:::---|
D|-0-0-0-0-0-0-0-0-0-5-5-5-5-5-5-5-5-3-3-3-3-3-3-3-3-333---222---333---|
A|-0-0-0-0-0-0-0-0-0-3-3-3-3-3-3-3-3-3-3-3-3-3-3-3-3-333---222---333---|
D|-0-0-0-0-0-0-0-0-0-----------------3-3-3-3-3-3-3-3-333---222---333---|

Guitar One...
e|-----------------------------------------------------------------------|
B|-----------------------------------------------------------------------|
G|-----------------------------------------------------------------------|x4
D|-----------------------------------------------------------------------|
A|---/5---------------/5---------------/6---------------/6------7--6-----|
D|-0------6--5--6-1-0------6--5--6-0-1------7--6--7-2-1------6-------1---|

Guitar two:
e|-----------------------------------------------------|
B|-----------------------------------------------------|
G|-.----------------.----------------------------------| Play
D|-0--------------1-0--------------0-1~------------1---|  2x
A|-0--------------1-0--------------0-1~------------1---|
D|-0--------------1-0--------------0-1~------------1---|

Both Gutiars
e|-----------------------------------------------|
B|-----------------------------------------------|
G|-:::---:::---::-------------:::---:::---::-----| Play
D|-000---000---000~-----------111---111---111~---|  4x
A|-000---000---000~-----------111---111---111~---|
D|-000---000---000~-----------111---111---111~---|

e|--------------------------------------------|
B|--------------------------------------------|
G|--------------------------------------------|
D|-0-0---0-1---4---1p0---0-0-1-3-4------------|
A|-0-0---0-1---4---1p0---0-0-1-3-4---|--------|
D|-0-0---0-1---4---1p0---0-0-1-3-4---| Play---|
                                            |
e|-----------------------------------|  2x ---|
B|-----------------------------------|--------|
G|--------------------------------------------|
D|-0-0---0-1---4---1p0---0-0-----1------------|
A|-0-0---0-1---4---1p0---0-0-3-5--------------|
D|-0-0---0-1---4---1p0---0-0------------------|

e|-------------------------------------|
B|-------------------------------------|
G|---.---.---.-------.-----------------|
D|-0-0---0---0---0-0-0---x-x-------1---|
A|-0-0---0---0---0-0-0---x-x-2-3-5-----|
D|-0-0---0---0---0-0-0---x-x-----------|

e|-------------------------------------|
B|-------------------------------------|
G|-------.---.-------.-----------------| Play
D|-0-0-0-0---0---0-0-0---x-x-------1---| 3x
A|-0-0-0-0---0---0-0-0---x-x-2-3-5-----|
D|-0-0-0-0---0---0-0-0---x-x-----------|

e|------|
B|------|
G|------|
D|-0~---|
A|-0~---|
D|-0~---|

e|-------------------|
B|-------------------|
G|-:::---:::---:::---|
D|-333---222---333---|
A|-333---222---333---|
D|-333---222---333---|

Breakdown... Key Changes again to D minor (F major):
e|---------------------------------------------------------------------|
B|---------------------------------------------------------------------|
G|-------------------5-5-5-5-5-5-5-5-----------------------------------|
D|-0-0-0-0-0-0-0-0-0-5-5-5-5-5-5-5-5-3-3-3-3-3-3-----------------------|x2
A|-0-0-0-0-0-0-0-0-0-3-3-3-3-3-3-3-3-3-3-3-3-3-3-----------------------|
D|-0-0-0-0-0-0-0-0-0-----------------3-3-3-3-3-3-2-3-5-3-2-3-5-3-2-3---|
                                                                              |
e|---------------------------------------------------------------------|
B|---------------------------------------------------------------------|
G|-------------------5-5-5-5-5-5-5-5-----------------:::---:::---:::---|x2
D|-0-0-0-0-0-0-0-0-0-5-5-5-5-5-5-5-5-3-3-3-3-3-3-3-3-333---222---333---|
A|-0-0-0-0-0-0-0-0-0-3-3-3-3-3-3-3-3-3-3-3-3-3-3-3-3-333---222---333---|
D|-0-0-0-0-0-0-0-0-0-----------------3-3-3-3-3-3-3-3-333---222---333---|

End.

-----------------------------------------------------------------------------
				LIPS OF DECEIT
-----------------------------------------------------------------------------


Song: Lips of Deceit
Band: Avenged Sevenfold

Tuning: drop D(DADGBe)

~ let ring
x palm mute
h Hammer on
/ slide

0:00-0:38
|---------------------------------------------------------|
|---------------------------------------------------------|
|-2/7-7-9h10-9-7/3-9-10-9-7/10-12-14-12-10/5h7-9-7-5/7----|
|-2/7-7-7--7-7-7/3-7--7-7-7/10-10-10-10-10/5-5-5-5-5/7----|
|---------------------------------------------------------|
|---------------------------------------------------------|

at 0:39 end like this

0:39-0:46
Gtr I
|-------------|
|-------------|
|--5/2----2---|
|--5/2----2---|
|---------0---|
|-------------|
gtr II
|------------|
|------------|
|--6-2-5-9---|
|--x-x-x-x---|
|--4-0-3-7---|
|------------|

0:47-1:02
|-------------------------------------------------------|
|-------------------------------------------------------|
|-2/7-9-10-9-7/3-9-10-9-7/10-12-14-12-10/5-7-9-7-5/7----|
|-2/7-7--7-7-7/3-7--7-7-7/10-10-10-10-10/5-5-5-5-5/7----|
|-------------------------------------------------------|
|-------------------------------------------------------|

1:03-1:05
|-------------|
|-------------|
|--5/2----2---|
|--5/2----2---|
|---------0---|
|-------------|

1:06-1:08
|----------------|
|----------------|
|--2~------------|
|--2~------------|
|--0~------------|
|----------------|

1:09-1:28 do it all twice
|----------------------------------|
|----------------------------------|
|--2-2-2-5-3-3-3-2-0-0-5-0-2-2-2---|
|---0-0-0---0-0-0---0-0----0-0-0---|
|----------------------------------|
|----------------------------------|

                         (last 10 harmonic)
|-----------------------------------------|
|------------------------------8-10-------|
|-2-0-2-2-2--5-7-7-7-10-9-9-10------------|
|------0-0-0----0-0-0----0-0--------------|
|-----------------------------------------|
|-----------------------------------------|

1:28-1:37                                         (last 10 harmonic)
|-----------------------------------------------------------|-------|
|-----------------------------------------------------------|-8(10)-|
|-2-2-2-5-3-3-3-2-0-0-5-0-2-2-2-2-0-------5-7-7-7-10-9-9-10-|-------|
|-----------------------------------3-3-3-------------------|-------|
|-----------------------------------------------------------|-------|
|-----------------------------------------------------------|-------|

1:37-1:50(do this at the end of that ^)
|---------------------------------------------------|
|-------------8—8h10-8------------------------------|
|---10-9-9-10----------10-12-10-9-7-9-10-9-7-5-7~---|
|----------------------------------------------0~---|
|---------------------------------------------------|
|---------------------------------------------------|

1:50-2:10
no guitar

2:10-2:29(twice)
|--------------------------------------|
|--------------------------------------|
|--9/10-10-10-10--9-9-9-9/10-10-10-10--|
|--x-x---x--x--x--x-x-x-x-x---x--x--x--|
|--7/8---8--8--8--7-7-7-7/8---8--8--8--|
|--------------------------------------|

|-------------------------------------------------|
|-------------------------------------------------|
|-9-9-9-9/-12-12-12-12-12-12/14-14-14-10-10-10-10-|
|-x-x-x-x---x--x--x—x---x--x--x—-x--x--x—-x--x--x-|
|-7-7-7-7/-10-10-10-10-10-10/12-12-12--8--8--8—-8-|
|-------------------------------------------------|

|--------------------------------------|
|--------------------------------------|
|--9/10-10-10-10--9-9-9-9/10-10-10-10--|
|--x-x---x--x--x--x-x-x-x-x---x--x--x--|
|--7/8---8--8--8--7-7-7-7/8---8--8--8--|
|--------------------------------------|

|-------------------------------------------|
|-------------------------------------------|
|-9-9-9--5-5-5-5-5-5-5----------------------|
|-x-x-x--x-x-x-x-x-x-x--5555-3333-----------|
|-7-7-7--3-3-3-3-3-3-3--5555-3333-----------|
|-----------------------5555-3333-----------|

2:29-2:31
|--------------------|
|--------------------|
|--------------------|
|--5--0000-0-0-0-----|
|--5--0000-0-0-0-----|
|--5--0000-0-0-0-----|

2:31-2:52
|-----------------------------------------|
|-----------------------------------------|
|--------5/3------3/5------5/7—-7/--------|
|-0-000—-5/3-000—-3/5-000—-5/7—-7/--------|
|-0-000—-3/1-000—-1/3-000—-3/5—-5/--------|
|-0-000------000------000-----------------|
    xxx      xxx      xxx

2:52-3:01
|-------------------------------------------|
|-------------------------------------------|
|---7-77-10-10-10-7-77-10-10-10--5-5-5-5----|
|---7-77--7--7--7-7-77--7--7--7--7-7-7-7----|
|-------------------------------------------|
|-------------------------------------------|
      xx     x  x   xx     x  x

2:57
|-------------|
|-------------|
|-------------|
|-0~----------|
|-0~----------|
|-0~----------|

2:57-3:19
|---------------------------------------------------|
|---------------------------------------------------|
|--2222222-3333333-5555555-7777777------------------|
|--2222222-3333333-5555555-7777777------------------|
|--0000000-1111111-3333333-5555555------------------|
|---------------------------------------------------|
3:19-3:26
|------------------------------|
|------------------------------|
|---7-7-10-10--7-7-7-5-777-----|
|---7-7--7--7--7-7-7-7-777-----|
|------------------------------|
|------------------------------|
      x     x  x x
3:26
    Gtr I      Gtr II
|---------|----------|
|---------|----------|
|--7-8-7--|----------|
|--7-7-7--|--7-8-7---|
|---------|--7-8-7---|
|---------|--7-8-7---|

3:28-3:35
|---------------------|
|---------------------|
|--7------------------|
|--7-7-6--------------|
|--5-7-6--------------|
|----7-6---0005323----|

3:35-3:44
|---------------------|
|---------------------|
|--7-8-7--------------|    listen for
|--7-8-7--------------|    the order…
|--5-6-5--------------|
|---------------------|

|---------------------|
|---------------------|
|--7-8-7---8----------|
|--7-8-7---x----------|
|--5-6-5---6----------|
|---------------------|

|---------------------|
|---------------------|
|--7-8-7--------------|
|--7-8-7---00---------|
|--5-6-5---00---------|
|----------00---------|
           xx
3:44-3:50
|---------------------------------------------------|
|---------------------------------------------------|
|--2222222-----------------------3333333--2222222---|
|--2222222--0000-0-0--0000-0-0---3333333--2222222---|
|--0000000--0000-0-0--0000-0-0---1111111--0000000---|
|-----------0000-0-0--0000-0-0----------------------|
            xxxx x x  xxxx x x
3:50-4:09
|---------------------------------------------------|
|---------------------------------------------------|
|--2222222-3333333-5555555-7777777------------------|
|--2222222-3333333-5555555-7777777------------------|
|--0000000-1111111-3333333-5555555------------------|
|---------------------------------------------------|

end on
|------|
|------|
|--7---|
|--7---| don't let ring
|--5---|
|------|

--------------------------------------------------------
		WARMNESS ON THE SOUL
--------------------------------------------------------


e|----------------------------------------------------------------|
B|----------------------------------------------------------------|
G|--------------------------------------------------7/9-7---------|
D|--------5h7-5v--5-7p5-----------------2v----5-7-9-------9-9/10v-|
A|--2/5-7---------------7/9-7-5-5-5--2-----/7---------------------|
E|----------------------------------------------------------------|

e|---------------------------------------------------------------|
B|------------------------------------------7/10-----------------|
G|-------------------------4h5p4------5/7------------------------|
D|-/10-/12-12/14-14-12-9~--------7v-------7------7--10/12-10v----|
A|---------------------------------------------------------------|
E|---------------------------------------------------------------|

e|----------------------------------------------------------------|
B|----------------------------------------------------------------|
G|----------------------------9/12-11----12-11-12-12/14-12-11-12--|
D|---12-12/14-14p12-12v--12\3---------12--------------------------|
A|----------------------------------------------------------------|
E|----------------------------------------------------------------|

e|---------------------------------|
B|---------------------------------|
G|--11-----------------------------|
D|-----12-12/14v--16h17-16v---\3---|
A|---------------------------------|
E|---------------------------------|

Acoustic part:
e|--0--0--2--2---|
B|--0--1--0--3---|
G|--0--0--0--2---|
D|--2--2--0--0---|  repeat these chords for a while...
A|--2--3--2------|
E|--0-----3------|

e|--0--2--0---|
B|--1--3--0---|
G|--0--2--0---|
D|--2--0--2---|
A|--3-----2---|
E|--------0---|

          "nothing--can-compare-world-you-----------------|woahh..."
e|--0--2--2---------2------0----2-----0-------2x----------|
B|--1--3--0---------3------0----3-----1-------3x----------|
G|--0--2--0---------2------0----2-----0-------2x----------|
D|--2--0--0---------0------2----0-----2-------0x----------|
A|--3-----2----------------2----------3-------------------|
E|--------3----------------0------------------------------|

[piano solo]

e|--0--0--2--2---|
B|--0--1--0--3---|
G|--0--0--0--2---|
D|--2--2--0--0---| strum these chords behind the piano
A|--2--3--2------|
E|--0-----3------|

outro:
e|------------------------------------------------------------------|
B|------------------------------------------------------------------|
G|---5-5-5-5-5-5-5-5-5--7-7-7-7-7-7-7-7-7---------------------------|
D|---5-5-5-5-5-5-5-5-5--7-7-7-7-7-7-7-7-7--2-2-2-2-2-2-2-2-2-2-2-2--|
A|---3-3-3-3-3-3-3-3-3--5-5-5-5-5-5-5-5-5--2-2-2-2-2-2-2-2-2-2-2-2--|
E|-----------------------------------------0-0-0-0-0-0-0-0-0-0-0-0--|

e|------------------------------------------|
B|------------------------------------------|
G|---5-5-5-5-5-5-5-5-5--7-7-7-7-7-7-7-7-7---|
D|---5-5-5-5-5-5-5-5-5--7-7-7-7-7-7-7-7-7---|
A|---3-3-3-3-3-3-3-3-3--5-5-5-5-5-5-5-5-5---|
E|------------------------------------------|

      "nothing--can-compare-world-you---------------|woahh..."(figure out strumming)
e|--------------------------------------------------|
B|--------------------------------------------------|
G|--------------7-----------7-----5------7x---------|
D|-----5--------7------2----7-----5------7x---------|
A|-----5--------5------2----5-----3------5x---------|
E|-----3---------------0----------------------------|

----------------------------------------------------------------
			AN EPIC OF TIME WAISTED
----------------------------------------------------------------

Artist: Avenged Sevenfold
Album: Sounding The Seventh Trumpet
Song: An Epic of time Wasted
Email: WHATEVER112294@yahoo.com


Tuning: DADGBE

Basic Keys:
Pm - palm mute
/ - slide up
\ - slide down
<6> - harmonic
P - pull of
h - hammer on
x - muted string
~ - vibrato

Intro
|-----------------------------------------------------------------------------|
|-----------------------------------------------------------------------------|
|-----------------------7-----------------------------------------------------|
|---0----1-1--0----1-1--x----1-1--0----1-1~-----------------------------------|
|---0----1-1--0----1-1--5----1-1--0----1-1~-----------------------------------|
|---0----1-1--0----1-1-------1-1--0----1-1~-----------------------------------|
PM       ---       ---       ---       ---------------------------------------|
(cont.) x4                                        Fill into verse (pre verse)
|-------------------------------------------------|-----------------------------|
|-------------------------------------------------|-----------------------------|
|-------------------------------------------------|-----------------------------|
|---------/7---------------------/7---------------|---0~-----0-0-0--------------|
|---0-----/5---------------0-----/5---------------|---0~-----0-0-0--------------|
|---0--00-----0--2-3--5-1--0--00-----0--2-3--5-7--|---0~-----0-0-0--------------|
PM     --                     --                             -------------------|
Verse x4
|---------------------------------------------------------------------------|
|---------------------------------------------------------------------------|
|---------/7---------------------/7-----------------------------------------|
|---0-----/7---------------0-----/7-----------------------------------------|
|---0--00-/5--0--2-3--5-1--0--00-/5--0--2-3--5-7----------------------------|
|---0--00-----0--2-3--5-1--0--00-----0--2-3--5-7----------------------------|
PM     --                     --
Verse??
|------------------------------------------3p2p0--------------------------------|
|-----------------------------------------------3p2p0---------------------------|
|----------------------------------------------------3p2p0----------------------|
|---0--0--------0--0--------0--0--------0-----------------3p2p0-----------------|
|---0--0--1111--0--0--1111--0--0--1111--0---------------------------------------|
|---0--0--1111--0--0--1111--0--0--1111--0---------------------------------------|
PM        ----        ----        ----------------------------------------------|
Mid-Section
|----------------------------------------------------------------------------|
|----------------------------------------------------------------------------|
|----------------------------------------------------------------------------|
|---5-5-5-5-5-5-5-5-7-7-7-7-7-7-7-7-9-9-9-9-12-12-12-12-11-11-11-11-11-9-7---|
|---5-5-5-5-5-5-5-5-7-7-7-7-7-7-7-7-9-9-9-9-12-12-12-12-11-11-11-11-11-9-7---|
|---5-5-5-5-5-5-5-5-7-7-7-7-7-7-7-7-9-9-9-9-12-12-12-12-11-11-11-11-11-9-7---|
PM
(cont.)
|---------------------------------------------------------------------------|
|---------------------------------------------------------------------------|
|---------------------------------------------------------------------------|
|---5-5-5-5-5-5-5-5-7-7-7-7-7-7-7-7-4-4-4-4-4-4-4-4-------------------------|
|---5-5-5-5-5-5-5-5-7-7-7-7-7-7-7-7-4-4-4-4-4-4-4-4-------------------------|
|---5-5-5-5-5-5-5-5-7-7-7-7-7-7-7-7-4-4-4-4-4-4-4-4-------------------------|

Then Guitar 2 kicks in after both guitars have finished the above riffs
|-----------------------------------------------------2p0-------------------|
|---------------------------------------------------------3-2h3p2-----------|
|-----------------------------------------------------------------2---------|
|---------------------------------------------------------------------------|
|---------------------------------------------------------------------------|
|---------------------------------------------------------------------------|

Guitar 1 (cont.)
|---------------------------------------------------------------------------|
|---------------------------------------------------------------------------|
|---------------------------------------------------------------------------|
|---5-5-5-5-5-5-5-5-7-7-7-7-7-7-7-7-12-12-12-12-11-11-11-11-9-9-9-9-7-7-7-7-|
|---5-5-5-5-5-5-5-5-7-7-7-7-7-7-7-7-12-12-12-12-11-11-11-11-9-9-9-9-7-7-7-7-|
|---5-5-5-5-5-5-5-5-7-7-7-7-7-7-7-7-12-12-12-12-11-11-11-11-9-9-9-9-7-7-7-7-|

Guitar 1 (cont.)
--------------------------|
--------------------------|
--------------------------|
---5-5-5-5-5-5-7-4\-------|
---5-5-5-5-5-5-7-4\-------|
---5-5-5-5-5-5-7-4\-------|

Guitar 2 (cont.) This part is sketchy
|---------------------------------------------------------------------------|
|---------------------------------------------------------------------------|
|---4-4-4-4-4-4-4-4-6-6-6-6-6-6-6-6-7-9-7-7-6-7-6-6-4-6-4-4-2-4-2-2-2-4-----|
|---------------------------------------------------------------------------|
|---------------------------------------------------------------------------|
|---------------------------------------------------------------------------|

Guitar 2 (cont.)
-------------------------|
-------------------------|
----0-0-0-2--------------|
------------4------------|
-------------------------|
-------------------------|

Both Guitars (double time feel)
|---------------------------------------------------------------------------|
|---------------------------------------------------------------------------|
|---------------------------------------------------------------------------|
|---------------------------------------------------------------------------|
|---------------9------9------9-7-------------5------5------5-4-------------|
|---9999999999999-999999-999999-7-5555555555555-555555-555555-4-------------|
PM  ------------  -----  -----    ------------  -----  -----
(cont.)
---------------------------------------------------------------------------|
---------------------------------------------------------------------------|
---------------------------------------------------------------------------|
------------------------------------------------------5-----5--------------|
----------------2------2------2-4-------------7-7-33333-33333--------------|
----2222222222222-222222-222222-4-7777777777777-7--------------------------|
PM  ------------  -----  -----    ------------    ----  ----

|------------------------------------------------------------------------------|
|------------------------------------------------------------------------------|
|---4--------------------------------------------------------------------------|
|---4-4-4-4-4-4-4-11-11-9-9-7-7-6-6-5-------------11-11-9-9-11-11-14-14--------|
|---2-2-2-2-2-2-2--9--9-7-7-5-5-4-4-5-5-5-5-5-5-5--9--9-7-7--9--9-12-12--------|
|-----------------------------------5-5-5-5-5-5-5------------------------------|
PM    -----------------------------   -----------------------------------------|
(cont.)
---------------------------------------------------------------------------------|
---------------------------------------------------------------------------------|
---------------------------------------------------------------------------------|
---0-------------9-9-7-7-6-6-7-7-7-----------------------------------------------|
---0-0-0-0-0-0-0-7-7-5-5-4-4-5-5-7-7-7-7-7-7-7-7-7-7-7-7-7-----------------------|
---0-0-0-0-0-0-0-----------------7-7-7-7-7-7-7-7-7-7-7-7-7-----------------------|
PM  ----------------------------   ----------------------------------------------|

|------------------------------------------------------------------------------|
|------------------------------------------------------------------------------|
|---4--------------------------------------------------------------------------|
|---4-4-4-4-4-4-4-11-11-9-9-7-7-6-6-5-------------11-11-9-9-11-11-14-14--------|
|---2-2-2-2-2-2-2--9--9-7-7-5-5-4-4-5-5-5-5-5-5-5--9--9-7-7--9--9-12-12--------|
|-----------------------------------5-5-5-5-5-5-5------------------------------|
PM    -----------------------------   -----------------------------------------|
(cont.)
-----------------------------------------------------------------------------|
-----------------------------------------------------------------------------|
-----------------------------------------------------------------------------|
---0-------------9-9-7-7-6-6-7-7-7-------------------------------------------|
---0-0-0-0-0-0-0-7-7-5-5-4-4-5-5-7-7-7-7-7-7-7-7--7--7--7--7--7--------------|
---0-0-0-0-0-0-0-----------------7-7-7-7-7-7-7-7--7--7--7--7--7--------------|
PM  ----------------------------   ------------------------------------------|
Guitar 1 x2
|---------------------------------------------------------------------------|
|---------------------------------------------------------------------------|
|---------------------------------------------------------------------------|
|--0--------1--------8--------3---------------------------------------------|
|--0--------1--------8--------3---------------------------------------------|
|--0--------1--------8--------3---------------------------------------------|

Guitar 2 x2
|---------------------------------------------------------------------------|
|---------------------------------------------------------------------------|
|------------------3/7--------5---------------------------------------------|
|--0--------1------x/x--------x---------------------------------------------|
|--0--------1------1/5--------3---------------------------------------------|
|--0--------1---------------------------------------------------------------|

Guitar 1 Fill
|----------------------------------------------------------------------------|
|----------------------------------------------------------------------------|
|----------------------------------------------------------------------------|
|--0-0-----------------------------------------------------------------------|
|--0-0-0-0-0-0-0-0-0-0-0-0-0-0-0-0-------------------------------------------|
|--0-0-0-0-0-0-0-0-0-0-0-0-0-0-0-0-------------------------------------------|
PM     ----------------------------------------------------------------------|
Guitar 2 Fill
|---------------------------------------------------------------------------|
|---------------------------------------------------------------------------|
|------<7><7><7><7><7><7><7><7><7><7><7><7><7><7>---------------------------|
|--0-0----------------------------------------------------------------------|
|--0-0----------------------------------------------------------------------|
|--0-0----------------------------------------------------------------------|

Both guitars again
|---------------------------------------------------------------------------|
|---------------------------------------------------------------------------|
|-----------------------------------------------------------------7\\-------|
|--0-0-----0-0-0---0-0-----0-0-0---0-0-----0-0-0---0-0-----0-0-0--7\\-------|
|--0-0--0--0-0-0---0-0--0--0-0-0---0-0--0--0-0-0---0-0--0--0-0-0--5\\-------|
|--0-0--0--0-0-0---0-0--0--0-0-0---0-0--0--0-0-0---0-0--0--0-0-0------------|
PM      -               -               -               -
(cont.) x2
|----------------------------------------------------------------------------|
|----------------------------------------------------------------------------|
|----------------------------------------------------------------------------|
|--0-0-----0-0-------------0-0-----0-0---------------------------------------|
|--0-0-0-0-0-0-0-0-0-0-0-0-0-0-0-0-0-0-000000000000--------------------------|
|--0-0-0-0-0-0-0-0-0-0-0-0-0-0-0-0-0-0-000000000000--------------------------|
PM     --      -----------     ---     --------------------------------------|
Bridge Guitar 1
|---------------------------------------------------------------------------|
|---------------------------------------------------------------------------|
|---------------------------------------------------------------------------|
|---------------------------------------------------------------------------|
|--1p0-1p0-1p0-1p0-1p0-1p0-1p0-1p0-1p0-1p0-1p0-1p0-1p0-1p0-1p0-1p0----------|
|--1p0-1p0-1p0-1p0-1p0-1p0-1p0-1p0-1p0-1p0-1p0-1p0-1p0-1p0-1p0-1p0----------|

Bridge Guitar 2
|---------------------------------------------------------------------------|
|----------------------------------4p3-4p3-4p3-4p3-4p3-4p3-4p3-4p3----------|
|---------------------------------------------------------------------------|
|---------------------------------------------------------------------------|
|--1p0-1p0-1p0-1p0-1p0-1p0-1p0-1p0------------------------------------------|
|--1p0-1p0-1p0-1p0-1p0-1p0-1p0-1p0------------------------------------------|

The harmonic was hard to find. It's the only one that sounds close to the
song that I could find. Or you could use the alternate ending presented
|-------------------------------------<6>-----|-----------------------------|
|---------------------------------------------|-----------------------------|
|---------------------------------------------|---8-------------------------|
|---------------------------------------------|---x-------------------------|
|--5-8-7-5-8-7-5-1~----5-8-7-5-8-7-5----------|---6-------------------------|
|--5-8-7-5-8-7-5-1~----5-8-7-5-8-7-5----------|-----------------------------|

Pre-interlude?
|----------------------------------------------------------------------------|
|----------------------------------------------------------------------------|
|--0-0-0-0-0-0-0-0-0-0-0-0-0-0-0-0-0-0-0-0-0-0-0-0-0-0-0-0-0-0-0-0-----------|
|--0-0-0-0-0-0-0-0-0-0-0-0-0-0-0-0-0-0-0-0-0-0-0-0-0-0-0-0-0-0-0-0-----------|
PM --------------------------------------------------------------------------|

|----------------------------------------------------------------------------|
|----------------------------------------------------------------------------|
|----------------------------------------------------------------------------|
|-----------------------------------------------------------------0----------|
|--0-0-0-0-0-0-0-0-0-0-0-0-0-0-0-0-0-0-0-0-0-0-0-0-00000000000000-0----------|
|--0-0-0-0-0-0-0-0-0-0-0-0-0-0-0-0-0-0-0-0-0-0-0-0-00000000000000-0----------|
PM --------------------------------------------------------------------------|

|---------------------------------------------------------------------------|
|---------------------------------------------------------------------------|
|---------------------------------------------------------------------------|
|---------------------------------------------------------------------------|
|------0------0------0------0------0------0------0------0------0------0-----|
|--111-0--111-0--111-0--111-0--111-0--111-0--111-0--111-0--111-0--111-0-----|
PM ---    ---    ---    ---    ---    ---    ---    ---    ---    ---

|---------------------------------------------------------------------------|
|---------------------------------------------------------------------------|
|---------------------------------------------------------------------------|
|---------------------------------------------------------------------------|
|------0------0------0------0------0------0---------------------------------|
|--111-0--111-0--111-0--111-0--111-0--111-0---------------------------------|
PM ---    ---    ---    ---    ---    ---
Pre-outro (clean)
|-----------------------------------------------------------------------------|
|-----------------------------------------------------------------------------|
|--------3~-------2~--------3~-------2~--------3~-------2~--------3~-------2~-|
|-----3~-------3~--------3~-------3~--------3~-------3~--------3~-------3~----|
|--5~-------5~--------5~-------5~--------5~-------5~--------5~-------5~-------|
|-----------------------------------------------------------------------------|

Outro Guitar 1 x3
|----------------------------------------------------------------------------|
|----------------------------------------------------------------------------|
|----------------------------------------------------------------------------|
|--8-8-8-8-8-8-8-3-0-0-0-0---------------------------------------------------|
|--8-8-8-8-8-8-8-3-0-0-0-0-----------10-12-10--------------------------------|
|--8-8-8-8-8-8-8-3-0-0-0-0--12-10-12----------12-10--------------------------|

(cont.)
----------------------------------------------------------------------------|
----------------------------------------------------------------------------|
----------------------------------------------------------------------------|
--8-8-8-8-8-8-8-10-0-0-0-0--------------------------------------------------|
--8-8-8-8-8-8-8-10-0-0-0-0-----------10-12-10-------------------------------|
--8-8-8-8-8-8-8-10-0-0-0-0--12-10-12----------12-10-------------------------|

Guitar 1 (cont.) the 4th time you play this
|----------------------------------------------------------------------------|
|----------------------------------------------------------------------------|
|----------------------------------------------------------------------------|
|--8-8-8-8-8-8-8-3-0-0-0-0---------------------------------------------------|
|--8-8-8-8-8-8-8-3-0-0-0-0-----------10-12-10--------------------------------|
|--8-8-8-8-8-8-8-3-0-0-0-0--12-10-12----------12-10--------------------------|

(cont.)
----------------------------------------------------------------------------|
----------------------------------------------------------------------------|
----------------------------------------------------------------------------|
---8-8-8-8-8-8-8-10-0~------------------------------------------------------|
---8-8-8-8-8-8-8-10-0~------------------------------------------------------|
---8-8-8-8-8-8-8-10-0~------------------------------------------------------|

Outro Guitar 2 x2
|----------------------------------------------------------------------------|
|----------------------------------------------------------------------------|
|----------------------------------------------------------------------------|
|--8-8-8-8-8-8-8-3-0-0-0-0---------------------------------------------------|
|--8-8-8-8-8-8-8-3-0-0-0-0-----------10-12-10--------------------------------|
|--8-8-8-8-8-8-8-3-0-0-0-0--12-10-12----------12-10--------------------------|

(cont.)
----------------------------------------------------------------------------|
----------------------------------------------------------------------------|
----------------------------------------------------------------------------|
---8-8-8-8-8-8-8-10-0-0-0-0-------------------------------------------------|
---8-8-8-8-8-8-8-10-0-0-0-0-----------10-12-10------------------------------|
---8-8-8-8-8-8-8-10-0-0-0-0--12-10-12----------12-10------------------------|

Then Guitar 2 (cont.)
|----------------------------------------------------------------------------|
|----------------------------------------------------------------------------|
|--15-15-15-15-15-15-15-15-14-14-14-14-14-14-14-14-15-15-15-15-15-15-15-15---|
|--15-15-15-15-15-15-15-15-14-14-14-14-14-14-14-14-15-15-15-15-15-15-15-15---|
|--13-13-13-13-13-13-13-13-12-12-12-12-12-12-12-12-13-13-13-13-13-13-13-13---|
|----------------------------------------------------------------------------|

(cont.)
---------------------------------------------------------------------------|
---------------------------------------------------------------------------|
---------------------------------------------------------------------------|
--12-12-12-12-12-12-12-12--------------------------------------------------|
--12-12-12-12-12-12-12-12--------------------------------------------------|
--12-12-12-12-12-12-12-12--------------------------------------------------|

(cont.)
|------------------------------------------------------------------------------|
|--11-11-11-11-11-11-11-11-10-10-10-10-10-10-10-10-11-11-11-11-11-11-11--------|
|---x--x--x--x--x--x--x--x--x--x--x--x--x--x--x--x--x--x--x--x--x--x--x-10-7---|
|---8--8--8--8--8--8--8--8--7--7--7--7--7--7--7--7--8--8--8--8--8--8--8--x-----|
|------------------------------------------------------------------------8--5--|
|------------------------------------------------------------------------------|

-----------------------------------------------------------------------------
				BREAKING THER HOLD
-----------------------------------------------------------------------------
AVEMGED SEVENFOLD - BREAKING THER HOLD

E||-------------------|------------------|-------------------|
B||-------------------|------------------|-------------------|
G||-------------------|------------------|-------------------|
D||-------------------|------------------|-------------------|
A||--0----------------|------------------|--0----------------|
D||--4----------------|------------------|--4----------------|

----------------------------------------|
----------------------------------------|
----------------------------------------|
--15-14-13-12-11-10-9-8-7-6-5-4-3-2-1-0-|
--15-14-13-12-11-10-9-8-7-6-5-4-3-2-1-0-|
----------------------------------------|

------------------------------|------------------------------|
------------------------------|------------------------------|
--12--12----12--14--14----14--|--15--15----15--15--15----15--|
------------------------------|------------------------------|
--10--10----10--12--12----12--|--13--13----13--13--13----13--|
------------------------------|------------------------------|

------------------------------|------------------------------|
------------------------------|------------------------------|
--11--11----11--11--11----11--|--11--11----11--11--11----11--|
------------------------------|------------------------------|
--9---9-----9---9---9-----9---|--9---9-----9---9---9-----9---|
------------------------------|------------------------------|

------------------------------|------------------------------|
------------------------------|------------------------------|
--12--12----12--14--14----14--|--15--15----15--15--15----15--|
------------------------------|------------------------------|
--10--10----10--12--12----12--|--13--13----13--13--13----13--|
------------------------------|------------------------------|

------------------------------|------------------------------|
------------------------------|------------------------------|
--11--11----11--11--11----11--|--11--11----11--11--11----11--|
------------------------------|------------------------------|
--9---9-----9---9---9-----9---|--9---9-----9---9---9-----9---|
------------------------------|------------------------------|

------------------------------|------------------------------|
------------------------------|------------------------------|
--12--12----12--14--14----14--|--15--15----15--15--15----15--|
------------------------------|------------------------------|
--10--10----10--12--12----12--|--13--13----13--13--13----13--|
------------------------------|------------------------------|

------------------------------|------------------------------|
------------------------------|------------------------------|
--11--11----11--11--11----11--|--11--11----11--11--11----11--|
------------------------------|------------------------------|
--9---9-----9---9---9-----9---|--9---9-----9---9---9-----9---|
------------------------------|------------------------------|

------------------------------|------------------------------|
------------------------------|------------------------------|
--12--12----12--14--14----14--|--15--15----15--15--15----15--|
------------------------------|------------------------------|
--10--10----10--12--12----12--|--13--13----13--13--13----13--|
------------------------------|------------------------------|

------------------------------|------------------------------|
------------------------------|------------------------------|
--11--11----11--11--11----11--|--11--11----11--11--11----11--|
------------------------------|------------------------------|
--9---9-----9---9---9-----9---|--9---9-----9---9---9-----9---|
------------------------------|------------------------------|

--------------------------|--------------------------|
--------------------------|--------------------------|
--------------------------|--------------------------|
--------------------------|--------------------2--1--|
-----3--2-----2--1-----1--|-----3--2-----2--1--------|
--3--------3--------3-----|--3--------3--------------|

--------------------------|----------------------|
--------------------------|----------------------|
--------------------------|----------------------|
--------------------------|----------------------|
-----3--2-----2--1-----1--|------------3----2----|
--3--------3--------3-----|--3----2--------------|

--------------------------|--------------------------|
--------------------------|--------------------------|
--------------------------|--------------------------|
--------------------------|--------------------2--1--|
-----3--2-----2--1-----1--|-----3--2-----2--1--------|
--3--------3--------3-----|--3--------3--------------|

--------------------------|----------------------|
--------------------------|----------------------|
--------------------------|----------------------|
--------------------------|----------------------|
-----3--2-----2--1-----1--|------------3----2----|
--3--------3--------3-----|--3----2--------------|

----------------------|------------------|-----|
----------------------|------------------|-----|
------------3----2~---|------------------|--2--|
--3----2--------------|------------------|-----|
----------------------|------------------|-----|
----------------------|------------------|-----|

--------------------------|--------------------------|
--------------------------|--------------------------|
--------------------------|--------------------------|
--------------------------|--------------------2--1--|
-----3--2-----2--1-----1--|-----3--2-----2--1--------|
--3--------3--------3-----|--3--------3--------------|

--------------------------|----------------------|
--------------------------|----------------------|
--------------------------|----------------------|
--------------------------|----------------------|
-----3--2-----2--1-----1--|------------3----2----|
--3--------3--------3-----|--3----2--------------|

--------------------------|--------------------------|
--------------------------|--------------------------|
--------------------------|--------------------------|
--------------------------|--------------------2--1--|
-----3--2-----2--1-----1--|-----3--2-----2--1--------|
--3--------3--------3-----|--3--------3--------------|

--------------------------|----------------------|
--------------------------|----------------------|
--------------------------|----------------------|
--------------------------|----------------------|
-----3--2-----2--1-----1--|------------3----2----|
--3--------3--------3-----|--3----2--------------|

--------------------------|--------------------------|
--------------------------|--------------------------|
--------------------------|--------------------------|
--------------------------|--------------------2--1--|
-----3--2-----2--1-----1--|-----3--2-----2--1--------|
--3--------3--------3-----|--3--------3--------------|

--------------------------|----------------------|
--------------------------|----------------------|
--------------------------|----------------------|
--------------------------|----------------------|
-----3--2-----2--1-----1--|------------3----2----|
--3--------3--------3-----|--3----2--------------|

--------------------------|--------------------------|
--------------------------|--------------------------|
--------------------------|--------------------------|
--------------------------|--------------------2--1--|
-----3--2-----2--1-----1--|-----3--2-----2--1--------|
--3--------3--------3-----|--3--------3--------------|

--------------------------|----------------------|
--------------------------|----------------------|
--------------------------|----------------------|
--------------------------|----------------------|
-----3--2-----2--1-----1--|------------3----2----|
--3--------3--------3-----|--3----2--------------|

----------------------|----------------------|----------------------|
----------------------|----------------------|----------------------|
------------3----2----|----------------------|------------3----2----|
--3----2--------------|----------------------|--3----2--------------|
----------------------|------------3----2----|----------------------|
----------------------|--3----2--------------|----------------------|

----------------------|----------------------|----------------------|
----------------------|----------------------|----------------------|
----------------------|------------3----2----|----------------------|
----------------------|--3----2--------------|----------------------|
------------3----2----|----------------------|------------3----2----|
--3----2--------------|----------------------|--3----2--------------|

----------------------||
----------------------||
------------3----2----||
--3----2--------------||
----------------------||
----------------------||

--------------------------------------------------------------------
				FORGOTEN FACES
--------------------------------------------------------------------

Forgotten Faces
Artist : Avenged Sevenfold
Drop D Tuning
*-Mute
h-Hammer-on
/-Slide Up
\-Slide Down

Intro / Verse
1--------------------------------------------------------|
2--------------------------------------------------------|
3--------------------------------------------------------|
4--0-0-0-0-----0-0-0-0-------0-0-0-0-----0-0-0-0---------|
5--0-0-0-0-5~--0-0-0-0-5h6~--0-0-0-0-3~--0-0-0-0-6h8-8~--|
6--0-0-0-0-0~--0-0-0-0-------0-0-0-0-----0-0-0-0---------|
   * * * *     * * * *       * * * *     * * * *
1--------------------------------------------------------------|
2--------------------------------------------------------------|
3--------------------------------------------------------------|
4--7-7--7-7-7-5-/-7-\\-5-5-5-5-5-5--8-8--10-10-10-10-10-/-12---|
5--5-5--5-5-5-3-/-5-\\-3-3-3-3-3-3--6-6--8--8--8--8--8--/-10---|
6--0-0---------------------------------------------------------|

1-------------------------|
2-------------------------|
3--(slow)-----------------|
4--7-\-3-\-0----1--3--5---|
5--5-\-1-\-0----1--3--5---|
6----------0----1--3--5---|

1-------------------------------------------------------------|
2-------------------------------------------------------------|
3-------------------------------------------------------------|
4--7-7--7-7-7-5-/-7--5-5-5-5-5-5--8-8--10-10-10-10-10-/-12----|
5--5-5--5-5-5-3-/-5--3-3-3-3-3-3--6-6--8--8--8--8--8--/-10----|
6--0-0--------------------------------------------------------|

1-----------------------------------------------------------------------------|
2-----------------------------------------------------------------------------|
3-----------------------------------------------------------------------------|
4--7-9-10-----10-9------------------------7-9-10-----10-9--333--7--3--5--7----|
5--5-7-8--10--8--7--555--4-5-4-7--5-4-0---5-7-8--10--8--7--333--7--3--5--7----|
6---------10--------555--------------------------10--------333--7--3--5--7----|
                                                              *  *  *  *
1-----------------------------------------|------|
2-----------------------------------------|------|
3-----------------------------------------|------|
4--0000-0--5555-5--3333-3--88-8--1010-10--|--0~--|
5--0000-0--5555-5--3333-3--88-8--1010-10--|--0~--|
6--0000-0--5555-5--3333-3--88-8--1010-10--|--0~--|
   ****    ****    ****    **    * *
1--------------------------------|
2--------------------------------|
3--------------------------------|
4------------7-7-77--10-10-1010--|
5------------5-5-55--8--8--8-8---|
6------------0-0-00--------------|

1---------------------------------------------------------------------------|
2---------------------------------------------------------------------------|
3------------------------------------------------3333333------------3333333-|
4-------------------1010101010101010101010101010-3333333-0-0--3-3-3-3333333-|
5-------------------8-8-8-8-8-8-8-8-8-8-8-8-8-8--1111111-0-0--5-5-5-1111111-|
6--------------------------------------------------------0-0----------------|
                    * * * * * * * * * * * * * *
"Solo"
1---------------------|
2----------8-----/10--|
3--7--10-9---10-------|
4---------------------|
5---------------------|
6---------------------|
Behind "Solo"
1---------------------|
2---------------------|
3---------------------|
4--0--10--8-0-8-------|
5--0--10--8-0-8-------|
6--0--10--8-0-8-------|
            *
1---------------------|-----------------------------------|
2---------------------|-----------------------------------|
3---------------------|-----------------------------------|
4--/7-----/7----------|-7--------777-77--7--------777-77--|
5--/5--5--/5--5-------|-5-5--555-555-55--5-5--555-555-55--|
6------0------0-------|---0--555-----------0--555---------|

-------------------------------------------------------------------
			THICK AND THIN
-------------------------------------------------------------------

AVENGED SEVENFOLD THICK AND THIN


e|-Intro---------------------Bridge------------------------------------------|
B|-----------------------------1x--------------------------------------------|
G|-2x------------------------------------------------------------------------|
D|---------------------------------------------------------------------------|
A|----------0------0-0---------------1-0--3-5--------------------------------|
E|----------0------0-0---------------1-0--3-5--------------------------------|
.
e|-Riff A--------------------------------------------------------------------|
B|-1x---------------555------------------------------------------------------|
G|------------------555-------------------555--------------------------------|
D|----------000-333-333-8-7-3-2---000-333-555-8-7-5-3-5-3-2-0----------------|
A|----------000-333-----8-7-3-2---000-333-333-8-7-5-3-5-3-2-0----------------|
E|----------000-333-----8-7-3-2---000-333-----8-7-5-3-5-3-2-0----------------|
. . . . . . .
e|-Riff B--------------------------------------------------------------------|
B|-6x------------------------------------------------------------------------|
G|---------------------------------------------------------------------------|
D|--------------------------------- -----------------------------10-8-7-8-7--|
A|-------1-0--1-0-------1-0--1-0-------1-0--1-0------1-0--1-0--------------8-|
D|-------1-0--1-0--000--1-0--1-0--000--1-0--1-0-000--1-0--1-0-00-------------|
... ... ... ..
e|-Riff C--------------------------------------------------------------------|
B|-4x------------------------------------------------------------------------|
G|---------------5---7---5---------------------------------------------------|
D|--------00-----5-x-7-x-5-33-----3---5---3---2------------------------------|
A|--------00---0 3-x-5-x-3-33-----3-x-5-x-3-x-2------------------------------|
E|--------00-000-----------33-333-3-x-5-x-3-x-2------------------------------|
... ...
e|---------------------------------------------------------------------------|
B|-Riff D--------------------------------------------------------------------|
G|--2x-----------------------------------------------------------------------|
D|---------0-3-2-0-3-0-6-7---5-8-7-5-3-2-3-0---------------------------------|
A|---------0-3-2-0-3-0-6-7---5-8-7-5-3-2-3-0---------------------------------|
E|---------0-3-2-0-3-0-6-7---5-8-7-5-3-2-3-0---------------------------------|

e|---------------------------------------------------------------------------|
B|-Riff C 4x---Riff D 2x-----------------------------------------------------|
G|---------------------------------------------------------------------------|
D|---------------------------------------------------------------------------|
A|---------------------------------------------------------------------------|
E|---------------------------------------------------------------------------|

e|-Riff E--------------------------------------------------------------------|
B|-2x------------------------------------------------------------------------|
G|---------------------------------------------------------------------------|
D|---------------------------------------------------------------------------|
A|----------8p7-8p7-8p7-8p7---1p0-3-5—-1p0-3-5-------------------------------|
E|----------8p7-8p7-8p7-8p7---1p0-3-5--1p0-3-5-------------------------------|

e|-bridge-1------------Riff F------------------------------------------------|
B|------------------------4x-------------------------------------------------|
G|---------------------------------------------------------------------------|
D|--------3-023-5-6------------0-0--------------0-0--------------------------|
A|--------3-023-5-6------------000-x-0-0-0-3-5--000-x-0-0-0-6-5-3------------|
E|--------3-023-5-6------------000-x-0-0-0-3-5--000-x-0-0-0-6-5-3------------|
...


e|---------------------------------------------------------------------------|
B|--bridge1-1x-->--Riff-F-4x-->-Bridge1-1x-----------------------------------|
G|---------------------------------------------------------------------------|
D|---------------------------------------------------------------------------|
A|---------------------------------------------------------------------------|
E|---------------------------------------------------------------------------|

e|--Bridge2------------------------------------------------------------------|
B|---------------------------------------------------------------------------|
G|-----------7------7------7~----------7------7------7-----------------------|
D|-----------7-0000-7-0000-7~-1-0-3-5--7-0000-7-0000-7-----------------------|
A|----------------------------1-0-3-5------------------7-5-3-5-3-2-0---------|
E|----------------------------1-0-3-5------------------7-5-3-5-3-2-0---------|
. . . . . . .
e|---------------------------------------------------------------------------|
B|---Riff-A-2x-->--Riff-B-4x-------------------------------------------------|
G|---------------------------------------------------------------------------|
D|---------------------------------------------------------------------------|
A|---------------------------------------------------------------------------|
E|---------------------------------------------------------------------------|

tab legend:
.- palm mute

------------------------------------------------------------------------------
				streets
------------------------------------------------------------------------------

Avenged Sevenfold- Streets

Intro
D--------------------------|
A--------------------------|
F--------------------------|
C----9---------------------|
G----9----let ring---------|
D----7----------pick scrape|

D--------------------------------------------------------------------------|
A--------------------------------------------------------------------------|
F------------------------------------------12------------------12----------|
C---------9--------------9-----------------12------------------12----------|
G---------9--------------9---------10--10--10--10--10--10--10--10--10--10--|
D---7--7--7--7--7--7--7--7--7--7-------------------------------------------|
  PM.......     ...........   .............      ...............

D-------------------------------------------------------------------------|
A-------------------------------------------------------------------------|
F-------------------------------------------------11------------11--------|
C----------12-----------------12------------------11------------11--------|
G----------12-----------------12------------9--9--9--9--9--9--9--9--9--9--|
D--10--10--10--10--10--10--10-10--10--10----------------------------------|
  PM.....      ..............    .......    .....    ...........   ......


D--------------------------------------------------------------------------|
A--------------------------------------------------------------------------|
F------------------------------------------12------------------12----------|
C---------9--------------9-----------------12------------------12----------|
G---------9--------------9---------10--10--10--10--10--10--10--10--10--10--|
D---7--7--7--7--7--7--7--7--7--7-------------------------------------------|
  PM.......     ...........   .............      ...............

D-------------------------------------------------------------------------|
A-------------------------------------------------------------------------|
F-------------------------------------------------11------------11--------|
C----------12-----------------12------------------11------------11--------|
G----------12-----------------12------------9--9--9--9--9--9--9--9--9--9--|
D--10--10--10--10--10--10--10-10--10--10----------------------------------|
  PM.....      ..............    .......    .....    ...........   ......

D---------------------------|
A---------------------------|
F---------------------------|
C----9~ --------------------|
G----9~ let ring------------|
D----7~ --------------------|

Verse 1 (4x)
D-----------------------------------------------------|
A-----------------------------------------------------|
F------------------------12--12--12--12--12--12--12---|
C--9--9--9--9--9--9--9---12--12--12--12--12--12--12---|
G--9--9--9--9--9--9--9---10--10--10--10--10--10--10---|
D--7--7--7--7--7--7--7--------------------------------|

D---------------------------------------------------------|
A---------------------------------------------------------|
F------------------------------11--11--11--11-11-11--11---|
C--12--12--12--12--12--12--12--11--11--11--11-11-11--11---|
G--12--12--12--12--12--12--12---9---9---9---9--9--9---9---|
D--10--10--10--10--10--10--10-----------------------------|

Chorus (2x)

D-----------------------------------------------------------|
A-----------------------------------------------------------|
F--12--12--12--12--12--12--12-------------------------------|
C--12--12--12--12--12--12--12--12--12--12--12--12--12--12---|
G--10--10--10--10--10--10--10--12--12--12--12--12--12--12---|
D------------------------------10--10--10--10--10--10--10---|

D---------------------------------------------|
A---------------------------------------------|
F--9--9--9--9--9--9--9------------------------|
C--9--9--9--9--9--9--9--9--9--9--9--9--9--9---|
G--7--7--7--7--7--7--7--9--9--9--9--9--9--9---|
D-----------------------7--7--7--7--7--7--7---|

D-----------------------------------------------------------|
A-----------------------------------------------------------|
F--12--12--12--12--12--12--12-------------------------------|
C--12--12--12--12--12--12--12--12--12--12--12--12--12--12---|
G--10--10--10--10--10--10--10--12--12--12--12--12--12--12---|
D------------------------------10--10--10--10--10--10--10---|

D----------------------------------|
A----------------------------------|
F----------------------------------|
C--11--11--11--11--11--11--11--11--|
G--9---9---9---9---9---9---9---9---|
D----------------------------------|


Verse 2

Lead Guitar
D--------------------------------------------------------------------|
A--------------------------------------------------------------------|
F--11-11-11-11-11-11-11-11-11-11-11/12---7-7-7-7-7-7-/-9-9-9-9-9-9---|
C--------------------------------------------------------------------|
G---9--9--9--9--9--9--9--9--9--9--9/10---5-5-5-5-5-5-/-7-7-7-7-7-7---|
D--------------------------------------------------------------------|

D--------------------------------------------------------------------|
A--------------------------------------------------------------------|
F--11-11-11-11-11-11-11-11-11-11-11/12---7-7-7-7-7-7-/-9-9-9-9-9-9---|
C--------------------------------------------------------------------|
G---9--9--9--9--9--9--9--9--9--9--9/10---5-5-5-5-5-5-/-7-7-7-7-7-7---|
D--------------------------------------------------------------------|

Rhythm Guitar
D---------------------------------------------------------------|
A---------------------------------------------------------------|
F---------------------------------------------------------------|
C--9---------------------9-/-12---5----------5--7---------------|
G--9---------------------9-/-12---5----------5--7---------------|
D--7-7-7-7-7-7-7-7-7-7-7-7-/-10---3-3-3-3-3--3--5-5-5-5-5-5-5---|
PM   ...................            .......       ...........


D---------------------------------------------------------------|
A---------------------------------------------------------------|
F---------------------------------------------------------------|
C--9---------------------9-/-12---5----------5--7---------------|
G--9---------------------9-/-12---5----------5--7---------------|
D--7-7-7-7-7-7-7-7-7-7-7-7-/-10---3-3-3-3-3--3--5-5-5-5-5-5-5---|
PM   ...................            .......       ...........

D----------------------------------------------------------------|
A----------------------------------------------------------------|
F---------------------------------7----------7--11---------------|
C--9---------------------9-/-12---7----------7--11---------------|
G--9---------------------9-/-12---5-5-5-5-5--5---9-9-9-9-9-9-9---|
D--7-7-7-7-7-7-7-7-7-7-7-7-/-10----------------------------------|
PM   ...................            ........       ............


Lead Guitar
D--------------------------------------------------------------------|
A--------------------------------------------------------------------|
F--11-11-11-11-11-11-11-11-11-11-11/12---7-7-7-7-7-7-/-9-9-9-9-9-9---|
C--------------------------------------------------------------------|
G---9--9--9--9--9--9--9--9--9--9--9/10---5-5-5-5-5-5-/-7-7-7-7-7-7---|
D--------------------------------------------------------------------|

Rhythm Guitar
D----------------------------------------------------------------|
A----------------------------------------------------------------|
F---------------------------------7----------7--11---------------|
C--9---------------------9-/-12---7----------7--11---------------|
G--9---------------------9-/-12---5-5-5-5-5--5---9-9-9-9-9-9-9---|
D--7-7-7-7-7-7-7-7-7-7-7-7-/-10----------------------------------|
PM   ...................            ........       ............

D---------------------------------------------|
A---------------------------------------------|
F------------------------7-7-7-7--------------|
C--9-9-9-9----5-5-5-5----7-7-7-7----7-7-7-7---|
G--9-9-9-9----5-5-5-5----5-5-5-5----7-7-7-7---|
D--7-7-7-7----3-3-3-3---------------5-5-5-5---|

D-------------------------------------------------|
A-------------------------------------------------|
F------------------------7-7-7-7---11-11-11-11----|
C--9-9-9-9----5-5-5-5----7-7-7-7---11-11-11-11----|
G--9-9-9-9----5-5-5-5----5-5-5-5----9--9--9--9----|
D--7-7-7-7----3-3-3-3-----------------------------|

Verse 1 (4x)
D-----------------------------------------------------|
A-----------------------------------------------------|
F------------------------12--12--12--12--12--12--12---|
C--9--9--9--9--9--9--9---12--12--12--12--12--12--12---|
G--9--9--9--9--9--9--9---10--10--10--10--10--10--10---|
D--7--7--7--7--7--7--7--------------------------------|

D---------------------------------------------------------|
A---------------------------------------------------------|
F------------------------------11--11--11--11-11-11--11---|
C--12--12--12--12--12--12--12--11--11--11--11-11-11--11---|
G--12--12--12--12--12--12--12---9---9---9---9--9--9---9---|
D--10--10--10--10--10--10--10-----------------------------|

Chorus (2x)

D-----------------------------------------------------------|
A-----------------------------------------------------------|
F--12--12--12--12--12--12--12-------------------------------|
C--12--12--12--12--12--12--12--12--12--12--12--12--12--12---|
G--10--10--10--10--10--10--10--12--12--12--12--12--12--12---|
D------------------------------10--10--10--10--10--10--10---|

D---------------------------------------------|
A---------------------------------------------|
F--9--9--9--9--9--9--9------------------------|
C--9--9--9--9--9--9--9--9--9--9--9--9--9--9---|
G--7--7--7--7--7--7--7--9--9--9--9--9--9--9---|
D-----------------------7--7--7--7--7--7--7---|

D-----------------------------------------------------------|
A-----------------------------------------------------------|
F--12--12--12--12--12--12--12-------------------------------|
C--12--12--12--12--12--12--12--12--12--12--12--12--12--12---|
G--10--10--10--10--10--10--10--12--12--12--12--12--12--12---|
D------------------------------10--10--10--10--10--10--10---|

D----------------------------------|
A----------------------------------|
F----------------------------------|
C--11--11--11--11--11--11--11--11--|
G--9---9---9---9---9---9---9---9---|
D----------------------------------|

End Riff
Lead Guitar X4
D--------------------------------------------------------------------|
A--------------------------------------------------------------------|
F--11-11-11-11-11-11-11-11-11-11-11/12---7-7-7-7-7-7-/-9-9-9-9-9-9---|
C--------------------------------------------------------------------|
G---9--9--9--9--9--9--9--9--9--9--9/10---5-5-5-5-5-5-/-7-7-7-7-7-7---|
D--------------------------------------------------------------------|

Rhythm Guitar X8
(The first two times the lead guitar does the riff, let only the A power chord ring thru)
D------------------------------------------------------------------|
A------------------------------------------------------------------|
F------------------------------------------------------------------|
C--9---------------------9-/-12---5----------5-/-7-------------7-/-|
G--9---------------------9-/-12---5----------5-/-7-------------7-/-|
D--7-7-7-7-7-7-7-7-7-7-7-7-/-10---3-3-3-3-3--3-/-5-5-5-5-5-5-5-5-/-|


-------------------------------------------------------------------
			SHATTERD BY BROKEN DREAMS
-------------------------------------------------------------------


Avenged Sevenfold
Shattered By Broken Dreams
Sounding The Seventh Trumpet

Tuning: Drop D


Intro/Verse (Acoustic):
e---------0---------------0---------------0---------------0-----------------|
B-----1-----1---------1-----1---------1-----1---------1-----1---------------|
G-------2-----2---------2-----2---------2-----2---------2-----2-------------|
D---2---------------2-----------2---2---------------2-----------2-----------|
A-0-------------0-----------------0-------------0---------------------------|
D------------------------------------------------------------------- Play---|
                                                                          |
e-------------------------------------------------------------------  4x ---|
B-------------------------0---------------0---------------0-----------------|
G---------0-----------0-----0-----------0---0-----------0---0---------------|
D-----0-----0-------0---0-----0-------2-------2-------2-------2-------------|
A---2---2-----2---------------------2-----------2---2-----------2-----------|
D-5-------------5---------------5-2---------------2-------------------------|

Guitar One (Acoustic):
e---------------------------------------------------------------------------|
B---------------------------------------------------------------------------|
G-5---5-5-5---5-5---5-5---5---5-5-4---4-4-4---4-4---4-4---4---4-4-----------|
D-5---5-5-5---5-5---5-5---5---5-5-4---4-4-4---4-4---4-4---4---4-4-----------|
A-3---3-3-3---3-3---3-3---3---3-3-2---2-2-2---2-2---2-2---2---2-2-----------|
D------------------------------------------------------------------- Play---|
                                                                          |
e-------------------------------------------------------------------  4x ---|
B---------------------------------------------------------------------------|
G-2---2-2-2---2-2---2-2---2---2-2---------------4---4-4-4-4-4-4-4-----------|
D-2---2-2-2---2-2---2-2---2---2-2-5---5-5-5---5-4---4-4-4-4-4-4-4-----------|
A-0---0-0-0---0-0---0-0---0---0-0-5---5-5-5---5-2---2-2-2-2-2-2-2-----------|
D---------------------------------5---5-5-5---5-----------------------------|

Guitar Two ^after guitar one (Distorted):
e----------------------------------------------------------------------------|
B----------------------------------------------------------------------------|
g-5---5-5-5---5-5---5-5---5-5-/9-9---9-12-12---12-12-9-9-9---9-9---9-9-9-9---|
D----------------------------------------------------------------------------|
A----------------------------------------------------------------------------|
D----------------------------------------------------------------------------|

e-----------------------------------------------------------------------------|
B-----------------------------------------------------------------------------|
G-9-/14-14-14---14-14-14-14-14-14-14-14-16-16-17-17-17-16-16---16-14-14-12-12-|
D-----------------------------------------------------------------------------|
A-----------------------------------------------------------------------------|
D-----------------------------------------------------------------------------|

e-------------------------------------------------------------------|
B-------------------------------------------------------------------|
G-9-9-9-9-9-9-9-9-9-9-9-9-9-9-9-9-4-4-4-4-4-4-4-4-9-9-7-7-5-5-4-4---|
D-------------------------------------------------------------------|
A-------------------------------------------------------------------|
D-------------------------------------------------------------------|

e-------------------------------------------------------------------|
B-------------------------------------------------------------------|
G-5-5-5-5-5-5-5-5-5-5-5-5-5-5-5-5-4-4-4-4-4-4-4-4-4-4-4-4-4-4-4-4---|
D-------------------------------------------------------------------|
A-------------------------------------------------------------------|
D-------------------------------------------------------------------|

Guitar One (heavy):
e-----------------------------------|
B-----:-:-:-:-:-:-:-:-:-:-:-:-:-:---|
G-2---2-2-2-2-2-2-2-2-2-2-2-2-2-2---| Play
D-2---2-2-2-2-2-2-2-2-2-2-2-2-2-2---|  4x
A-0---0-0-0-0-0-0-0-0-0-0-0-0-0-0---|
D-----------------------------------|

e-----------------------------------|
B-----:-:-:-:-:-:---.-------.-------|
G-2---2-2-2-2-2-2-2-2-----2-2-------|
D-2---2-2-2-2-2-2-2-2-----2-2-------|
A-0---0-0-0-0-0-0-0-0-----0-0-------|
D-----------------------------------|

Guitar Two:
e-----------------------------------|
B-----------------------------------|
G-----------------------------------|
D-----------------------------------|
A-----------------------------3-2---|
D-----------------3-2-0-2-3-2-------|

e-------------------------------------|
B-------------------------------------|
G-2---2-2-2h3p2-0-2-------------------| Play
D-------------------3-5-2-3-----------|  4x
A---------------------------3-5-2-0---|
D-------------------------------------|

Both Guitars:
e-----------------------------------|
B-----------------------------------|
G-9---9---9---7---7---5---5-4-------| Play
D-x---x---x---x---x---x---x-x-------|  4x
A-7---7---7---5---5---3---3-2-------|
D-----------------------------------|

Guitar One:
e--------------------|
B-----:-:-----:------|
G-2---2-2-5---5-4~---| Play
D-2---2-2-5---5-5~---|  8x
A-0---0-0-3---3-2~---|
D--------------------|

Guitar Two playes an A power chord then comes in in the middle, and plays 4x.

Both Guitars:
e-----------------------------------------------------|
B-.---.---.---.---.---.---.---.---.---.---.---.---.---|
G-2---2---2---2---2---2---2---2---2---2---2---2---2---|
D-2---2---2---2---2---2---2---2---2---2---2---2---2---|
A-0---0---0---0---0---0---0---0---0---0---0---0---0---|
D-----------------------------------------------------|

e-------------------------------------------------------------------------|
B-------------------------------------------------------------------------|
G-------------------------------------------------------------------------|
D-0-0-0-0-0-0-0-0-2-2-2-2-2-2-2-2---0-0-0-0-0-0-0-0-2-2-2-2---------------|
A-0-0-0-0-0-0-0-0-2-2-2-2-2-2-2-2---0-0-0-0-0-0-0-0-2-2-2-2-3-(3)-2-(2)---|
D-0-0-0-0-0-0-0-0-2-2-2-2-2-2-2-2---0-0-0-0-0-0-0-0-2-2-2-2---------------|

e-------------------------------------------------------------------|
B-:-::::::::::::::--::::::::::::::----------------------------------|
G-2-222222222222225-55555555555555--::::::::::::::------------------|
D-2-222222222222225-555555555555555-555555555555552-2-----------3---|
A-0-000000000000003-333333333333335-555555555555552-2-----2-3-5-----|
D---------------------------------5-555555555555552-2---------------|

e-------------------------------------------------------------------|
B---::::::::::::::--::::::::::::::----------------------------------|
G-2-222222222222225-55555555555555--::::::::::::::------------------|
D-2-222222222222225-555555555555555-555555555555552-2-----------3---|
A-0-000000000000003-333333333333335-555555555555552-2-----2-3-5-----|
D---------------------------------5-555555555555552-2---------------|

Listen For Strumming Pattern
e-------------------------------------------------------------------|
B-------------------------------------------------------------------|
G-2-2-2-2-2-2-2-2-5-5-5-5-------------------------------------------|
D-2-2-2-2-2-2-2-2-5-5-5-5-2-0-----5-5-5-5-5-5-5-5-2-2-2-2-------3---|
A-0-0-0-0-0-0-0-0-3-3-3-3-----3-2-5-5-5-5-5-5-5-5-2-2-2-2-2-3-5-----|
D---------------------------------5-5-5-5-5-5-5-5-2-2-2-2-----------|

e-------------------------------------------------------------------|
B-------------------------------------------------------------------|
G-2-2-2-2-2-2-2-2-5-5-5-5-------------------------------------------|
D-2-2-2-2-2-2-2-2-5-5-5-5-2-0-----5-5-5-5-5-5-5-5-2-2-2-2-2-2-2-2---|
A-0-0-0-0-0-0-0-0-3-3-3-3-----3-2-5-5-5-5-5-5-5-5-2-2-2-2-2-2-2-2---|
D---------------------------------5-5-5-5-5-5-5-5-2-2-2-2-2-2-2-2---|

e-----
B-.---
G-2---
D-2---
A-0---
D-----

Pick Slide

e------------------------------------------------|
B------------------------------------------------|
G------------------------------------------------|
D-7-7-7-----0-2-3-0-0-0---10-10-9-9--------------|
A-7-7-7-----0-2-3-0-0-0---10-10-9-9--------------|
D-7-7-7-----0-2-3-0-0-0---10-10-9-9------ Play---|
                                               |
e----------------------------------------  4x ---|
B--------------------------(tens)----------------|
G-----------------:::::::::-:-:-:-::::-----------|
D-7-7-7-----0-2-3-00000000101010109999-----------|
A-7-7-7-----0-2-3-00000000101010109999-----------|
D-7-7-7-----0-2-3-00000000101010109999-----------|

e----
B----
G-.--
D-7--
A-7--
D-7--

Pause

Chorus:
Guitar One:
e---------------------------------------------------------------------------|
B---------------------------------------------------------------------------|
G-5-5-5-5-5-5-5-5-5-5-5-5-5-5-5-5-------------------------------------------|
D-5-5-5-5-5-5-5-5-5-5-5-5-5-5-5-5-2-2-2-2-2-2-2-2-2-2-2-2-2-2-2-2-----------|
A-3-3-3-3-3-3-3-3-3-3-3-3-3-3-3-3-2-2-2-2-2-2-2-2-2-2-2-2-2-2-2-2-----------|
D---------------------------------2-2-2-2-2-2-2-2-2-2-2-2-2-2-2-2--- Play---|
                                                                          |
e-------------------------------------------------------------------  4x ---|
B---------------------------------------------------------------------------|
G-2-2-2-2-2-2-2-2-2-2-2-2-2-2-2-2-.---.---.---.---.---.---.---.-------------|
D-2-2-2-2-2-2-2-2-2-2-2-2-2-2-2-2-5---5---5---5---5---5---5---5-------------|
A-0-0-0-0-0-0-0-0-0-0-0-0-0-0-0-0-5---5---5---5---5---5---5---5-------------|
D---------------------------------5---5---5---5---5---5---5---5-------------|

Guitar Two:
e---------------------------------------------------------------------------|
B---------------------------------------------------------------------------|
G-5-5-5-5-5-5-5-5-5-5-5-5-5-5-5-5-------------------------------------------|
D-5-5-5-5-5-5-5-5-5-5-5-5-5-5-5-5-2-2-2-2-2-2-2-2-2-2-2-2-2-2-2-2-----------|
A-3-3-3-3-3-3-3-3-3-3-3-3-3-3-3-3-2-2-2-2-2-2-2-2-2-2-2-2-2-2-2-2-----------|
D---------------------------------2-2-2-2-2-2-2-2-2-2-2-2-2-2-2-2--- Play---|
                                                                          |
e-------------------------------------------------------------------  2x ---|
B---------------------------------------------------------------------------|
G-2-2-2-2-2-2-2-2-2-2-2-2-2-2-2-2-.---.---.---.---.---.---.---.-------------|
D-2-2-2-2-2-2-2-2-2-2-2-2-2-2-2-2-5---5---5---5---5---5---5---5-------------|
A-0-0-0-0-0-0-0-0-0-0-0-0-0-0-0-0-5---5---5---5---5---5---5---5-------------|
D---------------------------------5---5---5---5---5---5---5---5-------------|

e--------------------------------------------------------------------------------|
B--------------------------------------------------------------------------------|
G-5---5-5-5---5-5---5-5---5-5-/9-9---9-12-12---12-12-9-9-9---9-9---9-9-9-9-------|
D----------------------------------------------------------------------------|A--|
D--------------------------------------------------------------------------------|

e---------------------------------------------------------------------------------------------|
B---------------------------------------------------------------------------------------------|
G-9-/14-14-14---14-14-14-14-14-14-14-14-16-16-17-17-17-16-16---16-14-14-12-12-12-12-10-10-10--|
D---------------------------------------------------------------------------------------------|
A---------------------------------------------------------------------------------------------|
D---------------------------------------------------------------------------------------------|

e-------------------------------------------------------------------|
B-------------------------------------------------------------------|
G-9-9-9-9-9-9-9-9-9-9-9-9-9-9-9-9-4-4-4-4-4-4-4-4-9-9-7-7-5-5-4-4---|
D-------------------------------------------------------------------|
A-------------------------------------------------------------------|
D-------------------------------------------------------------------|

e-------------------------------------------------------------------|
B-------------------------------------------------------------------|
G-5-5-5-5-5-5-5-5-5-5-5-5-5-5-5-5-4-4-4-4-4-4-4-4-4-4-4-4-4-4-4-4---|
D-------------------------------------------------------------------|
A-------------------------------------------------------------------|
D-------------------------------------------------------------------|

Outro:
Guitar One:
e------------------------------------------------|
B------------------------------------------------|
G------------------------------------------------|
D-2------------------------------------------2---|
A-2------------------------------------------2---|
D-2------------------------------------------2---|

e------------------------------------------------|
B------------------------------------------------|
G------------------------------------------------|
D------------------------------------------------|
A-/7-----------------------------------------7---|
D------------------------------------------------|

Pick Slide For Both Guitars

Guitar One:
e----------------------------------------------------|
B----------------------------------------------------|
G---------------------------------::::::::::::::::---| Play
D-2-2---2-2-2---4-5-5---5-5-5---5-4444444444444444---|  4x
A-2-2---2-2-2---4-5-5---5-5-5---5-4444444444444444---|
D-2-2---2-2-2---4-5-5---5-5-5---5-4444444444444444---|

Guitar Two:
e----------------------------------------------------|
B----------------------------------------------------|
G----------------------------------------11----------|
D----------------------------------------x-----------|
A----------------------------------------9-----------|
D----------------------------------------------------|

e----------------------------------------------------|
B----------------------------------------------------|
G-9-9---9-9-11---12-7-7---7-7-7---7-7~---------------|
D-x-x---x-x-x----x--x-x---x-x-x---x-x----------------|
A-7-7---7-7-9----10-5-5---5-5-5---5-5~---------------|
D----------------------------------------------------|

e-----------------------------------------------------|
B-----------------------------------------------------|
G-9-9---9-9-11---12-7-7---7-7-7---7-11-11---11-8~-----|
D-x-x---x-x-x----x--x-x---x-x-x---x-x--x----x--x------|
A-7-7---7-7-9----10-5-5---5-5-5---5-9--9----9--6~-----|
D-----------------------------------------------------|

Guitar 1:
e------|
B------|
G-9~---
D-x---- Let Ring, then play guitar 2 part.
A-7~---
D------

Guitar 2:
e---------------------------------------------------------------------------------------|
B---------------------------------------------------------------------------------------|
G----------------------------------------:----:---:-------------------------------------|
D-10-10-10-10-10-10-10-10-10-10-10-10-10-10---9---5---2-2-2-2-2-2-2-2-2-2-2-2-2-2-2-2---| Play
A-10-10-10-10-10-10-10-10-10-10-10-10-10-10---9---5---2-2-2-2-2-2-2-2-2-2-2-2-2-2-2-2---|  4x
D-10-10-10-10-10-10-10-10-10-10-10-10-10-10---9---5---2-2-2-2-2-2-2-2-2-2-2-2-2-2-2-2---|

e---------------------------------------------------------------------------|
B---------------------------------------------------------------------------|
G-5-5-5-5-5-5-5-5-5-5-5-5-5-5-5-5-------------------------------------------|
D-5-5-5-5-5-5-5-5-5-5-5-5-5-5-5-5-0-0-0-0-0-0-0-0-0-0-0-0-0-0-0-0-----------|
A-3-3-3-3-3-3-3-3-3-3-3-3-3-3-3-3-0-0-0-0-0-0-0-0-0-0-0-0-0-0-0-0-----------|
D---------------------------------0-0-0-0-0-0-0-0-0-0-0-0-0-0-0-0--- Play---|
                                                                          |
e-------------------------------------------------------------------  2x ---|
B---------------------------------------------------------------------------|
G---------------------------------------------------------------------------|
D-5-5-5-5-5-5-5-5-3-3-3-3-3-3-3-3-2-2-2-2-2-2-2-2-0-0-0-0-0-0-0-0-----------|
A-5-5-5-5-5-5-5-5-3-3-3-3-3-3-3-3-2-2-2-2-2-2-2-2-0-0-0-0-0-0-0-0-----------|
D-5-5-5-5-5-5-5-5-3-3-3-3-3-3-3-3-2-2-2-2-2-2-2-2-0-0-0-0-0-0-0-0-----------|

e------------------------------------------------------------------------|
B------------------------------------------------------------------------|
G-5~---------------------------------------------------------------------|
D-5~------------------------------0~--------------------------------5~---|
A-3~------------------------------0~--------------------------------5~---|
D---------------------------------0~--------------------------------5~---|
	

i take absolutly NO credit for this tab thank u to anyone whos tab is here 
the credit goes to u guys
comments
print report bad tab
10 comments total. Showing first comments.
0 reply
cigaro5676 wrote on November 23 2006, 02:28 pm

did you actually tab any of these songs... no... you didn't
if your gonna put an albumn together, at least give people credit for their tabs

0 reply
riggdaddy2k5 wrote on November 23 2006, 10:09 pm

agreed. i recognize the "Turn the other way" tab. before turning in any tab thats not yours, give credit. im so tired of people stealing other peoples tabs. i know from experience. edit this by giving names, like LessThanLuke's "Turn the Other Way." Sorry man, your caught.

0 reply
^SynysterGates^ wrote on November 26 2006, 11:53 pm

Stolen

I want to post or [tab]
guest
You may want to rate the tab now too:
select rating
Please do not post tabs as comments. Select "correction" instead!