Oops, an error
Loading. Please wait.

Sounding The Seventh Trumpet Tab

ver2
ver2

Album

More versions @911Tabs.com
8,802 views 3 this week
8 commentsread comments
1 2 3 4 5
excellent!
x 7
add to favorites launch autoscroll
font size
0
reset
Autoscroll
+/-
esc
set tempo
stop
Contributor
Difficulty
Tuning
intermediate
E A D G B E
WARNING: You are trying to view
                                    content from Ultimate-Guitar.com
                                    in an unauthorized application,
                                    which is prohibited.

                                    Please use an official Ultimate
                                    Guitar Tabs application for iPhone,
                                    iPad or Android to access legitimate
                                    chords, guitar, bass, and drum tabs
                                    from Ultimate-Guitar.com database.

                                    Type "ultimate guitar tabs" in Apple
                                    App Store's or Android Market's
                                    search to find the application.
                              Avenged Sevenfold
                          Sounding The Seventh Trumpet
All Tablatures Besides “Lips Of Deceit”, “Thick And Thin” and “Shattered By Broken Dreams"
                           Were Transcribed By Seth Sanders
                            Thank you for viewing my tab
                 All Guitars Are Distortion, Unless Stated Otherwise.    
                    Apologies, I Don't believe in Repeat Bars.
   
TO END THE RAPTURE
As recorded by Avenged Sevenfold
(From the 2002 Album SOUNDING THE SEVENTH TRUMPET)

Gtr I (D A D G B E) - 'Synyster Gates'
Gtr II (D A D G B E) - 'Zacky Vengeance'


 Pre Solo
  Q=127
 4/4
| Gtr I
|  <
|  ~~~~~~~~~~~~~~~~      PM
|  W           Q..   +S  E S S +e    E
|------------|-------------------------|
|------------|-------------------------|
|-(7)--------|-7-----(7)-7---7-(7)---9-|
|------------|-------------------------|
|------------|-------------------------|
|------------|-------------------------|
|
| Gtr II
|  W           H         E S S +S  S E
|------------|-------------------------|
|------------|-------------------------|
|------------|-------------------------|
|------------|-0---------0---0-(0)---2-|
|------------|-0---------0---0-(0)---2-|
|------------|-0---------0---0-(0)---2-|


   W                       W
|------------------------|-----------------|
|------------------------|-----------------|
|------------------------|-----------------|
|------------------------|-----------------|
|------------------------|-----------------|
|------------------------|-----------------|
|
|  ~~                      ~
|  H     E S S +e      E   H    +E   Q  E
|------------------------|-----------------|
|------------8-(8)---/10-|-8----(8)--------|
|-10----10---------------|----------10--9--|
|------------------------|-----------------|
|------------------------|-----------------|
|------------------------|-----------------|
|
|  H     E S S +S  S   E   W
|------------------------|-----------------|
|------------------------|-----------------|
|------------------------|-5---------------|
|--3-----3---3-(3)-----3-|-5---------------|
|--3-----3---3-(3)-----3-|-3---------------|
|--3-----3---3-(3)-----3-|-----------------|


  Gtr I
    ~~~~           ~
    H     Q   Q    H    Q      Q
|----------------|--------------------|
|----------------|--------------------|
|-[10]----9------|-7----7------9------|
|------------10--|--------------------|
|----------------|--------------------|
|----------------|--------------------|
|
| Gtr II
|   H     H        H    E S S +S  S E
|----------------|--------------------|
|----------------|--------------------|
|---3-----5------|--------------------|
|---3-----5------|-0----0---0-(0)---2-|
|---1-----3------|-0----0---0-(0)---2-|
|----------------|-0----0---0-(0)---2-|


   ~~
   H    Q      E    E   +Q.   E  Q.   S  S
|-------------------8-|-(8)---8s10----------||
|---------------------|---------------------||
|-10----9-----10------|---------------------||
|---------------------|---------------------||
|---------------------|---------------8h10--||
|---------------------|---------------------||
|
|  H    E S S +S  S E    W
|---------------------|---------------------||
|---------------------|---------------------||
|---------------------|--5------------------||
|--3----3---3-(3)---3-|--5------------------||
|--3----3---3-(3)---3-|--3------------------||
|--3----3---3-(3)---3-|---------------------||


 Main Part Of Solo
  |----5-----|  |-----5-----|  |-----5-----|  |-----5-----|
  S  S S  S  S  S  S  S  S  S  S  S  S  S  S  S  S  S  S  S
|-----------------------------------------------------------|
|-----------------------------------------------------------|
|--------------------------------------------14h15-14h15-17-|
|-----------------------------14-15h17p14h15----------------|
|-8h10-8h10s12-13-15h17-15h17-------------------------------|
|-----------------------------------------------------------|
|
| H                            H
|-----------------------------------------------------------|
|-----------------------------------------------------------|
|-3----------------------------5----------------------------|
|-3----------------------------5----------------------------|
|-1----------------------------3----------------------------|
|-----------------------------------------------------------|


   ~~
                                      |---3---|    |----3-----|
   H     E.    E.        E    Q.   E  E  E    E    E     E    E
|--------------------------|-------------------------------------|
|-15----------15--------17-|-18s==14S20------20---------20s==22--|
|-------14-----------------|------------17--------17-------------|
|--------------------------|-------------------------------------|
|--------------------------|-------------------------------------|
|--------------------------|-------------------------------------|
|
|  H     E  S  S  +S  S  E    H       E    S    S +S  S    E
|--------------------------|-------------------------------------|
|--------------------------|-------------------------------------|
|--------------------------|-------------------------------------|
|--0-----0-----0--(0)----2-|--3-------3---------3-(3)------3-----|
|--0-----0-----0--(0)----2-|--3-------3---------3-(3)------3-----|
|--0-----0-----0--(0)----2-|--3-------3---------3-(3)------3-----|


   ~~~
            |--3--|  |--3--|  |--3--|  |--3--|
   Q.    E  S  S  S  S  S  S  S  S  S  S  S  S
|-------20p18-18p17-17-------------------------|
|-20-------------------18h20-20p18-------17-17-|
|----------------------------------17-17-------|
|----------------------------------------------|
|----------------------------------------------|
|----------------------------------------------|
|
|  W
|----------------------------------------------|
|----------------------------------------------|
|--5-------------------------------------------|
|--5-------------------------------------------|
|--3-------------------------------------------|
|----------------------------------------------|


   |--3--|  |--3--|  |--3--|  |--3--|  |-----5-----|  |--3--|  |--3--|
   S  S  S  S  S  S  S  S  S  S  S  S  S  S  S  S  S  S  S  S  S  S  S
|-17p15-----------------------------------------------------------------||
|-------18p17p15--------------------------------------------------------||
|----------------17p15p14----------------------------------14-14-15h17--||
|-------------------------17p14-15p14-14-14h15h17-19p17-17--------------||
|-----------------------------------------------------------------------||
|-----------------------------------------------------------------------||
|
|  H                                   H
|-----------------------------------------------------------------------||
|-----------------------------------------------------------------------||
|--3-----------------------------------5--------------------------------||
|--3-----------------------------------5--------------------------------||
|--1-----------------------------------3--------------------------------||
|-----------------------------------------------------------------------||


 Tapping Section
   ~~    T        T          T           T
         |--3--|  |---3---|  |---3----|  |--3--|
   H     S  S  S  S  S    S  S   S    S  S  S  S
|-17---------------------------------------------|
|------------------------------------------------|
|-------21p19p17-21p19p==17-19p=16h==17-19p16h17-|
|------------------------------------------------|
|------------------------------------------------|
|------------------------------------------------|
|
|  H     E        S    S    +S     S     E
|------------------------------------------------|
|------------------------------------------------|
|------------------------------------------------|
|--0-----0-------------0----(0)----------2-------|
|--0-----0-------------0----(0)----------2-------|
|--0-----0-------------0----(0)----------2-------|


        T  T     T           T           T                       T             T
    |--3---|  |--3--|  |--3--|  |--3--|  |--3--|  |---3---|  |---3----|  |--3--|
   +S   S  S  S  S  S  S  S  S  S  S  S  S  S  S  S  S    S  S   S    S  S  S  S
|-----------------------------------------------------------------------------------|
|-----------------------------------------------------------------------------------|
|-(17)-22p15h16-17p15h16h17-19p13h15h16-19p17p16p15p13h==16h17--21p==15h16h17-18p===|
|-----------------------------------------------------------------------------------|
|-----------------------------------------------------------------------------------|
|-----------------------------------------------------------------------------------|
|
|   H                                    E        S    S    +S     S     E
|-----------------------------------------------------------------------------------|
|-----------------------------------------------------------------------------------|
|-----------------------------------------------------------------------------------|
|---3------------------------------------3-------------3----(3)----------3----------|
|---3------------------------------------3-------------3----(3)----------3----------|
|---3------------------------------------3-------------3----(3)----------3----------|


         T     T        T        T     T     T     T        T           T
   |--3--|  |--3--|  |--3--|  |--3--|  |--3--|  |--3--|  |--3--|  |--3--|
   S  S  S  S  S  S  S  S  S  S  S  S  S  S  S  S  S  S  S  S  S  S  S  S
|-------------------------------------------------13h15p13-17p10h13p12-15p|
|-------------15p13h17-18p15p11-20p17-18p14-15p11-------------------------|
|-16h17-22p16-------------------------------------------------------------|
|-------------------------------------------------------------------------|
|-------------------------------------------------------------------------|
|-------------------------------------------------------------------------|
|
|  W
|-------------------------------------------------------------------------|
|-------------------------------------------------------------------------|
|--5----------------------------------------------------------------------|
|--5----------------------------------------------------------------------|
|--3----------------------------------------------------------------------|
|-------------------------------------------------------------------------|


      T        T     T        T        T     T     T        T           T
   |--3--|  |--3--|  |--3--|  |--3--|  |--3--|  |--3--|  |--3--|  |--3--|
   S  S  S  S  S  S  S  S  S  S  S  S  S  S  S  S  S  S  S  S  S  S  S  S
|-13-17p13h15-18p13-20p18p15-20p17p15-18p15-20p15-20p18p16-17p15p10h15-20p==||
|---------------------------------------------------------------------------||
|---------------------------------------------------------------------------||
|---------------------------------------------------------------------------||
|---------------------------------------------------------------------------||
|---------------------------------------------------------------------------||
|
|  H                                   H
|---------------------------------------------------------------------------||
|---------------------------------------------------------------------------||
|--3-----------------------------------5------------------------------------||
|--3-----------------------------------5------------------------------------||
|--1-----------------------------------3------------------------------------||
|---------------------------------------------------------------------------||


 Verse/Chorus/Outro
   ~~~~~~
   W                        W                    W          W
|-10(22)------------------|--------------------|----------|-----------|
|-------------------------|--------------------|----------|-----------|
|-------------------------|--------------------|----------|-----------|
|-------------------------|--------------------|----------|-----------|
|-------------------------|--------------------|----------|-----------|
|-------------------------|--------------------|----------|-----------|
|
|  H        E S S +S  S E   H    E S S +S  S E   W          H    H
|-------------------------|--------------------|----------|-----------|
|-------------------------|--------------------|----------|-----------|
|-------------------------|--------------------|-5--------|-3----5----|
|--0--------0---0-(0)---2-|-3----3---3-(3)---3-|-5--------|-3----5----|
|--0--------0---0-(0)---2-|-3----3---3-(3)---3-|-3--------|-1----3----|
|--0--------0---0-(0)---2-|-3----3---3-(3)---3-|----------|-----------|


  Gtr II
  H    E S S +S  S E   H    E S S +S  S E   W          H    H
|--------------------|--------------------|----------|-----------|
|--------------------|--------------------|----------|-----------|
|--------------------|--------------------|-5--------|-3----5----|
|-0----0---0-(0)---2-|-3----3---3-(3)---3-|-5--------|-3----5----|
|-0----0---0-(0)---2-|-3----3---3-(3)---3-|-3--------|-1----3----|
|-0----0---0-(0)---2-|-3----3---3-(3)---3-|----------|-----------|


  H    E S S +S  S E   H    E S S +S  S E   W          H    H
|--------------------|--------------------|----------|-----------|
|--------------------|--------------------|----------|-----------|
|--------------------|--------------------|-5--------|-3----5----|
|-0----0---0-(0)---2-|-3----3---3-(3)---3-|-5--------|-3----5----|
|-0----0---0-(0)---2-|-3----3---3-(3)---3-|-3--------|-1----3----|
|-0----0---0-(0)---2-|-3----3---3-(3)---3-|----------|-----------|


  H    E S S +S  S E   H    E S S +S  S E   W          H    H
|--------------------|--------------------|----------|-----------|
|--------------------|--------------------|----------|-----------|
|--------------------|--------------------|-5--------|-3----5----|
|-0----0---0-(0)---2-|-3----3---3-(3)---3-|-5--------|-3----5----|
|-0----0---0-(0)---2-|-3----3---3-(3)---3-|-3--------|-1----3----|
|-0----0---0-(0)---2-|-3----3---3-(3)---3-|----------|-----------|


  >
  W
|------*|
|------*|
|------*|
|-0----*|
|-0----*|
|-0----*|





TURN THE OTHER WAY
As recorded by Avenged Sevenfold
(From the 2002 Album SOUNDING THE SEVENTH TRUMPET)



Gtr I   (D A D G B E) – 'Synyster Gates'
Gtr II (D A D G B E) – 'Zacky Vengeance'
  Q=141                   Q=144
 4/4            2/4      4/4
  Gtrs I, II
  Q  E E Q  Q    Q  E E   S S S S E S S S S S S E S S   E S S S S S S E E  Q
|--------------|--------|-----------------------------|-----------------5-10--|
|--------------|--------|-----------------------------|-----------------------|
|--------------|--------|-----------------------------|-----------------------|
|--------------|--------|-----------------------------|-----------------------|
|-0--0-3-6--8--|-7--5-3-|-----------------------------|-----------------------|
|-0--0-3-6--8--|-7--5-3-|-0-0-0-----0-0-0-0-0-----0---|---0-0-0-0-0-----------|


  S S S S E S S S S S S E S S   E S S S S S S E E Q
|-----------------------------|----------------------|
|-----------------------------|----------------------|
|-----------------------------|----------------------|
|-----------------------------|----------------------|
|-----------------------------|-----------------0-1--|
|-0-0-0-----0-0-0-0-0-----0---|---0-0-0-0-0-----0-1--|


  S S S S E S S S S S S E S S   E S S S S S S E E  E  E
|-----------------------------|-------------------10----|
|-----------------------------|----------------10----10-|
|-----------------------------|-------------------------|
|-----------------------------|-------------------------|
|-----------------------------|-------------------------|
|-0-0-0-----0-0-0-0-0-----0---|---0-0-0-0-0-------------|


                                                       Q=147
  Gtr I
  S S S S E S S S S S S E S S   E S S S S S S E E Q    S S E E S S S S E E E
|-----------------------------|----------------------|-------------------------|
|-----------------------------|----------------------|-------------------------|
|-----------------------------|----------------------|-------------------------|
|-----------------------------|----------------------|-------------------------|
|-----------------------------|-----------------0-1--|-0-0-0---0-0-0-0-0---0---|
|-0-0-0-----0-0-0-0-0-----0---|---0-0-0-0-0-----0-1--|-0-0-0---0-0-0-0-0---0---|
|
| Gtr II
| S S S S E S S S S S S E S S   E S S S S S S E E Q    S S E E S S S S E E S S
|-----------------------------|----------------------|-------------------------|
|-----------------------------|----------------------|-------------------------|
|-----------------------------|----------------------|-------------------------|
|-----------------------------|----------------------|-------------------------|
|-----------------------------|-----------------0-1--|-0-0-0---0-0-0-0-0---0---|
|-0-0-0-----0-0-0-0-0-----0---|---0-0-0-0-0-----0-1--|-0-0-0---0-0-0-0-0---0---|


  Gtrs I, II
  E S S S S E E E  Q    S S E E S S S S E E E   E S S S S E E E Q
|---------------5-10--|-----------------------|--------------------|
|---------------------|-----------------------|--------------------|
|---------------------|-----------------------|--------------------|
|---------------------|-----------------------|--------------------|
|---0-0-0-0-0---------|-0-0-0---0-0-0-0-0---0-|---0-0-0-0-0---0-1--|
|---0-0-0-0-0---------|-0-0-0---0-0-0-0-0---0-|---0-0-0-0-0---0-1--|


  S S E E S S S S E E E   E S S S S E E E  E  E   S S E E S S S S E E E
|-----------------------|-----------------10----|------------------------|
|-----------------------|--------------10----10-|------------------------|
|-----------------------|-----------------------|------------------------|
|-----------------------|-----------------------|------------------------|
|-0-0-0---0-0-0-0-0---0-|---0-0-0-0-0-----------|-0-0-0---0-0-0-0-0---0--|
|-0-0-0---0-0-0-0-0---0-|---0-0-0-0-0-----------|-0-0-0---0-0-0-0-0---0--|


                       Q=136
  E S S S S E E E Q    S S E E E Q.   E
|--------------------|------------------|
|--------------------|------------------|
|--------------------|------------------|
|--------------------|-----3-2-0-3----3-|
|---0-0-0-0-0---0-1--|-3-5-------1----1-|
|---0-0-0-0-0---0-1--|------------------|


                     Q=138
  +E  E E E E E Q    S S E E E Q.   S S
|------------------|---------------------|
|------------------|---------------------|
|------------------|---------------------|
|-(3)-2-3-2-3-5-5--|-----3-2-0-3----3-5--|
|-(1)-0-1-0-1-3-3--|-3-5-------1---------|
|------------------|---------------------|


  +E  E +E  E S S E E  E    S  S  E  E  E Q.   E
|---------------------12-|-----------------------|
|------------------------|-----------------------|
|------------------------|-----------------------|
|-(5)-3-(3)-5-7-8-7------|-----------------------|
|-------------------8----|----------------8----8-|
|------------------------|-10-12-15-14-12-8----8-|


  +E  E E E E  E  Q     S  S  E  E  E Q.   S  S
|--------------------|--------------------------|
|--------------------|--------------------------|
|--------------------|--------------------------|
|--------------------|--------------------------|
|-(8)-7-8-7-8-10-10--|----------------8----8-10-|
|-(8)-7-8-7-8-10-10--|-10-12-15-14-12-8---------|


   +E  E +E  E E E  Q    S S S S E S S S S S S E S S   E S S S S S S H
|----------------------|-----------------------------|--------------------|
|----------------------|-----------------------------|--------------------|
|----------------------|-----------------------------|--------------------|
|----------------------|-----------------------------|--------------------|
|-(10)-8-(8)-7-8-7-----|-----------------------------|--------------------|
|------------------10--|-0-0-0-----0-0-0-0-0-----0---|---0-0-0-0-0--------|


  S S S S E S S S S S S E S S   E S S S S S S  H      E E E E E E E E
|-----------------------------|---------------------|-----------------|
|-----------------------------|---------------------|-----------------|
|-----------------------------|---------------------|-----------------|
|-----------------------------|---------------------|-----------------|
|-----------------------------|---------------12----|-0-0---0-0-0---0-|
|-0-0-0-----0-0-0-0-0-----0---|---0-0-0-0-0---12----|-0-0---0-0-0---0-|


  Gtr I
  E E E E E  E  Q    E E E E E E E E   E E E E E E Q    E E E E E E  E E
|--------------10--|-----------------|----------------|-------------10---|
|-----------10-----|-----------------|----------------|------------------|
|------------------|-----------------|----------------|------------------|
|------------------|-----------------|----------------|------------------|
|---0-0-0----------|-0-0---0-0-0---0-|---0-0-0---0-1--|-0-0---0-0-0----0-|
|---0-0-0----------|-0-0---0-0-0---0-|---0-0-0---0-1--|-0-0---0-0-0----0-|
|
| Gtr II
| E E E E E  E  Q    E E E E E E E E   E E E E E E Q    E E E E E E  E E
|--------------10--|-----------------|----------------|------------------|
|-----------10-----|-----------------|----------------|------------------|
|------------------|-----------------|----------------|------------------|
|------------------|-----------------|----------------|------------------|
|---0-0-0----------|-0-0---0-0-0---0-|---0-0-0---0-1--|-0-0---0-0-0----0-|
|---0-0-0----------|-0-0---0-0-0---0-|---0-0-0---0-1--|-0-0---0-0-0----0-|


   E E E E E  E  E  E   E E E E E E E E   E E E E E E Q    E E E E Q  E E
|-10------------10----|-----------------|----------------|----------------|
|------------10----10-|-----------------|----------------|----------------|
|---------------------|-----------------|----------------|----------------|
|---------------------|-----------------|----------------|----------------|
|----0-0-0------------|-0-0---0-0-0---0-|---0-0-0---0-1--|-0-----0----0---|
|----0-0-0------------|-0-0---0-0-0---0-|---0-0-0---0-1--|-0-----0----0---|
|
|  E E E E E  E  E  E   E E E E E E E E   E E E E E E Q    E E E E Q  E E
|---------------10----|-----------------|----------------|----------------|
|------------10----10-|-----------------|----------------|----------------|
|---------------------|-----------------|----------------|----------------|
|---------------------|-----------------|----------------|----------------|
|----0-0-0------------|-0-0---0-0-0---0-|---0-0-0---0-1--|-0-----0----0---|
|----0-0-0------------|-0-0---0-0-0---0-|---0-0-0---0-1--|-0-----0----0---|


 7/8
  Gtrs I, II
  E E S S +S  S E S  S  +E
|-------------------10-(10)-|
|---------------------------|
|---------------------------|
|---0-----------------------|
|-----3-0-(0)---------------|
|-------------6-5-3---------|


  Q=143
 9/4                                       3/4
  E. E. E S E. E E. S E. E S E. E. E S E.   E S S +S  S E S  E.
|-----------------------------------------|-----------------10--|
|-----------------------------------------|---------------------|
|-----------------------------------------|---------------------|
|-----------------------------------------|-0-------------------|
|-0--0--0-0-0----------------1--1--1-1-1--|---3-0-(0)-----------|
|-0--0--0-0-0--3-0--5-0--3-0-1--1--1-1-1--|-----------6-5-3-----|


  Q=143
 9/4                                       3/4
  E. E. E S E. E E. S E. E S E. E. E S E.   E S S +S  S E S  E.
|-----------------------------------------|-----------------10--|
|-----------------------------------------|---------------------|
|-----------------------------------------|---------------------|
|-----------------------------------------|-0-------------------|
|-0--0--0-0-0----------------1--1--1-1-1--|---3-0-(0)-----------|
|-0--0--0-0-0--3-0--5-0--3-0-1--1--1-1-1--|-----------6-5-3-----|


 9/4                                       3/4
  E. E. E S E. E E. S E. E S E. E. E S E.   E S S +S  S E S  E.
|-----------------------------------------|-----------------10--|
|-----------------------------------------|---------------------|
|-----------------------------------------|---------------------|
|-----------------------------------------|-0-------------------|
|-0--0--0-0-0----------------1--1--1-1-1--|---3-0-(0)-----------|
|-0--0--0-0-0--3-0--5-0--3-0-1--1--1-1-1--|-----------6-5-3-----|


  Q=141     Q=140                    Q=139  Q=134
 9/4                                       3/4
  E. E. E S E. E E. S E. E S E. E. E S E.   E S S +S  S E S  E.
|-----------------------------------------|-----------------10--|
|-----------------------------------------|---------------------|
|-----------------------------------------|---------------------|
|-----------------------------------------|-0-------------------|
|-0--0--0-0-0----------------1--1--1-1-1--|---3-0-(0)-----------|
|-0--0--0-0-0--3-0--5-0--3-0-1--1--1-1-1--|-----------6-5-3-----|


  Q=145
 8/4
  E E +E  S S S E. +E  E +E  E +E  S S E E Q
|---------------------------------------------|
|---------------------------------------------|
|---------------------------------------------|
|---------------------------------------------|
|-------------6-5--(5)-----------------6------|
|-0-0-(0)-6-5----------0-(0)-0-(0)-6-5--------|


  E E +E  S S S E. E E E E Q  E E Q
|------------------------------------|
|------------------------------------|
|-----------------------------5---6--|
|-------------------------------5----|
|-------------6-5--------------------|
|-0-0-(0)-6-5------0-0-0-0-----------|


  Q=145
  E E +E  S S S E. +E  E +E  E +E  S S E E Q
|---------------------------------------------|
|---------------------------------------------|
|---------------------------------------------|
|---------------------------------------------|
|-------------6-5--(5)-----------------6------|
|-0-0-(0)-6-5----------0-(0)-0-(0)-6-5--------|


  E E +E  S S S E. E E E E Q  E E Q
|-------------------------------------|
|-------------------------------------|
|-----------------------------5---6---|
|-------------------------------5-----|
|-------------6-5---------------------|
|-0-0-(0)-6-5------0-0-0-0------------|


  Q=145
  E E +E  S S S E. +E  E +E  E +E  S S E E Q
|---------------------------------------------|
|---------------------------------------------|
|---------------------------------------------|
|---------------------------------------------|
|-------------6-5--(5)-----------------6------|
|-0-0-(0)-6-5----------0-(0)-0-(0)-6-5--------|


  E E +E  S S S E. E E E E Q  E E Q
|-------------------------------------|
|-------------------------------------|
|-----------------------------5---6---|
|-------------------------------5-----|
|-------------6-5---------------------|
|-0-0-(0)-6-5------0-0-0-0------------|


  Q=145
  E E +E  S S S E. +E  E +E  E +E  S S E E Q
|---------------------------------------------|
|---------------------------------------------|
|---------------------------------------------|
|---------------------------------------------|
|-------------6-5--(5)-----------------6------|
|-0-0-(0)-6-5----------0-(0)-0-(0)-6-5--------|


  E E +E  S S S E. E E E E Q  E E Q
|-------------------------------------|
|-------------------------------------|
|-----------------------------5---6---|
|-------------------------------5-----|
|-------------6-5---------------------|
|-0-0-(0)-6-5------0-0-0-0------------|


  Q=145
  Gtr I
  E E +E  S S S E. +E  E +E  E +E  S S E E Q
|---------------------------------------------|
|---------------------------------------------|
|---------------------------------------------|
|---------------------------------------------|
|-------------6-5--(5)-----------------6------|
|-0-0-(0)-6-5----------0-(0)-0-(0)-6-5--------|
|
| Gtr II
| E E +E  S S S E. +E  E +E  E +E  S S E E Q
|---------------------------------------------|
|---------------------------------------------|
|---------------------------------------------|
|---------------------------------------------|
|-------------6-5--(5)-----------------6------|
|-0-0-(0)-6-5----------0-(0)-0-(0)-6-5--------|


  E E +E  S S S E. E E E E Q  E E Q
|-------------------------------------|
|-------------------------------------|
|-----------------------------5---6---|
|-------------------------------5-----|
|-------------6-5---------------------|
|-0-0-(0)-6-5------0-0-0-0------------|
|
| E E +E  S S S E. E E E E Q  E E Q
|---------------------------------1---|
|-----------------------------5-------|
|-------------------------------3-----|
|-------------------------------------|
|-------------6-5---------------------|
|-0-0-(0)-6-5------0-0-0-0------------|


  Q=145
  E E +E  S S S E. +E  E +E  E +E  S S E E Q
|---------------------------------------------|
|---------------------------------------------|
|---------------------------------------------|
|---------------------------------------------|
|-------------6-5--(5)-----------------6------|
|-0-0-(0)-6-5----------0-(0)-0-(0)-6-5--------|
|
| E E +E  S S S E. +E  E +E  E +E  S S E E Q
|---------------------------------------------|
|---------------------------------------------|
|---------------------------------------------|
|---------------------------------------------|
|-------------6-5--(5)-----------------6------|
|-0-0-(0)-6-5----------0-(0)-0-(0)-6-5--------|


  E E +E  S S S E. E E E E Q  E E Q
|-------------------------------------|
|-------------------------------------|
|-----------------------------5---6---|
|-------------------------------5-----|
|-------------6-5---------------------|
|-0-0-(0)-6-5------0-0-0-0------------|
|
| E E +E  S S S E. E E E E Q  E E Q
|---------------------------------1---|
|-----------------------------5-------|
|-------------------------------3-----|
|-------------------------------------|
|-------------6-5---------------------|
|-0-0-(0)-6-5------0-0-0-0------------|


  E E +E  S S S E. +E  E +E  E +E  S S E E Q
|---------------------------------------------|
|---------------------------------------------|
|---------------------------------------------|
|---------------------------------------------|
|-------------6-5--(5)-----------------6------|
|-0-0-(0)-6-5----------0-(0)-0-(0)-6-5--------|
|
| E E +E  S S S E. +E  E +E  E +E  S S E E Q
|---------------------------------------------|
|---------------------------------------------|
|---------------------------------------------|
|---------------------------------------------|
|-------------6-5--(5)-----------------6------|
|-0-0-(0)-6-5----------0-(0)-0-(0)-6-5--------|


  E E +E  S S S E. E E E E Q  E E Q
|-------------------------------------|
|-------------------------------------|
|-----------------------------5---6---|
|-------------------------------5-----|
|-------------6-5---------------------|
|-0-0-(0)-6-5------0-0-0-0------------|
|
| E E +E  S S S E. E E E E Q  E E Q
|---------------------------------1---|
|-----------------------------5-------|
|-------------------------------3-----|
|-------------------------------------|
|-------------6-5---------------------|
|-0-0-(0)-6-5------0-0-0-0------------|


  Q=145
  E E +E  S S S E. +E  E +E  E +E  S S E E Q
|---------------------------------------------|
|---------------------------------------------|
|---------------------------------------------|
|---------------------------------------------|
|-------------6-5--(5)-----------------6------|
|-0-0-(0)-6-5----------0-(0)-0-(0)-6-5--------|
|
| E E +E  S S S E. +E  E +E  E +E  S S E E Q
|---------------------------------------------|
|---------------------------------------------|
|---------------------------------------------|
|---------------------------------------------|
|-------------6-5--(5)-----------------6------|
|-0-0-(0)-6-5----------0-(0)-0-(0)-6-5--------|


  E E +E  S S S E. E E E E Q  E E Q
|-------------------------------------|
|-------------------------------------|
|-----------------------------5---6---|
|-------------------------------5-----|
|-------------6-5---------------------|
|-0-0-(0)-6-5------0-0-0-0------------|
|
| E E +E  S S S E. E E E E Q  E E Q
|---------------------------------1---|
|-----------------------------5-------|
|-------------------------------3-----|
|-------------------------------------|
|-------------6-5---------------------|
|-0-0-(0)-6-5------0-0-0-0------------|


 4/4
  H      E E E E   Q   E S S E E E E   H      E E Q    S S E E E E E E  E
|----------------|---------------1---|--------1-3----|-----------------12--|
|----------------|---------4-4-------|------------3--|-3-4-3-1-------------|
|--------7---8---|-------6-----3---3-|---------------|---------3-2-3-------|
|----------7---7-|-------------------|---------------|---------------5-----|
|----------------|-------------------|---------------|---------------------|
|----------------|-------------------|---------------|---------------------|
|
| E E Q  H         E E Q     H         E E Q  H        E   E Q   H
|----------------|-------------------|---------------|---------------------|
|----------------|-------------------|---------------|---------------------|
|----------------|-------------------|---------------|---------------------|
|----------------|-------------------|---------------|---------------------|
|-0-0------------|-0-0---------------|-0-0-----------|-0---0---------------|
|-0-0------------|-0-0---------------|-0-0-----------|-0---0---------------|


  H       E  E  E  E   Q   E  S  S  E  E  E  E
|--------------------|-------------------------|
|--------------------|-------------------------|
|--------------------|-------------------------|
|--------12----13----|-------11-13-13----15----|
|-----------12----12-|----------------13----13-|
|--------------------|-------------------------|
|
| E E Q   H            E E Q        H
|--------------------|-------------------------|
|--------------------|-------------------------|
|--------------------|-------------------------|
|--------------------|-------------------------|
|-0-0----------------|-0-0---------------------|
|-0-0----------------|-0-0---------------------|


  H       E  E  Q     E  E  E  E  Q   Q
|------------------|----------------------|
|------------------|----------------------|
|------------------|----------------------|
|--------15-17-----|----------------------|
|--------------17--|-17-18-17-15-13--15---|
|------------------|----------------------|
|
| E E Q   H           E  E  Q     H
|------------------|----------------------|
|------------------|----------------------|
|------------------|----------------------|
|------------------|----------------------|
|-0-0--------------|--0--0----------------|
|-0-0--------------|--0--0----------------|


  Q=147
  Gtrs I, II
   Q.    E  Q.    E    +E   E  +Q    Q  Q     Q.    E  +H       Q.   E +H
|-------------------|----------------------|------------------|---------------|
|--6-----6--6-----6-|--(6)--6--(6)------8--|-10----11-(11)----|-3----3-(3)----|
|-10----10-10----10-|-(10)-10-(10)--10--0--|------------------|-7----7-(7)----|
|-10----10-10----10-|-(10)-10-(10)---------|--7-----8--(8)----|-7----7-(7)----|
|--8-----8--8-----8-|--(8)--8--(8)---8-----|------------------|-5----5-(5)----|
|-------------------|----------------------|------------------|---------------|


  Q  E E E E +E  E   Q  E E E E +E  E
|------------------|------------------|
|-4--4-4-4-4-(4)-4-|-4--4-4-4-4-(4)-4-|
|-8--8-8-8-8-(8)-8-|-8--8-8-8-8-(8)-8-|
|-8--8-8-8-8-(8)-8-|-8--8-8-8-8-(8)-8-|
|-6--6-6-6-6-(6)-6-|-6--6-6-6-6-(6)-6-|
|------------------|------------------|


   Q   E  E  E  E  +E   E   Q  E E E E +E  E
|-------------------------|------------------|
|--6---6--6--6--6--(6)--6-|-3--3-3-3-3-(3)-3-|
|-10--10-10-10-10-(10)-10-|-7--7-7-7-7-(7)-7-|
|-10--10-10-10-10-(10)-10-|-7--7-7-7-7-(7)-7-|
|--8---8--8--8--8--(8)--8-|-5--5-5-5-5-(5)-5-|
|-------------------------|------------------|


   Q   E  E  E  E  E  E    E  E  E  E  E  E  E  E
|-----------------------|-------------------------|
|--8---8--8--8--8--8--8-|--8--8--8--8--8--8--6--6-|
|-12--12-12-12-12-12-12-|-12-12-12-12-12-12-10-10-|
|-12--12-12-12-12-12-12-|-12-12-12-12-12-12-10-10-|
|-10--10-10-10-10-10-10-|-10-10-10-10-10-10--8--8-|
|-----------------------|-------------------------|


  E E E E E E E E   E E E E E E E E
|-----------------|-----------------|
|-4-4-4-4-4-4-4-4-|-4-4-4-4-4-4-4-4-|
|-8-8-8-8-8-8-8-8-|-8-8-8-8-8-8-8-8-|
|-8-8-8-8-8-8-8-8-|-8-8-8-8-8-8-8-8-|
|-6-6-6-6-6-6-6-6-|-6-6-6-6-6-6-6-6-|
|-----------------|-----------------|


  E E E E E E E E   E E E E E E E E   E E E E E E E E   E E E E E E E E
|-----------------|-----------------|-----------------|-----------------|
|-----------------|-----------------|-----------------|-----------------|
|-3-3-3-3-3-3-3-3-|-3-3-3-3-3-3-----|-----------------|-----------------|
|-3-3-3-3-3-3-3-3-|-3-3-3-3-3-3-----|-----------------|---2-2---2-2-2-2-|
|-1-1-1-1-1-1-1-1-|-1-1-1-1-1-1-5-5-|-3-3-3-3-3-3-3-3-|---0-0---0-0-0-0-|
|-----------------|-------------5-5-|-3-3-3-3-3-3-3-3-|-----------------|


  Q=155
  Gtr I
  E E +E  E Q   E E   E E +E  E H
|-------------------|-------------------|
|-------------------|-------------------|
|-------------------|-------------------|
|-------------------|-------------------|
|-5-5-(5)-------5-5-|-5-5-(5)-----------|
|-5-5-(5)-------5-5-|-5-5-(5)-----------|
|
| Gtr II
| E E  E  E E E E E   E E  E  E E E E E
|-------------------|-------------------|
|-3-3--3--3-3-3-3-3-|-3-3--3--3-3-3-3-3-|
|-------------------|-------------------|
|-0-0--0--0-0-0-0-0-|-0-0--0--0-0-0-0-0-|
|-------------------|-------------------|
|-------------------|-------------------|


  E E +E  E Q   S S S S   E.   S +S  E.   E.   S +S  E.
|-----------------------|---------------------------------|
|-----------------------|---------------------------------|
|-----------------------|---------------------------------|
|-----------------------|---------------------------------|
|-5-5-(5)-------5-5-5-5-|-5----6-(6)-5----1----3-(3)-6----|
|-5-5-(5)-------5-5-5-5-|-5----6-(6)-5----1----3-(3)-6----|
|
| E E  E  E E E E   E     E  E    E     E E  E    E     E
|-----------------------|---------------------------------|
|-4-4--4--4-4-4-4---4---|---------------------------------|
|-----------------------|-5--5----5-----5-5--5----5-----5-|
|-1-1--1--1-1-1-1---1---|---------------------------------|
|-----------------------|-3--3----3-----3-3--3----3-----3-|
|-----------------------|---------------------------------|


  E E +E  E Q   E E   E E +E  E H
|-------------------|-------------------|
|-------------------|-------------------|
|-------------------|-------------------|
|-------------------|-------------------|
|-5-5-(5)-------5-5-|-5-5-(5)-----------|
|-5-5-(5)-------5-5-|-5-5-(5)-----------|
|
| E E  E  E E E E E   E E  E  E E E E E
|-------------------|-------------------|
|-3-3--3--3-3-3-3-3-|-3-3--3--3-3-3-3-3-|
|-------------------|-------------------|
|-0-0--0--0-0-0-0-0-|-0-0--0--0-0-0-0-0-|
|-------------------|-------------------|
|-------------------|-------------------|


  E E +E  E Q   S S S S   E.   S +S  E.   E.   S +S  E.
|-----------------------|---------------------------------|
|-----------------------|---------------------------------|
|-----------------------|---------------------------------|
|-----------------------|---------------------------------|
|-5-5-(5)-------5-5-5-5-|-5----6-(6)-5----1----3-(3)-6----|
|-5-5-(5)-------5-5-5-5-|-5----6-(6)-5----1----3-(3)-6----|
|
| E E  E  E E E E   E     E  E    E     E E  E    E     E
|-----------------------|---------------------------------|
|-4-4--4--4-4-4-4---4---|---------------------------------|
|-----------------------|-5--5----5-----5-5--5----5-----5-|
|-1-1--1--1-1-1-1---1---|---------------------------------|
|-----------------------|-3--3----3-----3-3--3----3-----3-|
|-----------------------|---------------------------------|


  E E +E  E Q   E E   E E +E  E H
|-------------------|-------------------|
|-------------------|-------------------|
|-------------------|-------------------|
|-------------------|-------------------|
|-5-5-(5)-------5-5-|-5-5-(5)-----------|
|-5-5-(5)-------5-5-|-5-5-(5)-----------|
|
| E E  E  E E E E E   E E  E  E E E E E
|-------------------|-------------------|
|-3-3--3--3-3-3-3-3-|-3-3--3--3-3-3-3-3-|
|-------------------|-------------------|
|-0-0--0--0-0-0-0-0-|-0-0--0--0-0-0-0-0-|
|-------------------|-------------------|
|-------------------|-------------------|


  E E +E  E Q   S S S S   E.   S +S  E.   E.   S +S  E.
|-----------------------|---------------------------------|
|-----------------------|---------------------------------|
|-----------------------|---------------------------------|
|-----------------------|---------------------------------|
|-5-5-(5)-------5-5-5-5-|-5----6-(6)-5----1----3-(3)-6----|
|-5-5-(5)-------5-5-5-5-|-5----6-(6)-5----1----3-(3)-6----|
|
| E E  E  E E E E   E     E  E    E     E E  E    E     E
|-----------------------|---------------------------------|
|-4-4--4--4-4-4-4---4---|---------------------------------|
|-----------------------|-5--5----5-----5-5--5----5-----5-|
|-1-1--1--1-1-1-1---1---|---------------------------------|
|-----------------------|-3--3----3-----3-3--3----3-----3-|
|-----------------------|---------------------------------|


  E E +E  E Q   E E   E E +E  E H
|-------------------|-------------------|
|-------------------|-------------------|
|-------------------|-------------------|
|-------------------|-------------------|
|-5-5-(5)-------5-5-|-5-5-(5)-----------|
|-5-5-(5)-------5-5-|-5-5-(5)-----------|
|
| E E  E  E E E E E   E E  E  E E E E E
|-------------------|-------------------|
|-3-3--3--3-3-3-3-3-|-3-3--3--3-3-3-3-3-|
|-------------------|-------------------|
|-0-0--0--0-0-0-0-0-|-0-0--0--0-0-0-0-0-|
|-------------------|-------------------|
|-------------------|-------------------|


                          Q=160
  E E +E  E Q   S S S S   E. S +S  E. E. S +S  E.
|-----------------------|-------------------------|
|-----------------------|-------------------------|
|-----------------------|-------------------------|
|-----------------------|-------------------------|
|-5-5-(5)-------5-5-5-5-|-5--6-(6)-5--1--3-(3)-6--|
|-5-5-(5)-------5-5-5-5-|-5--6-(6)-5--1--3-(3)-6--|
|
| E E  E  E E E E   E     W
|-----------------------|-------------------------|
|-4-4--4--4-4-4-4---4---|-------------------------|
|-----------------------|-------------------------|
|-1-1--1--1-1-1-1---1---|-------------------------|
|-----------------------|-------------------------|
|-----------------------|-------------------------|


  Gtrs I, II
  E E +E  E Q  E E   E E +E  E H
|------------------|----------------|
|------------------|----------------|
|------------------|----------------|
|------------------|----------------|
|-5-5-(5)------5-5-|-5-5-(5)--------|
|-5-5-(5)------5-5-|-5-5-(5)--------|


  E E +E  E Q  S S S S   E. S +S  E. E. S +S  E.
|----------------------|-------------------------|
|----------------------|-------------------------|
|----------------------|-------------------------|
|----------------------|-------------------------|
|-5-5-(5)------5-5-5-5-|-5--6-(6)-5--1--3-(3)-6--|
|-5-5-(5)------5-5-5-5-|-5--6-(6)-5--1--3-(3)-6--|


  E E +E  E Q  E E   E E +E  E H
|------------------|----------------|
|------------------|----------------|
|------------------|----------------|
|------------------|----------------|
|-5-5-(5)------5-5-|-5-5-(5)--------|
|-5-5-(5)------5-5-|-5-5-(5)--------|


  E E +E  E Q  S S S S   E. S +S  E. E. S +S  E.
|----------------------|-------------------------|
|----------------------|-------------------------|
|----------------------|-------------------------|
|----------------------|-------------------------|
|-5-5-(5)------5-5-5-5-|-5--6-(6)-5--1--3-(3)-6--|
|-5-5-(5)------5-5-5-5-|-5--6-(6)-5--1--3-(3)-6--|


  E E +E  E Q  E E   E E +E  E H
|------------------|----------------|
|------------------|----------------|
|------------------|----------------|
|------------------|----------------|
|-5-5-(5)------5-5-|-5-5-(5)--------|
|-5-5-(5)------5-5-|-5-5-(5)--------|


  E E +E  E Q  S S S S   E. S +S  E. E. S +S  E.
|----------------------|-------------------------|
|----------------------|-------------------------|
|----------------------|-------------------------|
|----------------------|-------------------------|
|-5-5-(5)------5-5-5-5-|-5--6-(6)-5--1--3-(3)-6--|
|-5-5-(5)------5-5-5-5-|-5--6-(6)-5--1--3-(3)-6--|


  Q=165
  E E +E  E Q  E E   E E +E  E H
|------------------|----------------|
|------------------|----------------|
|------------------|----------------|
|------------------|----------------|
|-5-5-(5)------5-5-|-5-5-(5)--------|
|-5-5-(5)------5-5-|-5-5-(5)--------|


                         Q=151
  E E +E  E Q  S S S S   E. S +S  E. E. S +S  E.
|----------------------|-------------------------|
|----------------------|-------------------------|
|----------------------|-------------------------|
|----------------------|-------------------------|
|-5-5-(5)------5-5-5-5-|-5--6-(6)-5--1--3-(3)-6--|
|-5-5-(5)------5-5-5-5-|-5--6-(6)-5--1--3-(3)-6--|


                                     Q=158
                           2/4      4/4
  Gtr I
  +W           +W           +H       E.   S +Q    Q   E E   E E Q   Q   Q
|------------|------------|--------|----------------------|-----------------|
|------------|------------|--------|----------------------|-----------------|
|------------|------------|--------|----------------------|-----------------|
|------------|------------|--------|--------------------3-|-2-0-------------|
|-(6)--------|-(6)--------|-(6)----|------6-(6)---5---5---|-----3---5-------|
|-(6)--------|-(6)--------|-(6)----|-0--------------------|-------------7---|
|
| Gtr II
| +W           +W           +H       E  E    E  E E E E E   E E E E E E E E
|------------|------------|--------|----------------------|-----------------|
|------------|------------|--------|----------------------|-----------------|
|------------|------------|--------|----------------------|-5-5-5-5-5-5-5-5-|
|------------|------------|--------|----------------------|-5-5-5-5-5-5-5-5-|
|-(6)--------|-(6)--------|-(6)----|-5--5----5--5-5-5-5-5-|-3-3-3-3-3-3-3-3-|
|-(6)--------|-(6)--------|-(6)----|-0--0----0--0-0-0-0-0-|-----------------|


  E.   S +Q    Q   Q     E E E E Q   Q
|----------------------|-----------------|
|----------------------|-----------------|
|----------------------|-----------------|
|------7-(7)---5---3---|-2-3-2-0-----2---|
|----------------------|---------3-------|
|-8--------------------|-----------------|
|
| E  E    E  E E E E E   E E E E E E E E
|----------------------|-----------------|
|----------------------|-----------------|
|-3--3----3--3-3-3-3-3-|-5-5-5-5-5-5-5-5-|
|-3--3----3--3-3-3-3-3-|-5-5-5-5-5-5-5-5-|
|-1--1----1--1-1-1-1-1-|-3-3-3-3-3-3-3-3-|
|----------------------|-----------------|


  E.   S +Q    Q   E E   Q   E E Q   E E
|----------------------|-----------------|
|----------------------|-----------------|
|----------------------|-----0-2-0---2-3-|
|------1-(1)---0---0-3-|-2---------------|
|----------------------|-----------------|
|-0--------------------|-----------------|
|
| E  E    E  E E E E E   E E E E E E E E
|----------------------|-----------------|
|----------------------|-----------------|
|----------------------|-5-5-5-5-5-5-5-5-|
|----------------------|-5-5-5-5-5-5-5-5-|
|-5--5----5--5-5-5-5-5-|-3-3-3-3-3-3-3-3-|
|-0--0----0--0-0-0-0-0-|-----------------|


  Q   E E Q   Q     E E E E Q   Q     E.   S +Q    Q   E E   E E Q   Q   Q
|-----------------|-----------------|----------------------|------------------|
|-------1---------|-----------------|----------------------|------------------|
|-2---3---3---2---|-0-2-0-----------|----------------------|------------------|
|-----------------|-------3-2---3---|------1-(1)---0---0-3-|-2-0--------------|
|-----------------|-----------------|----------------------|-----3---5--------|
|-----------------|-----------------|-0--------------------|-------------7----|
|
| E E E E E E E E   E E E E E E E E   E  E    E  E E E E E   E E E E E E E E
|-----------------|-----------------|----------------------|------------------|
|-----------------|-----------------|----------------------|------------------|
|-3-3-3-3-3-3-3-3-|-5-5-5-5-5-5-5-5-|----------------------|-5-5-5-5-5-5-5-5--|
|-3-3-3-3-3-3-3-3-|-5-5-5-5-5-5-5-5-|----------------------|-5-5-5-5-5-5-5-5--|
|-1-1-1-1-1-1-1-1-|-3-3-3-3-3-3-3-3-|-5--5----5--5-5-5-5-5-|-3-3-3-3-3-3-3-3--|
|-----------------|-----------------|-0--0----0--0-0-0-0-0-|------------------|


  E.   S +Q    Q   Q     E E E E Q   Q
|----------------------|-----------------|
|----------------------|-----------------|
|----------------------|-----------------|
|------7-(7)---5---3---|-2-3-2-0-----2---|
|----------------------|---------3-------|
|-8--------------------|-----------------|
|
| E  E    E  E E E E E   E E E E E E E E
|----------------------|-----------------|
|----------------------|-----------------|
|-3--3----3--3-3-3-3-3-|-5-5-5-5-5-5-5-5-|
|-3--3----3--3-3-3-3-3-|-5-5-5-5-5-5-5-5-|
|-1--1----1--1-1-1-1-1-|-3-3-3-3-3-3-3-3-|
|----------------------|-----------------|


  E.   S +Q    Q   E E   Q   E E Q   E E
|----------------------|-----------------|
|----------------------|-----------------|
|----------------------|-----0-2-0---2-3-|
|------1-(1)---0---0-3-|-2---------------|
|----------------------|-----------------|
|-0--------------------|-----------------|
|
| E  E    E  E E E E E   E E E E E E E E
|----------------------|-----------------|
|----------------------|-----------------|
|----------------------|-5-5-5-5-5-5-5-5-|
|----------------------|-5-5-5-5-5-5-5-5-|
|-5--5----5--5-5-5-5-5-|-3-3-3-3-3-3-3-3-|
|-0--0----0--0-0-0-0-0-|-----------------|


  Q   E E Q   Q     E E E E Q   Q     E.   S +Q    Q   E E   E E Q   Q   Q
|-----------------|-----------------|----------------------|------------------|
|-------1---------|-----------------|----------------------|------------------|
|-2---3---3---2---|-0-2-0-----------|----------------------|------------------|
|-----------------|-------3-2---3---|------1-(1)---0---0-3-|-2-0--------------|
|-----------------|-----------------|----------------------|-----3---5--------|
|-----------------|-----------------|-0--------------------|-------------7----|
|
| E E E E E E E E   E E E E E E E E   E  E    E  E E E E E   E E E E E E E E
|-----------------|-----------------|----------------------|------------------|
|-----------------|-----------------|----------------------|------------------|
|-3-3-3-3-3-3-3-3-|-5-5-5-5-5-5-5-5-|----------------------|-5-5-5-5-5-5-5-5--|
|-3-3-3-3-3-3-3-3-|-5-5-5-5-5-5-5-5-|----------------------|-5-5-5-5-5-5-5-5--|
|-1-1-1-1-1-1-1-1-|-3-3-3-3-3-3-3-3-|-5--5----5--5-5-5-5-5-|-3-3-3-3-3-3-3-3--|
|-----------------|-----------------|-0--0----0--0-0-0-0-0-|------------------|


  E.   S +Q    Q   Q     E E E E Q   Q
|----------------------|-----------------|
|----------------------|-----------------|
|----------------------|-----------------|
|------7-(7)---5---3---|-2-3-2-0-----2---|
|----------------------|---------3-------|
|-8--------------------|-----------------|
|
| E  E    E  E E E E E   E E E E E E E E
|----------------------|-----------------|
|----------------------|-----------------|
|-3--3----3--3-3-3-3-3-|-5-5-5-5-5-5-5-5-|
|-3--3----3--3-3-3-3-3-|-5-5-5-5-5-5-5-5-|
|-1--1----1--1-1-1-1-1-|-3-3-3-3-3-3-3-3-|
|----------------------|-----------------|


  E.   S +Q    Q   E E   Q   E E Q   E E
|----------------------|-----------------|
|----------------------|-----------------|
|----------------------|-----0-2-0---2-3-|
|------1-(1)---0---0-3-|-2---------------|
|----------------------|-----------------|
|-0--------------------|-----------------|
|
| E  E    E  E E E E E   E E E E E E E E
|----------------------|-----------------|
|----------------------|-----------------|
|----------------------|-5-5-5-5-5-5-5-5-|
|----------------------|-5-5-5-5-5-5-5-5-|
|-5--5----5--5-5-5-5-5-|-3-3-3-3-3-3-3-3-|
|-0--0----0--0-0-0-0-0-|-----------------|


  Q   E E Q   Q     E E E E Q   Q     E.   S +Q    Q   E E   E E Q   Q   Q
|-----------------|-----------------|----------------------|------------------|
|-------1---------|-----------------|----------------------|------------------|
|-2---3---3---2---|-0-2-0-----------|----------------------|------------------|
|-----------------|-------3-2---3---|------1-(1)---0---0-3-|-2-0--------------|
|-----------------|-----------------|----------------------|-----3---5--------|
|-----------------|-----------------|-0--------------------|-------------7----|
|
| E E E E E E E E   E E E E E E E E   E  E    E  E E E E E   E E E E E E E E
|-----------------|-----------------|----------------------|------------------|
|-----------------|-----------------|----------------------|------------------|
|-3-3-3-3-3-3-3-3-|-5-5-5-5-5-5-5-5-|----------------------|-5-5-5-5-5-5-5-5--|
|-3-3-3-3-3-3-3-3-|-5-5-5-5-5-5-5-5-|----------------------|-5-5-5-5-5-5-5-5--|
|-1-1-1-1-1-1-1-1-|-3-3-3-3-3-3-3-3-|-5--5----5--5-5-5-5-5-|-3-3-3-3-3-3-3-3--|
|-----------------|-----------------|-0--0----0--0-0-0-0-0-|------------------|


  E.   S +Q    Q   Q     E E E E Q   Q
|----------------------|-----------------|
|----------------------|-----------------|
|----------------------|-----------------|
|------7-(7)---5---3---|-2-3-2-0-----2---|
|----------------------|---------3-------|
|-8--------------------|-----------------|
|
| E  E    E  E E E E E   E E E E E E E E
|----------------------|-----------------|
|----------------------|-----------------|
|-3--3----3--3-3-3-3-3-|-5-5-5-5-5-5-5-5-|
|-3--3----3--3-3-3-3-3-|-5-5-5-5-5-5-5-5-|
|-1--1----1--1-1-1-1-1-|-3-3-3-3-3-3-3-3-|
|----------------------|-----------------|


  E.   S +Q    Q   E E   Q   E E Q   E E
|----------------------|-----------------|
|----------------------|-----------------|
|----------------------|-----0-2-0---2-3-|
|------1-(1)---0---0-3-|-2---------------|
|----------------------|-----------------|
|-0--------------------|-----------------|
|
| E  E    E  E E E E E   E E E E E E E E
|----------------------|-----------------|
|----------------------|-----------------|
|----------------------|-5-5-5-5-5-5-5-5-|
|----------------------|-5-5-5-5-5-5-5-5-|
|-5--5----5--5-5-5-5-5-|-3-3-3-3-3-3-3-3-|
|-0--0----0--0-0-0-0-0-|-----------------|


  Q   E E Q   Q     E E E E Q   Q     E.   S +Q    Q   E E   E E Q   Q   Q
|-----------------|-----------------|----------------------|------------------|
|-------1---------|-----------------|----------------------|------------------|
|-2---3---3---2---|-0-2-0-----------|----------------------|------------------|
|-----------------|-------3-2---3---|------1-(1)---0---0-3-|-2-0--------------|
|-----------------|-----------------|----------------------|-----3---5--------|
|-----------------|-----------------|-0--------------------|-------------7----|
|
| E E E E E E E E   E E E E E E E E   E  E    E  E E E E E   E E E E E E E E
|-----------------|-----------------|----------------------|------------------|
|-----------------|-----------------|----------------------|------------------|
|-3-3-3-3-3-3-3-3-|-5-5-5-5-5-5-5-5-|----------------------|-5-5-5-5-5-5-5-5--|
|-3-3-3-3-3-3-3-3-|-5-5-5-5-5-5-5-5-|----------------------|-5-5-5-5-5-5-5-5--|
|-1-1-1-1-1-1-1-1-|-3-3-3-3-3-3-3-3-|-5--5----5--5-5-5-5-5-|-3-3-3-3-3-3-3-3--|
|-----------------|-----------------|-0--0----0--0-0-0-0-0-|------------------|


  E.   S +Q    Q   Q     E E E E Q   Q
|----------------------|-----------------|
|----------------------|-----------------|
|----------------------|-----------------|
|------7-(7)---5---3---|-2-3-2-0-----2---|
|----------------------|---------3-------|
|-8--------------------|-----------------|
|
| E  E    E  E E E E E   E E E E E E E E
|----------------------|-----------------|
|----------------------|-----------------|
|-3--3----3--3-3-3-3-3-|-5-5-5-5-5-5-5-5-|
|-3--3----3--3-3-3-3-3-|-5-5-5-5-5-5-5-5-|
|-1--1----1--1-1-1-1-1-|-3-3-3-3-3-3-3-3-|
|----------------------|-----------------|


  E.   S +Q    Q   E E   Q   E E Q   E E
|----------------------|-----------------|
|----------------------|-----------------|
|----------------------|-----0-2-0---2-3-|
|------1-(1)---0---0-3-|-2---------------|
|----------------------|-----------------|
|-0--------------------|-----------------|
|
| E  E    E  E E E E E   E E E E E E E E
|----------------------|-----------------|
|----------------------|-----------------|
|----------------------|-5-5-5-5-5-5-5-5-|
|----------------------|-5-5-5-5-5-5-5-5-|
|-5--5----5--5-5-5-5-5-|-3-3-3-3-3-3-3-3-|
|-0--0----0--0-0-0-0-0-|-----------------|


  Q   E E Q   Q     E E E E Q   Q     E.   S +Q    Q   E E   E E Q   Q   Q
|-----------------|-----------------|----------------------|------------------|
|-------1---------|-----------------|----------------------|------------------|
|-2---3---3---2---|-0-2-0-----------|----------------------|------------------|
|-----------------|-------3-2---3---|------1-(1)---0---0-3-|-2-0--------------|
|-----------------|-----------------|----------------------|-----3---5--------|
|-----------------|-----------------|-0--------------------|-------------7----|
|
| E E E E E E E E   E E E E E E E E   E  E    E  E E E E E   E E E E E E E E
|-----------------|-----------------|----------------------|------------------|
|-----------------|-----------------|----------------------|------------------|
|-3-3-3-3-3-3-3-3-|-5-5-5-5-5-5-5-5-|----------------------|-5-5-5-5-5-5-5-5--|
|-3-3-3-3-3-3-3-3-|-5-5-5-5-5-5-5-5-|----------------------|-5-5-5-5-5-5-5-5--|
|-1-1-1-1-1-1-1-1-|-3-3-3-3-3-3-3-3-|-5--5----5--5-5-5-5-5-|-3-3-3-3-3-3-3-3--|
|-----------------|-----------------|-0--0----0--0-0-0-0-0-|------------------|


  E.   S +Q    Q   Q     E E E E Q   Q
|----------------------|-----------------|
|----------------------|-----------------|
|----------------------|-----------------|
|------7-(7)---5---3---|-2-3-2-0-----2---|
|----------------------|---------3-------|
|-8--------------------|-----------------|
|
| E  E    E  E E E E E   E E E E E E E E
|----------------------|-----------------|
|----------------------|-----------------|
|-3--3----3--3-3-3-3-3-|-5-5-5-5-5-5-5-5-|
|-3--3----3--3-3-3-3-3-|-5-5-5-5-5-5-5-5-|
|-1--1----1--1-1-1-1-1-|-3-3-3-3-3-3-3-3-|
|----------------------|-----------------|


  E.   S +Q    Q   E E   Q   E E Q   E E
|----------------------|-----------------|
|----------------------|-----------------|
|----------------------|-----0-2-0---2-3-|
|------1-(1)---0---0-3-|-2---------------|
|----------------------|-----------------|
|-0--------------------|-----------------|
|
| E  E    E  E E E E E   E E E E E E E E
|----------------------|-----------------|
|----------------------|-----------------|
|----------------------|-5-5-5-5-5-5-5-5-|
|----------------------|-5-5-5-5-5-5-5-5-|
|-5--5----5--5-5-5-5-5-|-3-3-3-3-3-3-3-3-|
|-0--0----0--0-0-0-0-0-|-----------------|


  Q   E E Q   Q     E E E E Q   Q     E.   S +Q    Q   E E   E E Q   Q   Q
|-----------------|-----------------|----------------------|------------------|
|-------1---------|-----------------|----------------------|------------------|
|-2---3---3---2---|-0-2-0-----------|----------------------|------------------|
|-----------------|-------3-2---3---|------1-(1)---0---0-3-|-2-0--------------|
|-----------------|-----------------|----------------------|-----3---5--------|
|-----------------|-----------------|-0--------------------|-------------7----|
|
| E E E E E E E E   E E E E E E E E   E  E    E  E E E E E   E E E E E E E E
|-----------------|-----------------|----------------------|------------------|
|-----------------|-----------------|----------------------|------------------|
|-3-3-3-3-3-3-3-3-|-5-5-5-5-5-5-5-5-|----------------------|-5-5-5-5-5-5-5-5--|
|-3-3-3-3-3-3-3-3-|-5-5-5-5-5-5-5-5-|----------------------|-5-5-5-5-5-5-5-5--|
|-1-1-1-1-1-1-1-1-|-3-3-3-3-3-3-3-3-|-5--5----5--5-5-5-5-5-|-3-3-3-3-3-3-3-3--|
|-----------------|-----------------|-0--0----0--0-0-0-0-0-|------------------|


  E.   S +Q    Q   Q     E E E E Q   Q
|----------------------|-----------------*|
|----------------------|-----------------*|
|----------------------|-----------------*|
|------7-(7)---5---3---|-2-3-2-0-----2---*|
|----------------------|---------3-------*|
|-8--------------------|-----------------*|
|
| E  E    E  E E E E E   E E E E E E E E
|----------------------|-----------------*|
|----------------------|-----------------*|
|-3--3----3--3-3-3-3-3-|-5-5-5-5-5-5-5-5-*|
|-3--3----3--3-3-3-3-3-|-5-5-5-5-5-5-5-5-*|
|-1--1----1--1-1-1-1-1-|-3-3-3-3-3-3-3-3-*|
|----------------------|-----------------*|


DARKNESS SURROUNDING
As recorded by Avenged Sevenfold
(From the 2002 Album SOUNDING THE SEVENTH TRUMPET)



Gtr I    (D A D G B E) – 'Synyster Gates'
Gtr II   (D A D G B E) – 'Zacky Vengeance'
Gtr III (D A D G B E) – 'Pickslide Guitar'
  Q=100
 4/4
  Gtr I
  W           S  E  S  S  E  S  S  E  S  S  E  S
|----------|-------------------------------------|
|----------|-------------------------------------|
|----------|-------------------------------------|
|----------|-10-10-10-10-10-10-12-12-12-12-12-12-|
|----------|-10-10-10-10-10-10-12-12-12-12-12-12-|
|----------|-10-10-10-10-10-10-12-12-12-12-12-12-|
|
| Gtr II
| W           H                 H
|----------|--3-----------------2----------------|
|----------|-------------------------------------|
|----------|-------------------------------------|
|----------|-------------------------------------|
|----------|-------------------------------------|
|----------|-------------------------------------|


   S  E  S  S  E  S  S  E  S  S  E  S
|-------------------------------------|
|-------------------------------------|
|-------------------------------------|
|-14-14-14-14-14-14-14-14-14-14-14-14-|
|-14-14-14-14-14-14-14-14-14-14-14-14-|
|-14-14-14-14-14-14-14-14-14-14-14-14-|
|
|  W
|-------------------------------------|
|--5----------------------------------|
|-------------------------------------|
|-------------------------------------|
|-------------------------------------|
|-------------------------------------|


   S  E  S  S  E  S  S  E  S  S  E  S
|-------------------------------------|
|-------------------------------------|
|-------------------------------------|
|-10-10-10-10-10-10-12-12-12-12-12-12-|
|-10-10-10-10-10-10-12-12-12-12-12-12-|
|-10-10-10-10-10-10-12-12-12-12-12-12-|
|
|  H                 H
|--7-----------------5----------------|
|--8-----------------7----------------|
|-------------------------------------|
|-------------------------------------|
|-------------------------------------|
|-------------------------------------|


   S  E  S  S  E  S  S  E  S  S  E  S    H.          Q
|-------------------------------------|--------------------|
|-------------------------------------|--------------------|
|-------------------------------------|--------------------|
|-14-14-14-14-14-14-14-14-14-14-14-14-|-10-----------------|
|-14-14-14-14-14-14-14-14-14-14-14-14-|-10-----------------|
|-14-14-14-14-14-14-14-14-14-14-14-14-|-10-----------------|
|
|  W                                     H     E. S +E  E
|--4----------------------------------|--7-----5--3-(3)-2--|
|--5----------------------------------|--8-----7--5-(5)-3--|
|-------------------------------------|--------------------|
|-------------------------------------|--------------------|
|-------------------------------------|--------------------|
|-------------------------------------|--------------------|


  Gtr II                             Gtr I
  E.    S +E   E   H                 S S S S S S S S S S S S S S S S
|-0-----3-(3)--7---5---------------|---------------------------------|
|-1-----5-(5)--8---7---------------|---------------------------------|
|----------------------------------|---------------------------------|
|----------------------------------|-----2---2-2-0-3-2---2---2-2-0-3-|
|----------------------------------|-7-------------------------------|
|----------------------------------|---2---2-----------2---2---------|
|
| Gtr III
| TPTPTPTP TPTPTPTPTPTPTPTPTPTPTPTP  TP
| S S S S  S S S S S S S S S S S S   S S E   Q       H
|-xsxsxsxs=xsxsxsx-----------------|---------------------------------|
|-xsx-x------x---xsxsxsx-----------|---------------------------------|
|-xsxsxsxs=xsxsxsx-----xsx---------|---------------------------------|
|---xsxsxs=x---xsxsxsxsx---xsxsxsxs|=x-------------------------------|
|------------------xsxsxsxsx-------|---------------------------------|
|--------------------------xsxsxsxs|=x-------------------------------|


  S S S S S S S S S S S S S S S S   S S S S S S S S S S S S S S S S
|---------------------------------|---------------------------------|
|---------------------------------|---------------------------------|
|---------------------------------|---------------------------------|
|-2---2---2-2-0-3-2---2---2-2-0-3-|-2---2---2-2-0-3-2---2---2-2-0-3-|
|---------------------------------|---------------------------------|
|---2---2-----------2---2---------|---2---2-----------2---2---------|


  S S S S S S S S S S S S S S S S   S E S S E S S E S S E S
|---------------------------------|-------------------------|
|---------------------------------|-------------3-3-3-3-3-3-|
|---------------------------------|-5-5-5-5-5-5-2-2-2-2-2-2-|
|-2---2---2-2-0-3-2---2---2-2-0-3-|-5-5-5-5-5-5-0-0-0-0-0-0-|
|---------------------------------|-3-3-3-3-3-3-------------|
|---2---2-----------2---2---------|-------------------------|
|
| Gtr II
| W                                 H           H
|---------------------------------|-3-----------5-----------|
|---------------------------------|-------------7-----------|
|---------------------------------|-------------------------|
|---------------------------------|-------------------------|
|---------------------------------|-------------------------|
|---------------------------------|-------------------------|


  S E S S E S S E S S E S   S E S S E S  S E S S E S
|-------------------------|--------------------------|
|-5-5-5-5-5-5-5-5-5-5-5-5-|--------------3-3-3-3-3-3-|
|-4-4-4-4-4-4-4-4-4-4-4-4-|-5-5-5-5-5-5--2-2-2-2-2-2-|
|-2-2-2-2-2-2-2-2-2-2-2-2-|-5-5-5-5-5-5--0-0-0-0-0-0-|
|-------------------------|-3-3-3-3-3-3--------------|
|-------------------------|--------------------------|
|
| W                         H            H
|-7-----------------------|-7-----------10-----------|
|-5-----------------------|-8------------7-----------|
|-------------------------|--------------------------|
|-------------------------|--------------------------|
|-------------------------|--------------------------|
|-------------------------|--------------------------|


   S E S S E S S E S S E S
|---------------------------|
|--5-5-5-5-5-5-5-5-5-5-5-5--|
|--4-4-4-4-4-4-4-4-4-4-4-4--|
|--2-2-2-2-2-2-2-2-2-2-2-2--|
|---------------------------|
|---------------------------|
|
|  W
|-12------------------------|
|---------------------------|
|--9------------------------|
|---------------------------|
|---------------------------|
|---------------------------|


                     Q=102
   H.           Q     W
|------------------|----------------------------------|
|------------------|----------------------------------|
|--5---------------|----------------------------------|
|--5---------------|----------------------------------|
|--3---------------|----------------------------------|
|------------------|----------------------------------|
|
|  Q..    S  H        W
|------------------|----------------------------------|
|------------------|----------------------------------|
|-12---------------|----------------------------------|
|-10-----10-12-----|-13-------------------------------|
|------------------|-14-------------------------------|
|------------------|----------------------------------|
|
| Gtr III
|                     TPTPTPTPTPTPTPTPTPTPTPTPTPTPTPTP
|  W                  S S S S S S S S S S S S S S S S
|------------------|--xsxsxsxsxsxsxsx-----------------|
|------------------|--xsx-x-----x---xsxsxsx-----------|
|------------------|--xsxsxsxsxsxsxsx-----xsx---------|
|------------------|----xsxsxsx---xsxsxsxsx---xsxsxsxs|
|------------------|------------------xsxsxsxsx-------|
|------------------|--------------------------xsxsxsxs|


  S S S S S S S S S S S S S S S S
|-----------------------------------|
|-----------------------------------|
|-----------------------------------|
|-2---2---2-2-0-3-2---2---2-2-0-3---|
|-2---2-----------2---2-------------|
|-2-2-2-2---------2-2-2-2-----------|
|
| W
|-----------------------------------|
|-----------------------------------|
|-----------------------------------|
|-----------------------------------|
|-----------------------------------|
|-----------------------------------|
|
| TP
| S S E   Q       H
|-----------------------------------|
|-----------------------------------|
|-----------------------------------|
|-x---------------------------------|
|-----------------------------------|
|-x---------------------------------|


  S S S S S S S S S S S S S S S S   S S S S S S S S S S S S S S S S
|---------------------------------|---------------------------------|
|---------------------------------|---------------------------------|
|---------------------------------|---------------------------------|
|-2---2---2-2-0-3-2---2---2-2-0-3-|-2---2---2-2-0-3-2---2---2-2-0-3-|
|-2---2-----------2---2-----------|-2---2-----------2---2-----------|
|-2-2-2-2---------2-2-2-2---------|-2-2-2-2---------2-2-2-2---------|


  S S S S S S S S S S S S S S S S   S S S S S S S S S S S S S S S S
|---------------------------------|---------------------------------|
|---------------------------------|---------------------------------|
|---------------------------------|---------------------------------|
|-2---2---2-2-0-3-2---2---2-2-0-3-|-2---2---2-2-0-3-2---2---2-2-0-3-|
|-2---2-----------2---2-----------|-2---2-----------2---2-----------|
|-2-2-2-2---------2-2-2-2---------|-2-2-2-2---------2-2-2-2---------|


  S S S S S S S S S S S S S S S S   S S S S S S S S S S S S S S S S
|---------------------------------|---------------------------------|
|---------------------------------|---------------------------------|
|---------------------------------|---------------------------------|
|-2---2---2-2-0-3-2---2---2-2-0-3-|-2---2---2-2-0-3-2---2---2-2-0-3-|
|-2---2-----------2---2-----------|-2---2-----------2---2-----------|
|-2-2-2-2---------2-2-2-2---------|-2-2-2-2---------2-2-2-2---------|


  S S S S S S S S S S S S S S S S   S S S S S S E E E E E
|---------------------------------|---------------------3-|
|---------------------------------|---------------1-0-----|
|---------------------------------|---------------------0-|
|-2---2---2-2-0-3-2---2---2-2-0-3-|-2-0-2-2-2-0-2-----4---|
|-2---2-----------2---2-----------|-2-0-2-2-2-0-----------|
|-2-2-2-2---------2-2-2-2---------|-2-0-2-2-2-0-----------|


  S S S S S S E E E E  E    S S S S S S E E E E E   S S S S S S E E E E  E
|-------------------3-[7]-|---------------------3-|-------------------3-[7]-|
|---------------1-0-------|---------------1-0---x-|---------------1-0-------|
|-------------------------|---------------------0-|-------------------------|
|-2-0-2-2-2-0-2-----------|-2-0-2-2-2-0-2-----4---|-2-0-2-2-2-0-2-----------|
|-2-0-2-2-2-0-------------|-2-0-2-2-2-0-----------|-2-0-2-2-2-0-------------|
|-2-0-2-2-2-0-------------|-2-0-2-2-2-0-----------|-2-0-2-2-2-0-------------|


  E S S +S  S S S S S S S S S S S   E S S +S  S S S S S S S S S S S
|---------------------------------|----------------------------------|
|---------------------------------|----------------------------------|
|-----3-(3)---3---3-------3---3---|-----3-(3)---3--------------------|
|-2---3-(3)---3---3-2-----3---3---|-2---3-(3)---3--------------------|
|-2---1-(1)-1-1-1-1-2-----1-1-1-1-|-2---1-(1)-1-1-1------------------|
|-2-2---------------2-2-2---------|-2-2-------------2-3-2-3-5-3-2-3--|


                                                  Q=80
  E S S +S  S S S S S S S S S S S   E S S +S  S S S S S S S S S S S
|---------------------------------|----------------------------------|
|---------------------------------|----------------------------------|
|-----3-(3)---3---3-------3---3---|-----3-(3)---3--------------------|
|-2---3-(3)---3---3-2-----3---3---|-2---3-(3)---3---2-3---2-3-5---3--|
|-2---1-(1)-1-1-1-1-2-----1-1-1-1-|-2---1-(1)-1-1-1-2-3---2-3-5---3--|
|-2-2---------------2-2-2---------|-2-2-------------2-3---2-3-5---3--|


  Q=90                                          Q=80
  S S S S S S S S S S S S S S S S   S E S S S S S S S S S S S S S
|---------------------------------|-------------------------------|
|---------------------------------|-------------------------------|
|---------3-3-3-3---------3-0-3-0-|-3-----3-3-3-3-----------------|
|-2-2---0-3-3-3-3-2-2---0-3-0-3-0-|-3-2-0-3-3-3-3-2-3---2-3-5---3-|
|-2-2---0-1-1-1-1-2-2---0-1-1-1-1-|-1-2-0-1-1-1-1-2-3---2-3-5---3-|
|-2-2---0---------2-2---0---------|---2-0---------2-3---2-3-5---3-|


  Q=90                                       Q=80
  S S S S S S S S Q  S S S S   S S S S S S S S S S S S S S S S
|----------------------------|----------------------------------|
|----------------------------|----------------------------------|
|---------3-3-3-3----3-3-3-3-|---------3-3-3-3------------------|
|-2-2---0-3-3-3-3----3-3-3-3-|-2-2---0-3-3-3-3-2-3---2-3-5---3--|
|-2-2---0-1-1-1-1----1-1-1-1-|-2-2---0-1-1-1-1-2-3---2-3-5---3--|
|-2-2---0--------------------|-2-2---0---------2-3---2-3-5---3--|


  Q=100
  W          +W           +W           +W
|----------|------------|------------|--------|
|----------|------------|------------|--------|
|----------|------------|------------|--------|
|-2--------|-(2)--------|-(2)--------|-(2)----|
|-2--------|-(2)--------|-(2)--------|-(2)----|
|-2--------|-(2)--------|-(2)--------|-(2)----|


  +W           +W           +W           +W
|------------|------------|------------|--------|
|------------|------------|------------|--------|
|------------|------------|------------|--------|
|-(2)--------|-(2)--------|-(2)--------|-(2)----|
|-(2)--------|-(2)--------|-(2)--------|-(2)----|
|-(2)--------|-(2)--------|-(2)--------|-(2)----|


  S S S S S S S S H      S S S S S S S S H      S S S S S S S S H
|----------------------|----------------------|----------------------|
|----------------------|----------------------|----------------------|
|----------------------|----------------------|----------------------|
|-2-2-0-0-3-3-0-0------|-2-2-0-0-3-3-0-0------|-2-2-0-0-3-3-0-0------|
|-2-2-0-0-3-3-0-0------|-2-2-0-0-3-3-0-0------|-2-2-0-0-3-3-0-0------|
|-2-2-0-0-3-3-0-0------|-2-2-0-0-3-3-0-0------|-2-2-0-0-3-3-0-0------|


                Q=92
  S S S S S S S S H
|---------------------------------|
|---------------------------------|
|---------------------------------|
|-2-2-0-0-3-3-0-0-----------------|
|-2-2-0-0-3-3-0-0-----------------|
|-2-2-0-0-3-3-0-0-----------------|
|
| Gtr III
|                 TPTPTPTPTPTPTPTP
| H               S S S S S S S S
|-----------------xsx---x---------|
|---------------------xsxsxsx-----|
|-----------------xsx---x---x-----|
|---------------------xsxsxsxsxsxs|
|---------------------x---xsxsx---|
|-----------------------------xsxs|


  S S S S S S S S H      S S S S S S S S H
|----------------------|----------------------|
|----------------------|----------------------|
|----------------------|----------------------|
|-2-2-0-0-3-3-0-0------|-2-2-0-0-3-3-0-0------|
|-2-2-0-0-3-3-0-0------|-2-2-0-0-3-3-0-0------|
|-2-2-0-0-3-3-0-0------|-2-2-0-0-3-3-0-0------|
|
| TP
| S S E   Q       H      W
|----------------------|----------------------|
|----------------------|----------------------|
|----------------------|----------------------|
|-x--------------------|----------------------|
|----------------------|----------------------|
|-x--------------------|----------------------|


  S S S S S S S S H      S S S S S S S S H          S S S S S S S S H
|----------------------|--------------------------|----------------------|
|----------------------|--------------------------|----------------------|
|----------------------|--------------------------|----------------------|
|-2-2-0-0-3-3-0-0------|-2-2-0-0-3-3-0-0----------|-2-2-0-0-3-3-0-0------|
|-2-2-0-0-3-3-0-0------|-2-2-0-0-3-3-0-0----------|-2-2-0-0-3-3-0-0------|
|-2-2-0-0-3-3-0-0------|-2-2-0-0-3-3-0-0----------|-2-2-0-0-3-3-0-0------|
|
|                        TPTPTPTPTPTPTPTPTP
| W                      S S S S S S S S S S E Q    W
|----------------------|-xsx---x------------------|----------------------|
|----------------------|-----xsxsxsx--------------|----------------------|
|----------------------|-xsx---x---x--------------|----------------------|
|----------------------|-----xsxsxsxsxsxsx--------|----------------------|
|----------------------|-----x---xsxsx------------|----------------------|
|----------------------|-------------xsxsx--------|----------------------|


  S S S S S S S S H      W          S S S S S S S S +H
|----------------------|----------|------------------------|
|----------------------|----------|------------------------|
|----------------------|----------|------------------------|
|-2-2-0-0-3-3-0-0------|----------|-2-2-0-0-3-3-0-0-(0)----|
|-2-2-0-0-3-3-0-0------|----------|-2-2-0-0-3-3-0-0-(0)----|
|-2-2-0-0-3-3-0-0------|----------|-2-2-0-0-3-3-0-0-(0)----|


  Q=75
  S S S S S S S S S S S S S S S S   S S S S S S S S S S S S S S S S
|---------------------------------|---------------------------------|
|---------------------------------|---------------------------------|
|---------------------------------|---------------------------3---3-|
|-2-2-3-2-2-2-5-3-2-2-3-2---2---2-|-2-2-3-2-2-2-5-3-2-2-3-2---3---3-|
|-2-2-3-2-2-2-5-3-2-2-3-2---2---2-|-2-2-3-2-2-2-5-3-2-2-3-2---1-1-1-|
|-2-2-3-2-2-2-5-3-2-2-3-2-2-2-2-2-|-2-2-3-2-2-2-5-3-2-2-3-2-2-------|


  S S S S S S S S S S S S S S S S   S S S S S S S S S S S S S S S S
|---------------------------------|---------------------------------|
|---------------------------------|---------------------------------|
|---------------------------------|---------------------------3---3-|
|-2-2-3-2-2-2-5-3-2-2-3-2---2---2-|-2-2-3-2-2-2-5-3-2-2-3-2---3---3-|
|-2-2-3-2-2-2-5-3-2-2-3-2---2---2-|-2-2-3-2-2-2-5-3-2-2-3-2---1-1-1-|
|-2-2-3-2-2-2-5-3-2-2-3-2-2-2-2-2-|-2-2-3-2-2-2-5-3-2-2-3-2-2-------|


  S S S S S S S S S S S S S S S S   S S S S S S S S S S S S S S S S
|---------------------------------|---------------------------------|
|---------------------------------|---------------------------------|
|---------------------------------|---------------------------3-3-3-|
|-2-2-3-2-2-2-5-3-2-2-3-2-2-2-2-3-|-2-2-3-2-2-2-5-3-2-2-3-2-2-3-3-3-|
|-2-2-3-2-2-2-5-3-2-2-3-2-2-2-2-3-|-2-2-3-2-2-2-5-3-2-2-3-2-2-1-1-1-|
|-2-2-3-2-2-2-5-3-2-2-3-2-2-2-2-3-|-2-2-3-2-2-2-5-3-2-2-3-2-2-------|


  S S S S S S S S S S S S S S S S   S S S S S S S S S S S S S S S S
|---------------------------------|---------------------------------|
|---------------------------------|---------------------------------|
|---------------------------------|---------------------------3-3-3-|
|-2-2-3-2-2-2-5-3-2-2-3-2-2-2-2-3-|-2-2-3-2-2-2-5-3-2-2-3-2-2-3-3-3-|
|-2-2-3-2-2-2-5-3-2-2-3-2-2-2-2-3-|-2-2-3-2-2-2-5-3-2-2-3-2-2-1-1-1-|
|-2-2-3-2-2-2-5-3-2-2-3-2-2-2-2-3-|-2-2-3-2-2-2-5-3-2-2-3-2-2-------|


  Q=65
  S S E +Q    S S  E     +Q
|----------------------------------|
|----------------------------------|
|-3----------------4-----(4)-------|
|-3---2-(2)---0-4------------------|
|-1-2------------------------------|
|-2--------------------------------|
|
| Gtr II
| H           E    S  S  +E   S  S
|----------------------------------|
|----------------------------------|
|------------11---11-11-(11)-12-11-|
|----------------------------------|
|----------------------------------|
|----------------------------------|


    S  S  E +Q   S S E +Q         S  S  E +Q   S S E +Q
|------------------------------|------------------------------|
|------------------------------|------------------------------|
|---------0-(0)------4-(4)-----|-------------------4-(4)------|
|------2---------0-4-----------|--------2-(2)--0-4------------|
|---3--------------------------|-----2------------------------|
|------------------------------|--2---------------------------|
|
|  +S  E.   +Q   E   E  E  S S   +S  E.   +Q   E   E  E  S S
|------------------------------|------------------------------|
|------------------------------|------------------------------|
|-(11)-9----(9)--7---7--7------|------------------------------|
|--------------------------7-7-|-(7)-9----(9)--7---5--4--4-4--|
|------------------------------|------------------------------|
|------------------------------|------------------------------|


                                Q=100
                               5/4
   S  S  E +Q   S S E +Q        +W         +Q
|-----------------------------|-----------------|
|-----------------------------|-----------------|
|--------0-(0)------4-(4)-----|-(4)--------(4)--|
|-----2---------0-4-----------|-----------------|
|--3--------------------------|-----------------|
|-----------------------------|-----------------|
|
| +S  E.   +Q   E   E  E  S S   +W         +Q
|-----------------------------|-----------------|
|-----------------------------|-----------------|
|-----------------------------|-----------------|
|-(4)-5----(5)--7---5--4--4-2-|-(2)--------(2)--|
|-----------------------------|-----------------|
|-----------------------------|-----------------|


 4/4
  E E E E E E E E   E E  E  E  E  E E E
|-----------------|----------------------|
|-----------------|----------------------|
|-----------------|---5-----5------------|
|---2---2---2---2-|---5-----5-----0---0--|
|---2---2---2---2-|-3-3--3--3-----0---0--|
|-2-2-2-2-2-2-2-2-|------------0--0-0-0--|
|
| W                 E E +E  E +Q    E E
|-----------------|-3-3-(3)-2-(2)---3-2--|
|-----------------|----------------------|
|-----------------|----------------------|
|-----------------|----------------------|
|-----------------|----------------------|
|-----------------|----------------------|


   E  E  E  E  E  E E E   E E E E E E E E
|-----------------------|-----------------|
|-----------------------|-----------------|
|-----------------------|---5---5---------|
|-----2-----2-----2---2-|---5---5---0---0-|
|-----2-----2-----2---2-|-3-3-3-3---0---0-|
|--2--2--2--2--2--2-2-2-|---------0-0-0-0-|
|
| +E  E +Q    +H          Q   Q   Q   E E
|-(2)-------------------|-----------------|
|-----5-(5)---(5)-------|-5---5---3-------|
|-----------------------|-------------2-2-|
|-----------------------|-----------------|
|-----------------------|-----------------|
|-----------------------|-----------------|


   E  E  E  E  E  E E E   E E E E E E E E
|-----------------------|-----------------|
|-----------------------|-----------------|
|-----------------------|---5---5---------|
|-----2-----2-----2---2-|---5---5---0---0-|
|-----2-----2-----2---2-|-3-3-3-3---0---0-|
|--2--2--2--2--2--2-2-2-|---------0-0-0-0-|
|
| +E  E +Q    +H          Q   Q   Q   E E
|-----------------------|-----------------|
|-----------------------|-5---5---3-------|
|-(2)-4-(4)---(4)-------|-------------2-2-|
|-----------------------|-----------------|
|-----------------------|-----------------|
|-----------------------|-----------------|


   E  E  E  E  E  E E E   E E E E E E E E
|-----------------------|-----------------|
|-----------------------|-----------------|
|-----------------------|---5---5---------|
|-----2-----2-----2---2-|---5---5---0---0-|
|-----2-----2-----2---2-|-3-3-3-3---0---0-|
|--2--2--2--2--2--2-2-2-|---------0-0-0-0-|
|
| +E  E +E  E +H          Q   Q   Q   Q
|-----------------------|-----------------|
|-----------------------|-----------------|
|-(2)-0-(0)-4-(4)-------|-5---5-----------|
|-----------------------|---------7-------|
|-----------------------|-------------9---|
|-----------------------|-----------------|


  Q=65
  S S E +Q   S S E   +Q         S  S  E +Q   S S E +Q
|----------------------------|-------------------------------|
|----------------------------|-------------------------------|
|----------------4---(4)-----|--------0-(0)------4-(4)-------|
|-----2-(2)--0-4-------------|-----2---------0-4-------------|
|---2------------------------|--3----------------------------|
|-2--------------------------|-------------------------------|
|
| H          E   S S +E  S S   +S  E.   +Q   E   E  E  S S
|----------------------------|-------------------------------|
|------------7---7-7-(7)-8-7-|-(7)-5----(5)--3---3--3--------|
|----------------------------|-------------------------2-2---|
|----------------------------|-------------------------------|
|-7--------------------------|-------------------------------|
|----------------------------|-------------------------------|


   S  S  E +Q   S S E +Q         S  S  E +Q   S S E +Q
|-----------------------------|-----------------------------|
|-----------------------------|-----------------------------|
|-------------------4-(4)-----|--------0-(0)------4-(4)-----|
|--------2-(2)--0-4-----------|-----2---------0-4-----------|
|-----2-----------------------|--3--------------------------|
|--2--------------------------|-----------------------------|
|
| +S  E.   +Q   E   E  E  S S   +S  E.   +Q   E   E  E  S S
|-----------------------------|-----------------------------|
|-----------------------------|-----------------------------|
|-(2)-4----(4)--2---0---------|-----------------------------|
|----------------------4--4-4-|-(4)-5----(5)--7---5--4--4-4-|
|-----------------------------|-----------------------------|
|-----------------------------|-----------------------------|


  Q=67
   S  S  E +Q   S S E   +Q
|--------------------------------|
|--------------------------------|
|-------------------4---(4)------|
|--------2-(2)--0-4--------------|
|-----2--------------------------|
|--2-----------------------------|
|
| +S  E.   +Q   E   S S +E  S S
|---------------2---2-2-(2)-3-2--|
|--------------------------------|
|--------------------------------|
|-(4)-2----(2)-------------------|
|--------------------------------|
|--------------------------------|


   S  S  E +Q   S S E +Q
|-----------------------------|
|-----------------------------|
|--------0-(0)------4-(4)-----|
|-----2---------0-4-----------|
|--3--------------------------|
|-----------------------------|
|
| +S  E.   +Q   E   E  E  S S
|-(2)-------------------------|
|-----5----(5)--3---3--3------|
|-------------------------2-2-|
|-----------------------------|
|-----------------------------|
|-----------------------------|


                                       Q=52
   S  S  E +Q   S S E +Q         S  S  E +Q   S S E +Q
|-----------------------------|-----------------------------|
|-----------------------------|-----------------------------|
|-------------------4-(4)-----|--------0-(0)------4-(4)-----|
|--------2-(2)--0-4-----------|-----2---------0-4-----------|
|-----2-----------------------|--3--------------------------|
|--2--------------------------|-----------------------------|
|
| +S  E.   +Q   E   E  E  S S   +S  E.   +Q   E   E  E  S S
|-----------------------------|-----------------------------|
|-----------------------------|-----------------------------|
|-(2)-4----(4)--2---0---------|-----------------------------|
|----------------------4--4-4-|-(4)-5----(5)--7---5--4--4-4-|
|-----------------------------|-----------------------------|
|-----------------------------|-----------------------------|


  Q=102
   E  E E E  E  E E E   E E  E  E  E  E E E
|---------------------|---------------------|
|---------------------|---------------------|
|---------------------|---5-----5-----------|
|-----2---2-----2---2-|---5-----5-----0---0-|
|-----2---2-----2---2-|-3-3--3--3-----0---0-|
|--2--2-2-2--2--2-2-2-|------------0--0-0-0-|
|
| +Q.     E +H          E E +E  E +Q    E E
|---------------------|-3-3-(3)-2-(2)---3-2-|
|---------------------|---------------------|
|---------------------|---------------------|
|-(4)-----2-(2)-------|---------------------|
|---------------------|---------------------|
|---------------------|---------------------|


   E  E  E  E  E  E E E   E E E E E E E E
|-----------------------|-----------------|
|-----------------------|-----------------|
|-----------------------|---5---5---------|
|-----2-----2-----2---2-|---5---5---0---0-|
|-----2-----2-----2---2-|-3-3-3-3---0---0-|
|--2--2--2--2--2--2-2-2-|---------0-0-0-0-|
|
| +E  E +Q    +H          Q   Q   Q   E E
|-(2)-------------------|-----------------|
|-----5-(5)---(5)-------|-5---5---3-------|
|-----------------------|-------------2-2-|
|-----------------------|-----------------|
|-----------------------|-----------------|
|-----------------------|-----------------|


   E  E  E  E  E  E E E   E E E E E E E E
|-----------------------|-----------------|
|-----------------------|-----------------|
|-----------------------|---5---5---------|
|-----2-----2-----2---2-|---5---5---0---0-|
|-----2-----2-----2---2-|-3-3-3-3---0---0-|
|--2--2--2--2--2--2-2-2-|---------0-0-0-0-|
|
| +E  E +Q    +H          Q   Q   Q   E E
|-----------------------|-----------------|
|-----------------------|-5---5---3-------|
|-(2)-4-(4)---(4)-------|-------------2-2-|
|-----------------------|-----------------|
|-----------------------|-----------------|
|-----------------------|-----------------|


   E  E  E  E  E  E E E   E E E E E E E E
|-----------------------|-----------------|
|-----------------------|-----------------|
|-----------------------|---5---5---------|
|-----2-----2-----2---2-|---5---5---0---0-|
|-----2-----2-----2---2-|-3-3-3-3---0---0-|
|--2--2--2--2--2--2-2-2-|---------0-0-0-0-|
|
| +E  E +E  E +H          Q   Q   Q   Q
|-----------------------|-----------------|
|-----------------------|-----------------|
|-(2)-0-(0)-4-(4)-------|-5---5-----------|
|-----------------------|---------7-------|
|-----------------------|-------------9---|
|-----------------------|-----------------|


   Q   E E +E  E E E   E E  E  E  E  E E E
|--------------------|---------------------|
|--------------------|---------------------|
|--------------------|------0--------------|
|--2---2-2-(2)-2-2-2-|---2-----2--0--4-5-4-|
|--2---2-2-(2)-2-2-2-|-3-------------------|
|--2---2-2-(2)-2-2-2-|---------------------|
|
| +Q.    E +H          E E +E  E +Q    E E
|--------------------|---------------------|
|--------------------|-8-8-(8)-7-(7)---8-7-|
|--------------------|---------------------|
|--------------------|---------------------|
|-(9)----7-(7)-------|---------------------|
|--------------------|---------------------|


   E  E  E  E +E  E E E   E E E E E E E E
|-----------------------|-----------------|
|-----------------------|-----------------|
|-----------------------|-----0-----------|
|-----2-----2-(2)-2-2-2-|---2---2-0-4-5-4-|
|-----------2-(2)-2-2-2-|-3---------------|
|--2-----2--2-(2)-2-2-2-|-----------------|
|
| +E  E +Q    +H          Q   Q   Q   E E
|-----------------------|-----------------|
|-(7)-5-(5)---(5)-------|-5---5---3-------|
|-----------------------|-------------2-2-|
|-----------------------|-----------------|
|-----------------------|-----------------|
|-----------------------|-----------------|


   E  E  E  E +E  E E E   E E E E E E E E
|-----------------------|-----------------|
|-----------------------|-----------------|
|-----------------------|-----0-----------|
|-----2-----2-(2)-2-2-2-|---2---2-0-4-5-4-|
|-----------2-(2)-2-2-2-|-3---------------|
|--2-----2--2-(2)-2-2-2-|-----------------|
|
| +E  E +Q    +H          Q   Q   Q   E E
|-----------------------|-----------------|
|-----------------------|-5---5---3-------|
|-(2)-4-(4)---(4)-------|-------------2-2-|
|-----------------------|-----------------|
|-----------------------|-----------------|
|-----------------------|-----------------|


   E  E  E  E +E  E E E   E E E E E E E E
|-----------------------|-----------------|
|-----------------------|-----------------|
|-----------------------|-----0-----------|
|-----2-----2-(2)-2-2-2-|---2---2-0-4-5-4-|
|-----------2-(2)-2-2-2-|-3---------------|
|--2-----2--2-(2)-2-2-2-|-----------------|
|
| +E  E +E  E +H          Q   Q   Q   Q
|-----------------------|-----------------|
|-----------------------|-----------------|
|-(2)-0-(0)-4-(4)-------|-5---5-----------|
|-----------------------|---------7-------|
|-----------------------|-------------9---|
|-----------------------|-----------------|


             Q=100        Q=95
  W          +W           E E E E E E E E   E E E E E E E E
|----------|------------|-----------------|-----------------|
|----------|------------|-----------------|-----------------|
|----------|------------|-----------------|---5---5---------|
|-2--------|-(2)--------|---2---2---2---2-|---5---5---0---0-|
|-2--------|-(2)--------|---2---2---2---2-|-3-3-3-3---0---0-|
|-2--------|-(2)--------|-2-2-2-2-2-2-2-2-|---------0-0-0-0-|
|
| W          +W           W                 W
|----------|------------|-----------------|-----------------|
|----------|------------|-----------------|-----------------|
|----------|------------|-----------------|-----------------|
|----------|------------|-----------------|-----------------|
|-7--------|-(7)--------|-----------------|-----------------|
|----------|------------|-----------------|-----------------|


  E E E E E E E E   E E E E E E E E   E E E E E E E E   E E E E E E E E
|-----------------|-----------------|-----------------|-----------------|
|-----------------|-----------------|-----------------|-----------------|
|-----------------|---5---5---------|-----------------|---5---5---------|
|---2---2---2---2-|---5---5---0---0-|---2---2---2---2-|---5---5---0---0-|
|---2---2---2---2-|-3-3-3-3---0---0-|---2---2---2---2-|-3-3-3-3---0---0-|
|-2-2-2-2-2-2-2-2-|---------0-0-0-0-|-2-2-2-2-2-2-2-2-|---------0-0-0-0-|


  E E E E E E E E   E E E E E E E E
|-----------------|-----------------*|
|-----------------|-----------------*|
|-----------------|---5---5---------*|
|---2---2---2---2-|---5---5---0---0-*|
|---2---2---2---2-|-3-3-3-3---0---0-*|
|-2-2-2-2-2-2-2-2-|---------0-0-0-0-*|



THE ART OF SUBCONCIOUS ILLUSION
As recorded by Avenged Sevenfold
(From the 2002 Album SOUNDING THE SEVENTH TRUMPET)



Gtr I (D A D G B E) - 'Synyster Gates'
Gtr II (D A D G B E) - 'Zacky Vengence'
  Q=110
 4/4
  Gtr I
   S  S  S  S  S  S  S  S  S  S  S  S  S  S  S  S
|-------------------------------------------------|
|-------------------------------------------------|
|-------------------------------------------------|
|-------------------------------------------------|
|-10-------10-------10----11-------11-------11----|
|-10-10-10-10-10-10-10-10-10-10-10-10-10-10-10-10-|


   S  S  S  S  S  S  S  S E E E E
|---------------------------------|
|---------------------------------|
|---------------------------------|
|---------------------------------|
|-10-------10-------10----8-8-8-8-|
|-10-10-10-10-10-10-10-10-8-8-8-8-|


  Gtrs I, II
   E  S  S  +S   S  S  S E S S +S  S S S   E S S +S  S S S E E  E  E
|----------------------------------------|---------------------------|
|----------------------------------------|---------------------------|
|----------------------------------------|-8-8-8-(8)-8-8-8-----10----|
|-10-10-10-(10)-10-10-10-6-6-6-(6)-6-6-6-|-8-8-8-(8)-8-8-8-8-8--8-11-|
|-10-10-10-(10)-10-10-10-6-6-6-(6)-6-6-6-|-6-6-6-(6)-6-6-6-8-8-----9-|
|-10-10-10-(10)-10-10-10-6-6-6-(6)-6-6-6-|-----------------8-8-------|


   E  S  S  +S   S  S  S E S S +S  S S S   S S S S S S S S S S S S E E
|----------------------------------------|-----------------------------|
|----------------------------------------|-----------------------------|
|----------------------------------------|-----------------------------|
|-10-10-10-(10)-10-10-10-6-6-6-(6)-6-6-6-|-------------------------2-2-|
|-10-10-10-(10)-10-10-10-6-6-6-(6)-6-6-6-|-2-2-2-2-2-2-2-2-2-2-2-2-2-2-|
|-10-10-10-(10)-10-10-10-6-6-6-(6)-6-6-6-|-2-2-2-2-2-2-2-2-2-2-2-2-2-2-|


  S S S S S S S S S S S S S S E   S S S S S S S S E E E E
|-------------------------------|-------------------------|
|-------------------------------|-------------------------|
|-------------------------------|-------------------------|
|-------------------------------|-------------------------|
|---------------------------4-3-|-----------------1-1-3-3-|
|-5-3-5-6-5-3-0-3-5-3-5-6-5-----|-5-3-5-6-5-3-0-3-1-1-3-3-|


  S S S S S S S S S S S S S S E   S S S S S S S S E E E E
|-------------------------------|-------------------------|
|-------------------------------|-------------------------|
|-------------------------------|-------------------------|
|-------------------------------|-------------------------|
|---------------------------4-3-|-----------------1-1-3-3-|
|-5-3-5-6-5-3-0-3-5-3-5-6-5-----|-5-3-5-6-5-3-0-3-1-1-3-3-|


  S S S S S S S S S S S S S S E   S S S S S S S S E E E E
|-------------------------------|-------------------------|
|-------------------------------|-------------------------|
|-------------------------------|-------------------------|
|-------------------------------|-----------------1-1-3-3-|
|-5-3-5-6-5-3-0-3-5-3-5-6-5-4-3-|-5-3-5-6-5-3-0-3-1-1-3-3-|
|-5-3-5-6-5-3-0-3-5-3-5-6-5-----|-5-3-5-6-5-3-0-3-1-1-3-3-|


  S S S S S S S S S S S S S S E   S S S S S S S S E E E E   H    Q  Q
|-------------------------------|-------------------------|------------|
|-------------------------------|-------------------------|------------|
|-------------------------------|-------------------------|------------|
|-------------------------------|-----------------1-1-3-3-|-0----1--3--|
|-5-3-5-6-5-3-0-3-5-3-5-6-5-4-3-|-5-3-5-6-5-3-0-3-1-1-3-3-|-0----1--3--|
|-5-3-5-6-5-3-0-3-5-3-5-6-5-----|-5-3-5-6-5-3-0-3-1-1-3-3-|-0----1--3--|


  Gtr I
  Q   Q  Q  Q    H    Q  Q    Q   Q  Q  Q
|----20--------|------------|----20--------|
|--------------|------------|--------------|
|--------------|------------|--------------|
|-0------1--3--|-0----1--3--|-0------1--3--|
|-0------1--3--|-0----1--3--|-0------1--3--|
|-0------1--3--|-0----1--3--|-0------1--3--|
|
| Gtr II
| H      Q  Q    H    Q  Q    H      Q  Q
|--------------|------------|--------------|
|--------------|------------|--------------|
|--------------|------------|--------------|
|-0------1--3--|-0----1--3--|-0------1--3--|
|-0------1--3--|-0----1--3--|-0------1--3--|
|-0------1--3--|-0----1--3--|-0------1--3--|


  Gtrs I, II
  S S S S S S S S S S S S S S S S   S S S S S S S S S S S S S S S S
|---------------------------------|---------------------------------|
|---------------------------------|---------------------------------|
|---------------------------------|---------------------------------|
|---------------------------------|---------------------------------|
|-0-0-0-0-0-0-0-0-1-1-1-1-3-3-3-3-|-0-0-0-0-0-0-0-0-1-1-1-1-3-3-3-3-|
|-0-0-0-0-0-0-0-0-1-1-1-1-3-3-3-3-|-0-0-0-0-0-0-0-0-1-1-1-1-3-3-3-3-|


  S S S S S S S S S S S S S S S S   S S S S S S S S S S S S S S E
|---------------------------------|-------------------------------|
|---------------------------------|-------------------------------|
|---------------------------------|-------------------------------|
|---------------------------------|-------------------------------|
|-0-0-0-0-0-0-0-0-1-1-1-1-3-3-3-3-|-0-0-0-0-0-0-0-0-1-1-1-1-3-----|
|-0-0-0-0-0-0-0-0-1-1-1-1-3-3-3-3-|-0-0-0-0-0-0-0-0-1-1-1-1-3-----|


  Gtr I
  S S S S S S E S S S S S S E   S S S S S S E S S S S S S S S
|-------------------------3---|-------------------------------|
|-3-----3-----4-3-----3-4-6---|-3-----3-----4-----------------|
|-----------------------------|-----------------3-2-0---------|
|---5-5---5-5-----5-5---------|---5-5---5-5---5-------3-5-----|
|-----------------------------|---------------------------6-5-|
|-----------------------------|-------------------------------|
|
| Gtr II
| S S E   Q     S S E   Q       S S E   Q     S S S S S S S S
|-----------------------------|-------------------------------|
|-----------------------------|-------------------------------|
|-----------------------------|-----------------3-2-0---------|
|-0-------------0-------------|-0-------------5-------3-5-----|
|-0-------------0-------------|-0-------------------------6-5-|
|-0-------------0-------------|-0-----------------------------|


  S S S S S S E S S S S S S E     S S S S S S E S S S S S S S S
|-------------------------3-----|--------------------------------|
|-3-----3-----4-3-----3-4-6-----|-3-----3-----4------------------|
|-------------------------------|-----------------3-2-0----------|
|---5-5---5-5-----5-5-----------|---5-5---5-5---5-------3-5------|
|-------------------------------|---------------------------6-5--|
|-------------------------------|--------------------------------|
|
| S S E   Q     S S S S S S S S   S S E   Q     S S S S S S S S
|-------------------------------|--------------------------------|
|-------------------------------|--------------------------------|
|-------------------------------|-----------------3-2-0----------|
|-0-------------0---0-0---0-0---|-0-------------5-------3-5------|
|-0-------------0---0-0---0-0---|-0-------------------------6-5--|
|-0-------------0---0-0---0-0---|-0------------------------------|


  S S S S S S E   S S S S S S E     S S S S S S E   S S S S S S S S
|---------------------------3-----|---------------------------------|
|-3-----3-----4---3-----3-4-6-----|-3-----3-----4-------------------|
|---------------------------------|-------------------3-2-0---------|
|---5-5---5-5-------5-5-----------|---5-5---5-5-----5-------3-5-----|
|---------------------------------|-----------------------------6-5-|
|---------------------------------|---------------------------------|
|
| S E   S E   S S S E   S E   S S   S E   S E   S S S E   S E   S S
|---------------------------------|---------------------------------|
|---------------------------------|---------------------------------|
|---------------------------------|---------------------------------|
|-------------1---------------3---|-------------1---------------3---|
|-0-----0-----1---0-----0-----3---|-0-----0-----1---0-----0-----3---|
|-0-----0-----1---0-----0-----3---|-0-----0-----1---0-----0-----3---|


  S S S S S S E   S S S S S E   S   S S S S S S E   S S S S S S S S
|-------------------------1-3-----|---------------------------------|
|-3-----3-----4---3-----3-4-------|-3-----3-----4-------------------|
|---------------------------------|-------------------3-2-0---------|
|---5-5---5-5-------5-5-----------|---5-5---5-5-----5-------3-5-----|
|---------------------------------|-----------------------------6-5-|
|---------------------------------|---------------------------------|
|
| S E   S E   S S S E   S E   S S   S E   S E   S S S E   S E   S S
|---------------------------------|---------------------------------|
|---------------------------------|---------------------------------|
|---------------------------------|---------------------------------|
|-------------1---------------3---|-------------1---------------3---|
|-0-----0-----1---0-----0-----3---|-0-----0-----1---0-----0-----3---|
|-0-----0-----1---0-----0-----3---|-0-----0-----1---0-----0-----3---|


  S E S E E   S E S S E.       S E S E E   S S S S S S S S
|-------------------1-3------|-----------------------------|
|-3---3---4---3---3-4--------|-3---3---4-------------------|
|----------------------------|---------------3-2-0---------|
|----------------------------|-------------5-------3-5-----|
|----------------------------|-------------------------6-5-|
|----------------------------|-----------------------------|
|
| S E S E S S S E S E    S S   S E S E S S S E   S E   S S
|----------------------------|-----------------------------|
|----------------------------|-----------------------------|
|----------------------------|-----------------------------|
|---------1--------------3---|---------1---------------3---|
|-0---0---1---0---0------3---|-0---0---1---0-----0-----3---|
|-0---0---1---0---0------3---|-0---0---1---0-----0-----3---|


  S E S E E   S E S S E   S
|---------------------3-------|
|-3---3---4---3---3-4-6-------|
|-----------------------------|
|-----------------------------|
|-----------------------------|
|-----------------------------|
|
| S E S E S S S E S E   S S
|-----------------------------|
|-----------------------------|
|-----------------------------|
|---------1-------------3-----|
|-0---0---1---0---0-----3-----|
|-0---0---1---0---0-----3-----|


  S E S E E   S S S S S S S S   S S S S S S S S S S S S S S S S
|-----------------------------|----------------------------------|
|-3---3---4-------------------|----------------------------------|
|---------------3-2-0---------|---3-2-0-----------3-2-0----------|
|-------------5-------3-5-----|-5-------3-5-----5-------3-5------|
|-------------------------6-5-|-------------6-5-------------6-5--|
|-----------------------------|----------------------------------|
|
| S E S E S S S E   S E   S S   S S E   Q       S S E   Q
|-----------------------------|----------------------------------|
|-----------------------------|----------------------------------|
|-----------------------------|----------------------------------|
|---------1---------------3---|-0---------------0----------------|
|-0---0---1---0-----0-----3---|-0---------------0----------------|
|-0---0---1---0-----0-----3---|-0---------------0----------------|


  S S S S S S S S S S S S S S S S   S S S S S S S S S S S S S S S S
|---------------------------------|---------------------------------|
|---------------------------------|---------------------------------|
|---3-2-0-----------3-2-0---------|---3-2-0-----------3-2-0---------|
|-5-------3-5-----5-------3-5-----|-5-------3-5-----5-------3-5-----|
|-------------6-5-------------6-5-|-------------6-5-------------6-5-|
|---------------------------------|---------------------------------|
|
| S S E   Q       S S E   Q         E   E   E   E   E   E   E   E
|---------------------------------|---------------------------------|
|---------------------------------|---------------------------------|
|---------------------------------|---------------------------------|
|-0---------------0---------------|-0---3---5---6---0---3---5---6---|
|-0---------------0---------------|-0---3---5---6---0---3---5---6---|
|-0---------------0---------------|-0---3---5---6---0---3---5---6---|


  S S S S S S S S S S S S S S S S   S S S S S S S S S S S S S S S S
|---------------------------------|---------------------------------|
|---------------------------------|---------------------------------|
|---3-2-0-----------3-2-0---------|---3-2-0-----------3-2-0---------|
|-5-------3-5-----5-------3-5-----|-5-------3-5-----5-------3-5-----|
|-------------6-5-------------6-5-|-------------6-5-------------6-5-|
|---------------------------------|---------------------------------|
|
| E   E   E   E   E   E   E   E     E   E   E   E   E   E   E   E
|---------------------------------|---------------------------------|
|---------------------------------|---------------------------------|
|---------------------------------|---------------------------------|
|-0---3---5---6---0---3---5---6---|-0---3---5---6---0---3---5---6---|
|-0---3---5---6---0---3---5---6---|-0---3---5---6---0---3---5---6---|
|-0---3---5---6---0---3---5---6---|-0---3---5---6---0---3---5---6---|


  S S S S S S S S S S S S S S S S   H    Q  Q    Q   Q  Q  Q
|---------------------------------|------------|----20---------|
|---------------------------------|------------|---------------|
|---3-2-0-----------3-2-0---------|------------|---------------|
|-5-------3-5-----5-------3-5-----|-0----1--3--|-0------1--3---|
|-------------6-5-------------6-5-|-0----1--3--|-0------1--3---|
|---------------------------------|-0----1--3--|-0------1--3---|
|
| E   E   E   E   E   E   E   E     H    Q  Q    H      Q  Q
|---------------------------------|------------|---------------|
|---------------------------------|------------|---------------|
|---------------------------------|------------|---------------|
|-0---3---5---6---0---3---5---6---|-0----1--3--|-0------1--3---|
|-0---3---5---6---0---3---5---6---|-0----1--3--|-0------1--3---|
|-0---3---5---6---0---3---5---6---|-0----1--3--|-0------1--3---|


  Gtrs I, II
  S S S S S S S S S S S S S S S S   S S S S S S S S S S S S S S S S
|---------------------------------|---------------------------------|
|---------------------------------|---------------------------------|
|---------------------------------|---------------------------------|
|---------------------------------|---------------------------------|
|-0-0-0-0-0-0-0-0-1-1-1-1-3-3-3-3-|-0-0-0-0-0-0-0-0-1-1-1-1-3-3-3-3-|
|-0-0-0-0-0-0-0-0-1-1-1-1-3-3-3-3-|-0-0-0-0-0-0-0-0-1-1-1-1-3-3-3-3-|


  S E S S S E S E S S S E   S E S S S E E E E E   S E S S S E S E S S S E
|-------------------------|---------------------|--------------------------|
|-------------------------|---------------------|--------------------------|
|-------------------------|---------------------|--------------------------|
|-0-----------0---------5-|-0-----------1-1-3-3-|-0-----------0---------5--|
|-0---0-5-7---0-----5-7---|-0-----5-7---1-1-3-3-|-0---0-5-7---0-----5-7----|
|-0---------7-0---7-------|-0---7-----7-1-1-3-3-|-0---------7-0---7--------|


  S E S S S E E E E E   S E S S S E S E S S S E   S E S S S E E E E E
|---------------------|-------------------------|----------------------|
|---------------------|-------------------------|----------------------|
|---------------------|-------------------------|----------------------|
|-0-----------1-1-3-3-|-0-----------0---------5-|-0-----------1-1-3-3--|
|-0-----5-7---1-1-3-3-|-0---0-5-7---0-----5-7---|-0-----5-7---1-1-3-3--|
|-0---7-----7-1-1-3-3-|-0---------7-0---7-------|-0---7-----7-1-1-3-3--|


  S E S S S E S E S S S E   S E S S S E E E E E   H    H
|-------------------------|---------------------|-----------|
|-------------------------|---------------------|-----------|
|-------------------------|---------------------|-----------|
|-0-----------0---------5-|-0-----------1-1-3-3-|-0----6----|
|-0---0-5-7---0-----5-7---|-0-----5-7---1-1-3-3-|-0----6----|
|-0---------7-0---7-------|-0---7-----7-1-1-3-3-|-0----6----|


  S S S S S S S S S S S S S S S S   S S S S S S S S S S S S S S S S
|---------------------------------|---------------------------------|
|---------------------------------|---------------------------------|
|---------------------------------|---------------------------------|
|---------------------------------|---------------------------------|
|-5-3-5-6-5-3-0-3-5-3-5-6-5-3-0-3-|-5-3-5-6-5-3-0-3-5-3-5-6-5-3-0-3-|
|-5-3-5-6-5-3-0-3-5-3-5-6-5-3-0-3-|-5-3-5-6-5-3-0-3-5-3-5-6-5-3-0-3-|


  Gtr I
  W          W          E S S S S S S S S E E E   E E E E E E E E
|----------|----------|-------------------------|-----------------|
|-3--------|----------|-------------------------|-----------------|
|-2--------|----------|-------------------------|-----------------|
|-0--------|-6--------|-5-----------------------|---------5-5-5-5-|
|----------|-6--------|-5-----------------------|-5-5-5-5-5-5-5-5-|
|----------|-6--------|-5-5---5---5---5---5-5-5-|-5-5-5-5-5-5-5-5-|
|
| Gtr II
| W          W          E S S S S S S S S E E E   E E E E E E E E
|----------|----------|-------------------------|-----------------|
|-3--------|----------|-------------------------|-----------------|
|-2--------|----------|-------------------------|-----------------|
|-0--------|-6--------|-5-----------------------|---------5-5-5-5-|
|----------|-6--------|-5-----------------------|-5-5-5-5-5-5-5-5-|
|----------|-6--------|-5-5---5---5---5---5-5-5-|-5-5-5-5-5-5-5-5-|


  Gtrs I, II
  W          W          E S S S S S S S S E E E   E E E E E E E E
|----------|----------|-------------------------|-----------------|
|----------|----------|-------------------------|-----------------|
|-7--------|----------|-------------------------|-----------------|
|-7--------|-6--------|-5-----------------------|---------5-5-5-5-|
|-5--------|-6--------|-5-----------------------|-5-5-5-5-5-5-5-5-|
|----------|-6--------|-5-5---5---5---5---5-5-5-|-5-5-5-5-5-5-5-5-|


  Gtr I
  W          W          W          W
|----------|----------|----------|------|
|----------|----------|----------|------|
|----------|----------|----------|------|
|----------|----------|----------|------|
|----------|----------|----------|------|
|----------|----------|----------|------|


  W          W          W          W
|----------|----------|----------|------|
|----------|----------|----------|------|
|----------|----------|----------|------|
|----------|----------|----------|------|
|----------|----------|----------|------|
|----------|----------|----------|------|


  W          W          W          W
|----------|----------|----------|------|
|----------|----------|----------|------|
|----------|----------|----------|------|
|----------|----------|----------|------|
|----------|----------|----------|------|
|----------|----------|----------|------|


  W          W          W          W
|----------|----------|----------|------|
|----------|----------|----------|------|
|----------|----------|----------|------|
|----------|----------|----------|------|
|----------|----------|----------|------|
|----------|----------|----------|------|


  W          W          E S S S S S S S S E E E   E E E E E E E E
|----------|----------|-------------------------|-----------------|
|----------|----------|-------------------------|-----------------|
|-7--------|----------|-------------------------|-----------------|
|-7--------|-6--------|-5-----------------------|---------5-5-5-5-|
|-5--------|-6--------|-5-----------------------|-5-5-5-5-5-5-5-5-|
|----------|-6--------|-5-5---5---5---5---5-5-5-|-5-5-5-5-5-5-5-5-|
|
| Gtr II
| W          W          E S S S S S S S S E E E   E E E E E E E E
|----------|----------|-------------------------|-----------------|
|----------|----------|-------------------------|-----------------|
|-7--------|----------|-------------------------|-----------------|
|-7--------|-6--------|-5-----------------------|---------5-5-5-5-|
|-5--------|-6--------|-5-----------------------|-5-5-5-5-5-5-5-5-|
|----------|-6--------|-5-5---5---5---5---5-5-5-|-5-5-5-5-5-5-5-5-|


  W          W          E S S S S S S S S E E E   E E E E E E E E
|----------|----------|-------------------------|-----------------|
|----------|----------|-------------------------|-----------------|
|-7--------|----------|-------------------------|-----------------|
|-7--------|-6--------|-5-----------------------|---------5-5-5-5-|
|-5--------|-6--------|-5-----------------------|-5-5-5-5-5-5-5-5-|
|----------|-6--------|-5-5---5---5---5---5-5-5-|-5-5-5-5-5-5-5-5-|
|
| W          W          E S S S S S S S S E E E   E E E E E E E E
|----------|----------|-------------------------|-----------------|
|----------|----------|-------------------------|-----------------|
|-7--------|----------|-------------------------|-----------------|
|-7--------|-6--------|-5-----------------------|---------5-5-5-5-|
|-5--------|-6--------|-5-----------------------|-5-5-5-5-5-5-5-5-|
|----------|-6--------|-5-5---5---5---5---5-5-5-|-5-5-5-5-5-5-5-5-|


  W          W          E S S S S S S S S E E E   E E E E E E E E
|----------|----------|-------------------------|-----------------|
|----------|----------|-------------------------|-----------------|
|-7--------|----------|-------------------------|-----------------|
|-7--------|-6--------|-5-----------------------|---------5-5-5-5-|
|-5--------|-6--------|-5-----------------------|-5-5-5-5-5-5-5-5-|
|----------|-6--------|-5-5---5---5---5---5-5-5-|-5-5-5-5-5-5-5-5-|
|
| W          W          E S S S S S S S S E E E   E E E E E E E E
|----------|----------|-------------------------|-----------------|
|----------|----------|-------------------------|-----------------|
|-7--------|----------|-------------------------|-----------------|
|-7--------|-6--------|-5-----------------------|---------5-5-5-5-|
|-5--------|-6--------|-5-----------------------|-5-5-5-5-5-5-5-5-|
|----------|-6--------|-5-5---5---5---5---5-5-5-|-5-5-5-5-5-5-5-5-|


  Gtrs I, II
  W          W          W          +W
|----------|----------|----------|--------*|
|----------|----------|----------|--------*|
|-7--------|----------|----------|--------*|
|-7--------|-6--------|-5--------|-(5)----*|
|-5--------|-6--------|-5--------|-(5)----*|
|----------|-6--------|-5--------|-(5)----*|

WE COME OUT AT NIGHT
As recorded by Avenged Sevenfold
(From the 2002 Album SOUNDING THE SEVENTH TRUMPET)



Gtr I   (D A D G B E) – 'Zacky Vengeance'
Gtr II  (D A D G B E) – 'Synyster Gates'
Gtr III (D A D G B E) – 'Synyster Left'
Gtr IV (D A D G B E) – 'Synyster Right'
Gtr V  (D A D G B E) – 'Zacky Overdrive'
Gtr VI (D A D G B E) – 'Syn Overdrive'
  Q=98
 4/4
  Gtr I
  S E S S S S S S S S S S S S S   E E Q  +H
|-------------------------------|---------------|
|-------------------------------|---------------|
|-------------------------------|-----1--(1)----|
|-0-0-----0-0-0-1-1-1-1-1-0-0-0-|-0---1--(1)----|
|-0-0-----0-0-0-1-1-1-1-1-0-0-0-|-0---1--(1)----|
|-0-0-----0-0-0-1-1-1-1-1-0-0-0-|-0-------------|


  Q=98
  S E S S S S S S S S S S S S S   E E Q  +H
|-------------------------------|---------------|
|-------------------------------|---------------|
|-------------------------------|-----1--(1)----|
|-0-0-----0-0-0-1-1-1-1-1-0-0-0-|-0---1--(1)----|
|-0-0-----0-0-0-1-1-1-1-1-0-0-0-|-0---1--(1)----|
|-0-0-----0-0-0-1-1-1-1-1-0-0-0-|-0-------------|


  Q=98
  S E S S S S S S S S S S S S S   E E Q  +H
|-------------------------------|---------------|
|-------------------------------|---------------|
|-------------------------------|-----1--(1)----|
|-0-0-----0-0-0-1-1-1-1-1-0-0-0-|-0---1--(1)----|
|-0-0-----0-0-0-1-1-1-1-1-0-0-0-|-0---1--(1)----|
|-0-0-----0-0-0-1-1-1-1-1-0-0-0-|-0-------------|


  Q=98
  S E S S S S S S S S S S S S S   E E Q  +H
|-------------------------------|---------------|
|-------------------------------|---------------|
|-------------------------------|-----1--(1)----|
|-0-0-----0-0-0-1-1-1-1-1-0-0-0-|-0---1--(1)----|
|-0-0-----0-0-0-1-1-1-1-1-0-0-0-|-0---1--(1)----|
|-0-0-----0-0-0-1-1-1-1-1-0-0-0-|-0-------------|


  S E S  S  S S S S  S S S  S  S S S   E E  Q    +H
|------------------------------------|--------------------------|
|------------------------------------|--------------------------|
|------------------------------------|------1----(1)------------|
|-0-0-------0-0-0-1--1-1-1--1--0-0-0-|-0----1----(1)------------|
|-0-0-------0-0-0-1--1-1-1--1--0-0-0-|-0----1----(1)------------|
|-0-0-------0-0-0-1--1-1-1--1--0-0-0-|-0------------------------|
|
| Gtr II
| S E S +E    E   E.     S +E    E     Q    E. S +E   E  +S  E.
|------------------------------------|--------------------------|
|---3-4-(4)---6---8------------------|--------------------------|
|------------------------8-(8)---7---|-8------------------------|
|------------------------------------|-----10--8-(8)-10-(10)-8--|
|------------------------------------|--------------------------|
|------------------------------------|--------------------------|


  S  E S  S  S S S S  S S S  S  S S S
|-------------------------------------|
|-------------------------------------|
|-------------------------------------|
|-0--0-------0-0-0-1--1-1-1--1--0-0-0-|
|-0--0-------0-0-0-1--1-1-1--1--0-0-0-|
|-0--0-------0-0-0-1--1-1-1--1--0-0-0-|
|
| E.   S +E    E   E.     S +E    E
|-------------------------------------|
|--------------6---8------------------|
|-7----8-(8)--------------8-(8)---7---|
|-------------------------------------|
|-------------------------------------|
|-------------------------------------|
|
| Gtr IV
| W
|-------------------------------------|
|-------------------------------------|
|-------------------------------------|
|-------------------------------------|
|-------------------------------------|
|-------------------------------------|


  E E  Q    +H               H         E. S +E  E
|--------------------------|----------------------|
|--------------------------|----------------------|
|------1----(1)------------|----------------------|
|-0----1----(1)------------|-1---------4--3-(3)-1-|
|-0----1----(1)------------|-1---------4--3-(3)-1-|
|-0------------------------|-1---------4--3-(3)-1-|
|
|                            Gtr III
| Q    E. S +E   E  +S  E.   S E. +Q   E. S +E  E
|--------------------------|----------------------|
|--------------------------|----------------------|
|-8------------------------|----------------------|
|-----10--8-(8)-10-(10)-8--|---1--(1)--4--3-(3)-1-|
|--------------------------|-1---------4--3-(3)-1-|
|--------------------------|-1---------4--3-(3)-1-|
|
| W                          S E. +Q   E. S +E  E
|--------------------------|----------------------|
|--------------------------|----------------------|
|--------------------------|----------------------|
|--------------------------|-1---------4--3-(3)-1-|
|--------------------------|-1---------4--3-(3)-1-|
|--------------------------|---1--(1)--4--3-(3)-1-|


  Gtrs I, III                                     Gtr I
  H.      Q    +Q   E. S +E  E Q    Q   H    Q    S E S S E. E. S +S  E.
|------------|--------------------|-------------|-------------------------|
|------------|--------------------|-------------|-------------------------|
|------------|--------------------|-2--19-------|-------------------------|
|-0-------3--|-(3)--6--4-(4)-3-4--|-2--------1--|-1-1-----4--3--1-(1)-0---|
|-0-------3--|-(3)--6--4-(4)-3-4--|-0--------1--|-1-1-----4--3--1-(1)-0---|
|-0-------3--|-(3)--6--4-(4)-3-4--|----20----1--|-1-1-----4--3--1-(1)-0---|
|
| Gtr IV
| H.      Q    +Q   E. S +E  E Q    Q   H    Q    S E S S E. E. S +S  E.
|------------|--------------------|-------------|-------------------------|
|------------|--------------------|-------------|-------------------------|
|------------|--------------------|-2---3-------|-------------------------|
|-0-------3--|-(3)--6--4-(4)-3-4--|-2---3----1--|-1-1-----4--3--1-(1)-0---|
|-0-------3--|-(3)--6--4-(4)-3-4--|-0---1----1--|-1-1-----4--3--1-(1)-0---|
|-0-------3--|-(3)--6--4-(4)-3-4--|----------1--|-1-1-----4--3--1-(1)-0---|


  Gtrs I, IV          Gtr V
  +Q.   E +E  E E E   S S S S  E     S  S S S S S  E     S  S
|-------------------|-----------------------------------------|
|-------------------|-----------------------------------------|
|-------------------|-----------------------------------------|
|-(0)---3-(3)-6-4-3-|-1-1-----------------1-1-----------------|
|-(0)---3-(3)-6-4-3-|---1-----------------1-1-----------------|
|-(0)---3-(3)-6-4-3-|---1-0----------0----1-1-0----------0----|
|
| Gtr VI
|  W                  S S S S  S  S  S  S S S S S  S  S  S  S
|-------------------|-----------------------------------------|
|-------------------|-----------------------------------------|
|-------------------|-----------------------------------------|
|-------------------|---------13-13-13-13---------13-13-13-13-|
|-------------------|-----------------------------------------|
|-------------------|-0---0---13-13-13-13-0---0---13-13-13-13-|


  S S S S  E     S  S S S S S  E     S  S
|-----------------------------------------|
|-----------------------------------------|
|-----------------------------------------|
|-0-0-----------------0-0-----------------|
|-0-0-----------------0-0-----------------|
|-0-0-0----------0----0-0-0----------0----|
|
| S S S S  S  S  S  S S S S S  S  S  S  S
|-----------------------------------------|
|-----------------------------------------|
|-----------------------------------------|
|---------12-12-12-12---------12-12-12-12-|
|-----------------------------------------|
|-0---0---12-12-12-12-0---0---12-12-12-12-|


  S S S S  E     S  S S S S S  E     S  S
|-----------------------------------------|
|-----------------------------------------|
|-----------------------------------------|
|-1-1-----------------1-1-----------------|
|-1-1-----------------1-1-----------------|
|-1-1-0----------0----1-1-0----------0----|
|
| S S S S  S  S  S  S S S S S  S  S  S  S
|-----------------------------------------|
|-----------------------------------------|
|-----------------------------------------|
|---------13-13-13-13---------13-13-13-13-|
|-----------------------------------------|
|-0---0---13-13-13-13-0---0---13-13-13-13-|


  S S S S  E     S  S S S S S  E     S  S
|-----------------------------------------|
|-----------------------------------------|
|-----------------------------------------|
|-0-0-----------------0-0-----------------|
|-0-0-----------------0-0-----------------|
|-0-0-0----------0----0-0-0----------0----|
|
| S S S S  S  S  S  S S S S S  S  S  S  S
|-----------------------------------------|
|-----------------------------------------|
|-----------------------------------------|
|---------12-12-12-12---------12-12-12-12-|
|-----------------------------------------|
|-0---0---12-12-12-12-0---0---12-12-12-12-|


  S S S S  E     S  S S S S S  E     S  S
|-----------------------------------------|
|-----------------------------------------|
|-----------------------------------------|
|-1-1-----------------1-1-----------------|
|-1-1-----------------1-1-----------------|
|-1-1-0----------0----1-1-0----------0----|
|
| S S S S  S  S  S  S S S S S  S  S  S  S
|-----------------------------------------|
|-----------------------------------------|
|-----------------------------------------|
|---------13-13-13-13---------13-13-13-13-|
|-----------------------------------------|
|-0---0---13-13-13-13-0---0---13-13-13-13-|


  S S S S  E     S  S S S S S  E     S  S
|-----------------------------------------|
|-----------------------------------------|
|-----------------------------------------|
|-0-0-----------------0-0-----------------|
|-0-0-----------------0-0-----------------|
|-0-0-0----------0----0-0-0----------0----|
|
| S S S S  S  S  S  S S S S S  S  S  S  S
|-----------------------------------------|
|-----------------------------------------|
|-----------------------------------------|
|---------12-12-12-12---------12-12-12-12-|
|-----------------------------------------|
|-0---0---12-12-12-12-0---0---12-12-12-12-|


  S S S S  E     S  S S S S S  E     S  S
|-----------------------------------------|
|-----------------------------------------|
|-----------------------------------------|
|-1-1-----------------1-1-----------------|
|-1-1-----------------1-1-----------------|
|-1-1-0----------0----1-1-0----------0----|
|
| S S S S  S  S  S  S S S S S  S  S  S  S
|-----------------------------------------|
|-----------------------------------------|
|-----------------------------------------|
|---------13-13-13-13---------13-13-13-13-|
|-----------------------------------------|
|-0---0---13-13-13-13-0---0---13-13-13-13-|


  S S S S  E     S  S S S S S  E     S  S   H     Q  Q
|-----------------------------------------|-------------|
|-----------------------------------------|-------1-----|
|-----------------------------------------|-3-----0--2--|
|-0-0-----------------0-0-----------------|-3--------2--|
|-0-0-----------------0-0-----------------|-1-----3--0--|
|-0-0-0----------0----0-0-0----------0----|-------------|
|
| S S S S  S  S  S  S S S S S  S  S  S  S   H     Q  Q
|-----------------------------------------|-------------|
|-----------------------------------------|-------------|
|-----------------------------------------|-------------|
|---------12-12-12-12---------12-12-12-12-|-8----10--7--|
|-----------------------------------------|-8----10--7--|
|-0---0---12-12-12-12-0---0---12-12-12-12-|-8----10--7--|


  S E S E S S S S S S S S S S   Q  Q   Q  Q    S S S S S S S S S S S S S E S
|-----------------------------|--------------|-------------------------------|
|-----------------------------|--------1-----|-------------------------------|
|-----------------------------|----3---0--2--|-------------------------------|
|-0-0---------0-0-----------0-|-0--3------2--|-0-0---------0-0---------0-0---|
|-0-0---------0-0-----------0-|-0--1---3--0--|-0-0---------0-0---------0-0---|
|-0-0-0---0---0-0-0-----0---0-|-0------------|-0-0-0---0---0-0-0---0---0-0-0-|
|
| S E S E S S S S S S S S S S   Q  Q   Q  Q    S S S S S S S S S S S S S E S
|-----------------------------|--------------|-------------------------------|
|-----------------------------|--------------|-------------------------------|
|-----------------------------|--------------|-------------------------------|
|-0-0---------0-0-----------0-|-0--8--10--7--|-0-0---------0-0---------0-0---|
|-0-0---------0-0-----------0-|-0--8--10--7--|-0-0---------0-0---------0-0---|
|-0-0-0---0---0-0-0-----0---0-|-0--8--10--7--|-0-0-0---0---0-0-0---0---0-0-0-|


                Gtr I
  H     Q  Q    S S E E E S S E E E
|-------------|-------2---------3---|
|-------1-----|-----3---3-----4---4-|
|-3-----0--2--|---------------------|
|-3--------2--|-0-0-------0-0-------|
|-1-----3--0--|-0-0-------0-0-------|
|-------------|-0-0-------0-0-------|
|
|               Gtr II
| H     Q  Q    S S E E E S S E E E
|-------------|---------------------|
|-------------|-------7---------8---|
|-------------|-----7---7-----8---8-|
|-8----10--7--|-0-0-------0-0-------|
|-8----10--7--|-0-0-------0-0-------|
|-8----10--7--|-0-0-------0-0-------|


  S S E E E E.  S  +E  E   S S E E E S S E E E
|-------2----------------|-------2---------3----|
|-----3---3-----1--(1)---|-----3---3-----4---4--|
|-----------3---0--(0)-2-|----------------------|
|-0-0-------3----------2-|-0-0-------0-0--------|
|-0-0-------1---3--(3)-0-|-0-0-------0-0--------|
|-0-0--------------------|-0-0-------0-0--------|
|
| S S E E E E.  S  +E  E   S S E E E S S E E E
|------------------------|----------------------|
|-------7----------------|-------7---------8----|
|-----7---7--------------|-----7---7-----8---8--|
|-0-0-------8--10-(10)-7-|-0-0-------0-0--------|
|-0-0-------8--10-(10)-7-|-0-0-------0-0--------|
|-0-0-------8--10-(10)-7-|-0-0-------0-0--------|


  S S E E E E.  S  +E  E   W          S S S S S S S S  S  S  S  S  S  S  S  S
|-------2----------------|----------|-----------------------------------------|
|-----3---3-----1--(1)---|----------|-----------------------------------------|
|-----------3---0--(0)-2-|----------|------------------5--5--5--5--5--5--5--5-|
|-0-0-------3----------2-|-0--------|-0-0-0-0-0-0-0-0--5--5--5--5--5--5--5--5-|
|-0-0-------1---3--(3)-0-|-0--------|-0-0-0-0-0-0-0-0--3--3--3--3--3--3--3--3-|
|-0-0--------------------|-0--------|-0-0-0-0-0-0-0-0-------------------------|
|
| S S E E E E.  S  +E  E   W          S S S S S S S S  S  S  S  S  S  S  S  S
|------------------------|----------|-----------------------------------------|
|-------7----------------|----------|-----------------------------------------|
|-----7---7--------------|----------|-----------------------------------------|
|-0-0-------8--10-(10)-7-|-0--------|-0-0-0-0-0-0-0-0-10-10-10-10-10-10-10-10-|
|-0-0-------8--10-(10)-7-|-0--------|-0-0-0-0-0-0-0-0-10-10-10-10-10-10-10-10-|
|-0-0-------8--10-(10)-7-|-0--------|-0-0-0-0-0-0-0-0-10-10-10-10-10-10-10-10-|


  Gtrs I, II
  S S S S S S S S S S S S S S S S   S S S S S S S S S S S S S S S S
|---------------------------------|---------------------------------|
|---------------------------------|---------------------------------|
|---------------------------------|-----------------5-5-5-5-5-5-5-5-|
|-3-3-3-3-3-3---------------------|-0-0-0-0-0-0-0-0-5-5-5-5-5-5-5-5-|
|-3-3-3-3-3-3---------------------|-0-0-0-0-0-0-0-0-3-3-3-3-3-3-3-3-|
|-3-3-3-3-3-3-2-3-5-3-2-3-5-3-2-3-|-0-0-0-0-0-0-0-0-----------------|


  S S S S S E S S E S S S S S   S S S S S S S S S S S S S S S S
|-----------------------------|----------------------------------|
|-----------------------------|----------------------------------|
|-----------------------------|-----------------5-5-5-5-5-5-5-5--|
|-3-3-3-3-3-3-3-3---2-2-3-3-3-|-0-0-0-0-0-0-0-0-5-5-5-5-5-5-5-5--|
|-3-3-3-3-3-3-3-3---2-2-3-3-3-|-0-0-0-0-0-0-0-0-3-3-3-3-3-3-3-3--|
|-3-3-3-3-3-3-3-3---2-2-3-3-3-|-0-0-0-0-0-0-0-0------------------|


  S S S S S S S S S S S S S S S S   S S S S S S S S S S S S S S S S
|---------------------------------|---------------------------------|
|---------------------------------|---------------------------------|
|---------------------------------|-----------------5-5-5-5-5-5-5-5-|
|-3-3-3-3-3-3---------------------|-0-0-0-0-0-0-0-0-5-5-5-5-5-5-5-5-|
|-3-3-3-3-3-3---------------------|-0-0-0-0-0-0-0-0-3-3-3-3-3-3-3-3-|
|-3-3-3-3-3-3-2-3-5-3-2-3-5-3-2-3-|-0-0-0-0-0-0-0-0-----------------|


                                Q=75                        Q=98
                                Gtr I
  S S S S S E S S E S S S S S   S S S S S S S S S S S S S S S S
|-----------------------------|----------------------------------|
|-----------------------------|----------------------------------|
|-----------------------------|----------------------------------|
|-3-3-3-3-3-3-3-3---2-2-3-3-3-|-0-------------1-0-----------0-1--|
|-3-3-3-3-3-3-3-3---2-2-3-3-3-|-0-------------1-0-----------0-1--|
|-3-3-3-3-3-3-3-3---2-2-3-3-3-|-0---0-0-0-0---1-0-0-0-0-0---0-1--|
|
| Gtr VI
| W                             E   S S S E   S S S S S E   S S
|-----------------------------|----------------------------------|
|-----------------------------|----------------------------------|
|-----------------------------|----------------------------------|
|-----------------------------|-------------------0--------------|
|-----------------------------|-----5----------------------------|
|-----------------------------|-0-----6-5-6---1-0---6-5-6---0-1--|


                                Q=75                        Q=98
  +W                            S S S S S S S S S S S S S S S S
|-----------------------------|---------------------------------|
|-----------------------------|---------------------------------|
|-----------------------------|---------------------------------|
|-(1)-------------------------|-0-------------1-0-----------0-1-|
|-(1)-------------------------|-0-------------1-0-----------0-1-|
|-(1)-------------------------|-0---0-0-0-0---1-0-0-0-0-0---0-1-|
|
|  E  S S +S  S E S E S E S S   E   S S S E   S S S S S E   S S
|-----------------------------|---------------------------------|
|-----------------------------|---------------------------------|
|-----------------------------|---------------------------------|
|--1----------------1---------|-----0-------------0-------------|
|-----0-----------------7-6---|---------------------------------|
|-------6-(6)-7-2-1---6-----1-|-0-----6-5-6---1-0---6-5-6---0-1-|


  +W
|-------------------------------|
|-------------------------------|
|-------------------------------|
|-(1)---------------------------|
|-(1)---------------------------|
|-(1)---------------------------|
|
|  E  S S +S  S E S E S E S S
|-------------------------------|
|-------------------------------|
|-------------------------------|
|--1----------------1-----------|
|-----0-----------------7-6-----|
|-------6-(6)-7-2-1---6-----1---|


  Q=75                        Q=98
  S S S S S S S S S S S S S S S S   +W
|---------------------------------|-----------------------------|
|---------------------------------|-----------------------------|
|---------------------------------|-----------------------------|
|-0-------------1-0-----------0-1-|-(1)-------------------------|
|-0-------------1-0-----------0-1-|-(1)-------------------------|
|-0---0-0-0-0---1-0-0-0-0-0---0-1-|-(1)-------------------------|
|
| E   S S S E   S S S S S E   S S    E  S S +S  S E S E S E S S
|---------------------------------|-----------------------------|
|---------------------------------|-----------------------------|
|---------------------------------|-----------------------------|
|-----0-------------0-------------|--1----------------1---------|
|---------------------------------|-----0-----------------7-6---|
|-0-----6-5-6---1-0---6-5-6---0-1-|-------6-(6)-7-2-1---6-----1-|


  Q=75                        Q=98
  S S S S S S S S S S S S S S S S
|---------------------------------|
|---------------------------------|
|---------------------------------|
|-0-------------1-0-----------0-1-|
|-0-------------1-0-----------0-1-|
|-0---0-0-0-0---1-0-0-0-0-0---0-1-|
|
| E   S S S E   S S S S S E   S S
|---------------------------------|
|---------------------------------|
|---------------------------------|
|-----0-------------0-------------|
|---------------------------------|
|-0-----6-5-6---1-0---6-5-6---0-1-|


                                Q=90
                                Gtrs I, II
  +W                             S  S E S S E S S E +Q
|-----------------------------|--------------------------|
|-----------------------------|--------------------------|
|-----------------------------|--------------------------|
|-(1)-------------------------|--0--0-0-0-0-0-0-0-0-(0)--|
|-(1)-------------------------|--0--0-0-0-0-0-0-0-0-(0)--|
|-(1)-------------------------|--0--0-0-0-0-0-0-0-0-(0)--|
|
|  E  S S +S  S E S E S E S S   +S  S E Q     H
|-----------------------------|--------------------------|
|-----------------------------|--------------------------|
|-----------------------------|--------------------------|
|--1----------------1---------|--------------------------|
|-----0-----------------7-6---|--------------------------|
|-------6-(6)-7-2-1---6-----1-|-(1)----------------------|


                           Q=90
  S S E S S E S S E +Q     S S E S S E S S E +Q     S S E S S E S S E +Q
|------------------------|------------------------|------------------------|
|------------------------|------------------------|------------------------|
|------------------------|------------------------|------------------------|
|-1-1-1-1-1-1-1-1-1-(1)--|-0-0-0-0-0-0-0-0-0-(0)--|-1-1-1-1-1-1-1-1-1-(1)--|
|-1-1-1-1-1-1-1-1-1-(1)--|-0-0-0-0-0-0-0-0-0-(0)--|-1-1-1-1-1-1-1-1-1-(1)--|
|-1-1-1-1-1-1-1-1-1-(1)--|-0-0-0-0-0-0-0-0-0-(0)--|-1-1-1-1-1-1-1-1-1-(1)--|


  Q=90                                              Q=90
  S S E S S E S S E +Q     S S E S S E S S E +Q     S S E S S E S S E +Q
|------------------------|------------------------|------------------------|
|------------------------|------------------------|------------------------|
|------------------------|------------------------|------------------------|
|-0-0-0-0-0-0-0-0-0-(0)--|-1-1-1-1-1-1-1-1-1-(1)--|-0-0-0-0-0-0-0-0-0-(0)--|
|-0-0-0-0-0-0-0-0-0-(0)--|-1-1-1-1-1-1-1-1-1-(1)--|-0-0-0-0-0-0-0-0-0-(0)--|
|-0-0-0-0-0-0-0-0-0-(0)--|-1-1-1-1-1-1-1-1-1-(1)--|-0-0-0-0-0-0-0-0-0-(0)--|


                           Q=98
                           Gtrs V, VI
  S S E S S E S S E +Q     S E S E E S E S S S S S   S E S E E S E S S S S S
|------------------------|-------------------------|-------------------------|
|------------------------|-------------------------|-------------------------|
|------------------------|-------------------------|-------------------------|
|-1-1-1-1-1-1-1-1-1-(1)--|-0-0-0-1-4-1-0-0-0-1-3-4-|-0-0-0-1-4-1-0-0-0-------|
|-1-1-1-1-1-1-1-1-1-(1)--|-0-0-0-1-4-1-0-0-0-1-3-4-|-0-0-0-1-4-1-0-0-0-3-5-6-|
|-1-1-1-1-1-1-1-1-1-(1)--|-0-0-0-1-4-1-0-0-0-1-3-4-|-0-0-0-1-4-1-0-0-0-------|


  Q=98
  S E S E E S E S S S S S   S E S E E S E S S S S S
|-------------------------|-------------------------|
|-------------------------|-------------------------|
|-------------------------|-------------------------|
|-0-0-0-1-4-1-0-0-0-1-3-4-|-0-0-0-1-4-1-0-0-0-------|
|-0-0-0-1-4-1-0-0-0-1-3-4-|-0-0-0-1-4-1-0-0-0-3-5-6-|
|-0-0-0-1-4-1-0-0-0-1-3-4-|-0-0-0-1-4-1-0-0-0-------|


  Gtrs I, III, IV
  S E S +S  E S S S S S S E.
|-----------------------------|
|-----------------------------|
|-----------------------------|
|-0-0-0-(0)-0-0-0-0-----------|
|-0-0-0-(0)-0-0-0-0-2-3-5-6---|
|-0-0-0-(0)-0-0-0-0-----------|


  S S S S +S  E S S S S  S  S  E.   S E S +S  E S S S S  S  S  E.
|---------------------------------|-------------------------------|
|---------------------------------|-------------------------------|
|---------------------------------|-------------------------------|
|-0-0-0-0-(0)-0-0-0-0-------------|-0-0-0-(0)-0-0-0-0-------------|
|-0-0-0-0-(0)-0-0-0-0-------------|-0-0-0-(0)-0-0-0-0-------------|
|-0-0-0-0-(0)-0-0-0-0-9-10-12-13--|-0-0-0-(0)-0-0-0-0-9-10-12-13--|


  S S S S +S  E S S S S  S  S  E.   W          W          W
|---------------------------------|----------|----------|------|
|---------------------------------|----------|----------|------|
|---------------------------------|----------|----------|------|
|-0-0-0-0-(0)-0-0-0-0-------------|-0--------|----------|------|
|-0-0-0-0-(0)-0-0-0-0-------------|-0--------|----------|------|
|-0-0-0-0-(0)-0-0-0-0-9-10-12-13--|-0--------|----------|------|


                            Gtr I
  S S E S S E S S E S S E   S S S S S S S S S S S S S S S S
|-------------------------|---------------------------------|
|-------------------------|---------------------------------|
|-------------------------|-----------------5-5-5-5-5-5-5-5-|
|-------3-3---2-2---3-3---|-0-0-0-0-0-0-0-0-5-5-5-5-5-5-5-5-|
|-------3-3---2-2---3-3---|-0-0-0-0-0-0-0-0-3-3-3-3-3-3-3-3-|
|-0-----3-3---2-2---3-3---|-0-0-0-0-0-0-0-0-----------------|
|
| Gtr II
| W                         S S S S S S S S S S S S S S S S
|-------------------------|---------------------------------|
|-------------------------|-----------------1-1-1-1-1-1-1-1-|
|-------------------------|-----------------0-0-0-0-0-0-0-0-|
|-------------------------|-0-0-0-0-0-0-0-0-----------------|
|-------------------------|-0-0-0-0-0-0-0-0-3-3-3-3-3-3-3-3-|
|-------------------------|-0-0-0-0-0-0-0-0-----------------|


  Gtrs I, II
  S S S S S S S S S S S S S S S S   S S S S S S S S S S S S S S S S
|---------------------------------|---------------------------------|
|---------------------------------|---------------------------------|
|---------------------------------|-----------------5-5-5-5-5-5-5-5-|
|-3-3-3-3-3-3---------------------|-0-0-0-0-0-0-0-0-5-5-5-5-5-5-5-5-|
|-3-3-3-3-3-3---------------------|-0-0-0-0-0-0-0-0-3-3-3-3-3-3-3-3-|
|-3-3-3-3-3-3-2-3-5-3-2-3-5-3-2-3-|-0-0-0-0-0-0-0-0-----------------|


  Gtrs I, III, IV             Gtrs I, II
  S S S S S E S S E S S E S   S S S S S S S S S S S S S S S S
|---------------------------|---------------------------------|
|---------------------------|---------------------------------|
|---------------------------|-----------------5-5-5-5-5-5-5-5-|
|-3-3-3-3-3-3-3-3---2-2-3---|-0-0-0-0-0-0-0-0-5-5-5-5-5-5-5-5-|
|-3-3-3-3-3-3-3-3---2-2-3---|-0-0-0-0-0-0-0-0-3-3-3-3-3-3-3-3-|
|-3-3-3-3-3-3-3-3---2-2-3---|-0-0-0-0-0-0-0-0-----------------|


  S S S S S S S S S S S S S S S S   S S S S S S S S S S S S S S S S
|---------------------------------|---------------------------------|
|---------------------------------|---------------------------------|
|---------------------------------|-----------------5-5-5-5-5-5-5-5-|
|-3-3-3-3-3-3---------------------|-0-0-0-0-0-0-0-0-5-5-5-5-5-5-5-5-|
|-3-3-3-3-3-3---------------------|-0-0-0-0-0-0-0-0-3-3-3-3-3-3-3-3-|
|-3-3-3-3-3-3-2-3-5-3-2-3-5-3-2-3-|-0-0-0-0-0-0-0-0-----------------|


  Gtrs I, III, IV
  S S S S S E S S E S S E S
|---------------------------*|
|---------------------------*|
|---------------------------*|
|-3-3-3-3-3-3-3-3---2-2-3---*|
|-3-3-3-3-3-3-3-3---2-2-3---*|
|-3-3-3-3-3-3-3-3---2-2-3---*|


LIPS OF DECEIT
As recorded by Avenged Sevenfold
(From the 2002 Album SOUNDING THE SEVENTH TRUMPET)
Transcribed By:
maxemo

0:00-0:38
|---------------------------------------------------------|
|---------------------------------------------------------|
|-2/7-7-9h10-9-7/3-9-10-9-7/10-12-14-12-10/5h7-9-7-5/7----|
|-2/7-7-7--7-7-7/3-7--7-7-7/10-10-10-10-10/5-5-5-5-5/7----|
|---------------------------------------------------------|
|---------------------------------------------------------|

at 0:39 end like this

0:39-0:46
listen to the song for the>>>>>>>>>> 2
some are palm mute and some are not  2
                                     0
Gtr I
|-------------|
|-------------|
|--5/2----2---|
|--5/2----2---|
|---------0---|
|-------------|
gtr II
|------------|
|------------|
|--6-2-5-9---|
|--x-x-x-x---|
|--4-0-3-7---|
|------------|

0:47-1:02
|-------------------------------------------------------|
|-------------------------------------------------------|
|-2/7-9-10-9-7/3-9-10-9-7/10-12-14-12-10/5-7-9-7-5/7----|
|-2/7-7--7-7-7/3-7--7-7-7/10-10-10-10-10/5-5-5-5-5/7----|
|-------------------------------------------------------|
|-------------------------------------------------------|

1:03-1:05
|-------------|
|-------------|
|--5/2----2---|
|--5/2----2---|
|---------0---|
|-------------|

1:06-1:08
|----------------|
|----------------|
|--2~------------|
|--2~------------|
|--0~------------|
|----------------|

1:09-1:28 do it all twice
|----------------------------------|
|----------------------------------|
|--2-2-2-5-3-3-3-2-0-0-5-0-2-2-2---|
|---0-0-0---0-0-0---0-0----0-0-0---|
|----------------------------------|
|----------------------------------|

                         (last 10 harmonic)
|-----------------------------------------|
|------------------------------8-10-------|
|-2-0-2-2-2--5-7-7-7-10-9-9-10------------|
|------0-0-0----0-0-0----0-0--------------|
|-----------------------------------------|
|-----------------------------------------|

1:28-1:37                                         (last 10 harmonic)
|-----------------------------------------------------------|-------|
|-----------------------------------------------------------|-8(10)-|
|-2-2-2-5-3-3-3-2-0-0-5-0-2-2-2-2-0-------5-7-7-7-10-9-9-10-|-------|
|-----------------------------------3-3-3-------------------|-------|
|-----------------------------------------------------------|-------|
|-----------------------------------------------------------|-------|
                                                                            
1:37-1:50(do this at the end of that ^)                                     
|---------------------------------------------------|
|-------------8—8h10-8------------------------------|
|---10-9-9-10----------10-12-10-9-7-9-10-9-7-5-7~---|
|----------------------------------------------0~---|
|---------------------------------------------------|
|---------------------------------------------------|

1:50-2:10
no guitar

2:10-2:29(twice)
|--------------------------------------|
|--------------------------------------|
|--9/10-10-10-10--9-9-9-9/10-10-10-10--|
|--x-x---x--x--x--x-x-x-x-x---x--x--x--|
|--7/8---8--8--8--7-7-7-7/8---8--8--8--|
|--------------------------------------|

|-------------------------------------------------|
|-------------------------------------------------|
|-9-9-9-9/-12-12-12-12-12-12/14-14-14-10-10-10-10-|
|-x-x-x-x---x--x--x—x---x--x--x—-x--x--x—-x--x--x-|
|-7-7-7-7/-10-10-10-10-10-10/12-12-12--8--8--8—-8-|
|-------------------------------------------------|

|--------------------------------------|
|--------------------------------------|
|--9/10-10-10-10--9-9-9-9/10-10-10-10--|
|--x-x---x--x--x--x-x-x-x-x---x--x--x--|
|--7/8---8--8--8--7-7-7-7/8---8--8--8--|
|--------------------------------------|

|-------------------------------------------|
|-------------------------------------------|
|-9-9-9--5-5-5-5-5-5-5----------------------|
|-x-x-x--x-x-x-x-x-x-x--5555-3333-----------|
|-7-7-7--3-3-3-3-3-3-3--5555-3333-----------|
|-----------------------5555-3333-----------|

2:29-2:31
|--------------------|
|--------------------|
|--------------------|
|--5--0000-0-0-0-----|
|--5--0000-0-0-0-----|
|--5--0000-0-0-0-----|

2:31-2:52
|-----------------------------------------|
|-----------------------------------------|
|--------5/3------3/5------5/7—-7/--------|
|-0-000—-5/3-000—-3/5-000—-5/7—-7/--------|
|-0-000—-3/1-000—-1/3-000—-3/5—-5/--------|
|-0-000------000------000-----------------|
    xxx      xxx      xxx             

2:52-3:01
|-------------------------------------------|
|-------------------------------------------|
|---7-77-10-10-10-7-77-10-10-10--5-5-5-5----|
|---7-77--7--7--7-7-77--7--7--7--7-7-7-7----|
|-------------------------------------------|
|-------------------------------------------|
      xx     x  x   xx     x  x         

2:57
|-------------|
|-------------|
|-------------|
|-0~----------|
|-0~----------|
|-0~----------|

2:57-3:19
|---------------------------------------------------|
|---------------------------------------------------|
|--2222222-3333333-5555555-7777777------------------|
|--2222222-3333333-5555555-7777777------------------|
|--0000000-1111111-3333333-5555555------------------|
|---------------------------------------------------|
3:19-3:26
|------------------------------|
|------------------------------|
|---7-7-10-10--7-7-7-5-777-----|
|---7-7--7--7--7-7-7-7-777-----|
|------------------------------|
|------------------------------|
      x     x  x x                
3:26
    Gtr I      Gtr II
|---------|----------|
|---------|----------|
|--7-8-7--|----------|
|--7-7-7--|--7-8-7---|
|---------|--7-8-7---|
|---------|--7-8-7---|

3:28-3:35
|---------------------|
|---------------------|
|--7------------------|
|--7-7-6--------------|
|--5-7-6--------------|
|----7-6---0005323----|

3:35-3:44
|---------------------|
|---------------------|
|--7-8-7--------------|    listen for       
|--7-8-7--------------|    the order… 
|--5-6-5--------------|
|---------------------|

|---------------------|
|---------------------|
|--7-8-7---8----------|
|--7-8-7---x----------|
|--5-6-5---6----------|
|---------------------|

|---------------------|
|---------------------|
|--7-8-7--------------|
|--7-8-7---00---------|
|--5-6-5---00---------|
|----------00---------|
           xx 
3:44-3:50
|---------------------------------------------------|
|---------------------------------------------------|
|--2222222-----------------------3333333--2222222---|
|--2222222--0000-0-0--0000-0-0---3333333--2222222---|
|--0000000--0000-0-0--0000-0-0---1111111--0000000---|
|-----------0000-0-0--0000-0-0----------------------|
            xxxx x x  xxxx x x          
3:50-4:09
|---------------------------------------------------|
|---------------------------------------------------|
|--2222222-3333333-5555555-7777777------------------|
|--2222222-3333333-5555555-7777777------------------|
|--0000000-1111111-3333333-5555555------------------|
|---------------------------------------------------|

end on 
|------|
|------|
|--7---|
|--7---| don't let ring
|--5---|
|------|

thats all any corrections send to 

magnificent_adroitness2hotmail.com

-itsmaximo







WARMNESS ON THE SOUL
As recorded by Avenged Sevenfold
(From the 2002 Album SOUNDING THE SEVENTH TRUMPET)


Gtr I (D A D G B E) - 'Synyster Gates'

Guitar Solo
120 BPM
 Gtr I
| W                     H        E E E E
|------------------|
|------------------|
|------------------|
|--------------5h7-|
|---------/5h7-----|
|------------------|



| H        E  E  E S S   +E  E E Q.      Q
|----------------------|--------------------|
|----------------------|--------------------|
|----------------------|--------------------|
|-5--------5--7--5-----|--------------------|
|------------------7s9-|-(9)-7-5-5-------2--|
|----------------------|--------------------|



| W                 E E E  E S E   E.   E
|-----------------|-----------------------|
|-----------------|-----------------------|
|-----------------|----------7s9---7------|
|-----------------|---5-7--9------------9-|
|-7---------------|-7---------------------|
|-----------------|-----------------------|


|                                     |-3--|
| E  H        Q   E   E  Q    H       S  S S
|-------------------|------------------------|
|-------------------|------------------------|
|-----------------9-|-9----------------------|
|-9-10-------12-----|---12----9-------9h10p9-|
|-------------------|------------------------|
|-------------------|------------------------|


|  W               S  E.  Q        S  E.  Q
|---------------|---------------------------------|
|---------------|---------------------------------|
|---------------|-----------------11s14-----------|
|---------------|-10s12---------------------------|
|-12------------|--------12--------------12-------|
|---------------|---------------------------------|



|  S  E.  Q.       Q   E   E   H          +E   E.  S
|------------------------|----------------------------|
|------------------------|----------------------------|
|----------------------9-|-9--------------------------|
|-10s12--10-------12-----|----12---------(12)-12p==3--|
|------------------------|----------------------------|
|------------------------|----------------------------|



|  E.  E.    E  E.  E.    S  S    E.    E.     E  E.    E.    E
|------------------------------|--------------------------------|
|------------------------------|-10-----------------------------|
|-12--11-------12--11----11h12-|-------12-----11-12----11-------|
|-----------12-----------------|-----------------------------12-|
|------------------------------|--------------------------------|
|------------------------------|--------------------------------|


|
|                      ~~~
|  E  H       E  Q     Q      H.
|-------------------|--------------------|
|-------------------|--------------------|
|-------------------|--------------------|
|-12s14------16-17--|-16\----------------|
|-------------------|--------------------|
|-------------------|--------------------|

Ending
| H       Q   Q     H       Q   E E
|-----------------|-----------------|
|-----------------|-----------------|
|-5-------5---5---|-7-------7---7-7-|
|-5-------5---5---|-7-------7---7-7-|
|-3-------3---3---|-5-------5---5-5-|
|-----------------|-----------------|


|
| H       Q   E E     W
|-------------------|---------------------------------|
|-------------------|---------------------------------|
|-------------------|---------------------------------|
|-2-------2---2-2---|-2-------------------------------|
|-2-------2---2-2---|-2-------------------------------|
|-2-------2---2-2---|-2-------------------------------|



|
| H       Q   Q     H       Q   E E    Q   Q    Q   Q     Q  Q   Q   Q
|-----------------|-----------------|-------------------|------------------|
|-----------------|-----------------|-------------------|------------------|
|-5-------5---5---|-7-------7---7-7-|-12--12---11--11---|-9--9---7---7-----|
|-5-------5---5---|-7-------7---7-7-|-------------------|------------------|
|-3-------3---3---|-5-------5---5-5-|-10--10----9---9---|-7--7---5---5-----|
|-----------------|-----------------|-------------------|------------------|



|
| Q   Q.         E E E   E E  H.
|----------------------|----------------|
|----------------------|----------------|
|-5---5----------5-5-5-|-7--------------|
|-5---5----------5-5-5-|-7--------------|
|-3---3----------3-3-3-|-5--------------|
|----------------------|----------------|



AN EPIC OF TIME WASTED
As recorded by Avenged Sevenfold
(From the 2001 Album SOUNDING THE SEVENTH TRUMPET)



Gtr I (D A D G B E) - 'Synyster Gates'
Gtr II (D A D G B E) - 'Zacky Vengeance'
  Q=112
 4/4
  Gtrs I, II
  W          +H.      S S E   W          +H.      S S E
|----------|----------------|----------|-----------------|
|----------|----------------|----------|-----------------|
|----------|----------------|----------|-----------------|
|-0--------|-(0)------1-1---|-0--------|-(0)------1-1----|
|-0--------|-(0)------1-1---|-0--------|-(0)------1-1----|
|-0--------|-(0)------1-1---|-0--------|-(0)------1-1----|


  W          +H.      S S E   W          +H.      S S E
|----------|----------------|----------|----------------|
|----------|----------------|----------|----------------|
|----------|----------------|----------|----------------|
|-0--------|-(0)------1-1---|-0--------|-(0)------1-1---|
|-0--------|-(0)------1-1---|-0--------|-(0)------1-1---|
|-0--------|-(0)------1-1---|-0--------|-(0)------1-1---|


  Q=110
 2/4    4/4
  Gtr I
  W      E S S S S S S  S  S S S E E   E S S S S S S  S  S S S E E
|------|-----------------------------|------------------------------|
|------|-------3---------------------|-------3----------------------|
|------|-------x---------------------|-------x----------------------|
|------|-0-----0---------------------|-0-----0----------------------|
|------|-0-0-0-----------------------|-0-0-0------------------------|
|------|-0-0-0-----0-2--3--0-2-3-5-1-|-0-0-0-----0-2--3--0-2-3-5-7--|
|
| Gtr II
| W      E S S Q       +H              E S S Q       +H
|------|-----------------------------|------------------------------|
|------|-----------------------------|------------------------------|
|------|-----------------------------|------------------------------|
|------|-0-----0-------(0)-----------|-0-----0-------(0)------------|
|------|-0-0-0-0-------(0)-----------|-0-0-0-0-------(0)------------|
|------|-0-0-0-0-------(0)-----------|-0-0-0-0-------(0)------------|


  E S S S S S S  S  S S S E E   E S S S S S S  S  S S S E E
|-----------------------------|------------------------------|
|-----------------------------|-------3----------------------|
|-------7---------------------|-------x----------------------|
|-0-----x---------------------|-0-----0----------------------|
|-0-0-0-5---------------------|-0-0-0------------------------|
|-0-0-0-----0-2--3--0-2-3-5-1-|-0-0-0-----0-2--3--0-2-3-5-7--|
|
| E S S Q       +H              E S S Q       +H
|-----------------------------|------------------------------|
|-----------------------------|------------------------------|
|-----------------------------|------------------------------|
|-0-----0-------(0)-----------|-0-----0-------(0)------------|
|-0-0-0-0-------(0)-----------|-0-0-0-0-------(0)------------|
|-0-0-0-0-------(0)-----------|-0-0-0-0-------(0)------------|


  E S S S S S S  S  S S S E E   E S S S S S S  S  S S S E E
|-----------------------------|------------------------------|
|-----------------------------|-------3----------------------|
|-------7---------------------|-------x----------------------|
|-0-----x---------------------|-0-----0----------------------|
|-0-0-0-5---------------------|-0-0-0------------------------|
|-0-0-0-----0-2--3--0-2-3-5-1-|-0-0-0-----0-2--3--0-2-3-5-7--|
|
| E S S Q       +H              E S S Q       +H
|-----------------------------|------------------------------|
|-----------------------------|------------------------------|
|-----------------------------|------------------------------|
|-0-----0-------(0)-----------|-0-----0-------(0)------------|
|-0-0-0-0-------(0)-----------|-0-0-0-0-------(0)------------|
|-0-0-0-0-------(0)-----------|-0-0-0-0-------(0)------------|


  E S S S S S S  S  S S S +E  E   E S S S S S S  S  S S S E E   W
|-------------------------------|-----------------------------|------|
|-------------------------------|-------3---------------------|------|
|-------7-----------------------|-------x---------------------|------|
|-0-----x-----------------------|-0-----0---------------------|-0----|
|-0-0-0-5-----------------------|-0-0-0-----------------------|-0----|
|-0-0-0-----0-3--0--2-3-5-(5)-1-|-0-0-0-----0-2--3--0-2-3-5-7-|-0----|
|
| E S S Q       +H                E S S Q       +H              W
|-------------------------------|-----------------------------|------|
|-------------------------------|-----------------------------|------|
|-------------------------------|-----------------------------|------|
|-0-----0-------(0)-------------|-0-----0-------(0)-----------|-0----|
|-0-0-0-0-------(0)-------------|-0-0-0-0-------(0)-----------|-0----|
|-0-0-0-0-------(0)-------------|-0-0-0-0-------(0)-----------|-0----|


  E S S S S S S S S S S E E   E S S S S S S S S S S E E
|---------------------------|----------------------------|
|---------------------------|-------3--------------------|
|-------7-------------------|-------x--------------------|
|-0-----x-------------------|-0-----0--------------------|
|-0-0-0-5---0-2-3-0-2-3-5-1-|-0-0-0-----0-2-3-0-2-3-5-7--|
|-0-0-0-----0-2-3-0-2-3-5-1-|-0-0-0-----0-2-3-0-2-3-5-7--|
|
| E S S S S S S S S S S E E   E S S S S S S S S S S E E
|---------------------------|----------------------------|
|-------3-------------------|-------3--------------------|
|-------x-------------------|-------x--------------------|
|-0-----0-------------------|-0-----0--------------------|
|-0-0-0-----0-2-3-0-2-3-5-1-|-0-0-0-----0-2-3-0-2-3-5-7--|
|-0-0-0-----0-2-3-0-2-3-5-1-|-0-0-0-----0-2-3-0-2-3-5-7--|


  Gtrs I, II
  E S S S S S S S S S S E E   E S S S S S S S S S S E E
|---------------------------|----------------------------|
|---------------------------|-------3--------------------|
|-------7-------------------|-------x--------------------|
|-0-----x-------------------|-0-----0--------------------|
|-0-0-0-5---0-2-3-0-2-3-5-1-|-0-0-0-----0-2-3-0-2-3-5-7--|
|-0-0-0-----0-2-3-0-2-3-5-1-|-0-0-0-----0-2-3-0-2-3-5-7--|


  E S S S S S S S S S S E E   E S S S S S S S S S S E E
|---------------------------|----------------------------|
|---------------------------|-------3--------------------|
|-------7-------------------|-------2--------------------|
|-0-----7-------------------|-0-----0--------------------|
|-0-0-0-5---0-2-3-0-2-3-5-1-|-0-0-0-----0-2-3-0-2-3-5-7--|
|-0-0-0-----0-2-3-0-2-3-5-1-|-0-0-0-----0-2-3-0-2-3-5-7--|


  E S S S S S S S S S S E E   E S S S S S S S S S S E E
|---------------------------|----------------------------|
|---------------------------|-------3--------------------|
|-------7-------------------|-------x--------------------|
|-0-----x-------------------|-0-----0--------------------|
|-0-0-0-5---0-2-3-0-2-3-5-1-|-0-0-0-----0-2-3-0-2-3-5-7--|
|-0-0-0-----0-2-3-0-2-3-5-1-|-0-0-0-----0-2-3-0-2-3-5-7--|


  E E S S S S E E S S S S   E E S S S S S S S S S S S S
|-------------------------|-------------3p2--------------|
|-------------------------|-----------------3p2----------|
|-------------------------|---------------------3p2------|
|-0-0---------0-0---------|-0-0---------------------3p2--|
|-0-0-1-1-1---0-0-1-1-1---|-0-0-1-1-1--------------------|
|-0-0-1-1-1---0-0-1-1-1---|-0-0-1-1-1--------------------|


  S S S S S S S S S S S S S S S S   S S S S  S  S  S  S  S  S  S  S  S S S S
|---------------------------------|------------------------------------------|
|---------------------------------|------------------------------------------|
|---------------------------------|------------------------------------------|
|-5-5-5-5-5-5-5-5-7-7-7-7-7-7-7-7-|-9-9-9-9-12-12-12-12-11-11-11-11-11-9---7-|
|-5-5-5-5-5-5-5-5-7-7-7-7-7-7-7-7-|-9-9-9-9-12-12-12-12-11-11-11-11-11-9---7-|
|-5-5-5-5-5-5-5-5-7-7-7-7-7-7-7-7-|-9-9-9-9-12-12-12-12-11-11-11-11-11-9---7-|


  Gtr I
   S  S S S S S S S S S S S S S S S    S  S S S S S S S S E S S S E
|-----------------------------------|-------------------2------------|
|-----------------------------------|---------------------5p3-3p2----|
|-----------------------------------|-----------------------------2--|
|--5--5-5-5-5-5-5-5-7-7-7-7-7-7-7-7-|--4--4-4-4-4-4-4-4--------------|
|--5--5-5-5-5-5-5-5-7-7-7-7-7-7-7-7-|--4--4-4-4-4-4-4-4--------------|
|--5--5-5-5-5-5-5-5-7-7-7-7-7-7-7-7-|--4--4-4-4-4-4-4-4--------------|
|
| Gtr II
| +W                                  +H                S E S S S E
|-----------------------------------|--------------------------------|
|-----------------------------------|-------------------7-5p3-3p2----|
|-----------------------------------|-----------------------------2--|
|-(7)-------------------------------|-(7)----------------------------|
|-(7)-------------------------------|-(7)----------------------------|
|-(7)-------------------------------|-(7)----------------------------|


  S S S S S S S S S S S S S S S S   S S S S S S S S S S S S S S S S
|---------------------------------|---------------------------------|
|---------------------------------|---------------------------------|
|---------------------------------|-7-7-7-7-6-6-6-6-4-4-4-4-2-2-2-2-|
|-5-5-5-5-5-5-5-5-7-7-7-7-7-7-7-7-|-7-7-7-7-6-6-6-6-4-4-4-4-2-2-2-2-|
|-5-5-5-5-5-5-5-5-7-7-7-7-7-7-7-7-|-5-5-5-5-4-4-4-4-2-2-2-2-0-0-0-0-|
|-5-5-5-5-5-5-5-5-7-7-7-7-7-7-7-7-|---------------------------------|
|
| S S S S S S S S S S S S S S S S   S S S S S S S S S S S S S S S S
|---------------------------------|---------------------------------|
|-----------------2-2-2-2-2-2-2-2-|-3-5-3-3-2-3-2-2---2-------------|
|-4-4-4-4-4-4-4-4-----------------|-----------------4---4-4-2-4-2-2-|
|---------------------------------|---------------------------------|
|---------------------------------|---------------------------------|
|---------------------------------|---------------------------------|


  S S S S S S S S H      S S S S E E S S S S S E.   S S S S E E S S S S S E S
|----------------------|--------------------------|---------------------------|
|----------------------|--------------------------|---------------------------|
|----------------------|--------------------------|---------------------------|
|-5-5-5-5-5-5-7-4------|---------4-----------4-2--|---------------------------|
|-5-5-5-5-5-5-7-4------|-2-2-2-2-2---2-2-2-2-2-0--|---------5-----------5-4---|
|-5-5-5-5-5-5-7-4------|--------------------------|-5-5-5-5-5---5-5-5-5-5-4---|
|
| S S S S Q       H      S S S S E E S S S S S E.   S S S S E E S S S S S E S
|----------------------|--------------------------|---------------------------|
|----------------------|--------------------------|---------------------------|
|-0-0-0-2--------------|--------------------------|---------------------------|
|---------4------------|---------4-----------4-2--|---------------------------|
|----------------------|-2-2-2-2-2---2-2-2-2-2-0--|---------5-----------5-4---|
|----------------------|--------------------------|-5-5-5-5-5---5-5-5-5-5-4---|


  Gtrs I, II
  S S S S E E S S S S S E S   S S S S Q   S  S  S S  S  S  S S
|---------------------------|----------------------------------|
|---------------------------|----------------------------------|
|---------------------------|----------------------------------|
|---------------------------|----------------------------------|
|---------2-----------2-4---|---------7--------10---------10---|
|-2-2-2-2-2---2-2-2-2-2-4---|-7-7-7-7-7--10-10-10---10-10-10---|


  E S S S S S S  S  S S S S S S S   E S S S S S S S S S S S S  S S
|---------------------------------|---------------------------------|
|---------------------------------|---------------------------/5-5--|
|---------------------------------|---------------6-6S4-4S6-6-/2-2--|
|-9-------------11-11S9-9S7-7S6-6-|-5-------------4-4S2-2S4-4-------|
|-9-9-9-9-9-9-9--9--9S7-7S5-5S4-4-|-5-5-5-5-5-5-5-------------------|
|-9-9-9-9-9-9-9-------------------|-5-5-5-5-5-5-5-------------------|


  E S S S S S S S S S S  S S S S   E S S S S S S S S S S S S S S
|--------------------------------|--------------------------------|
|--------------------------------|--------------------------------|
|---------------4-4S2-2----------|--------------------------------|
|-0-------------2-2S0-0-/6-6S7-7-|-7------------------------------|
|-0-0-0-0-0-0-0---------/4-4S5-5-|-7-7-7-7-7-7-7-7-7-7-7-7-7-7-7--|
|-0-0-0-0-0-0-0------------------|-7-7-7-7-7-7-7-7-7-7-7-7-7-7-7--|


  E S S S S S S  S  S S S S S S S   E S S S S S S S S S S S S  S S
|---------------------------------|---------------------------------|
|---------------------------------|---------------------------/5-5--|
|---------------------------------|---------------6-6S4-4S6-6-/2-2--|
|-9-------------11-11S9-9S7-7S6-6-|-5-------------4-4S2-2S4-4-------|
|-9-9-9-9-9-9-9--9--9S7-7S5-5S4-4-|-5-5-5-5-5-5-5-------------------|
|-9-9-9-9-9-9-9-------------------|-5-5-5-5-5-5-5-------------------|


                                              Q=60            Q=105
  E S S S S S S S S S S S S S S   E S S S S S S S E S S E S   W
|-------------------------------|---------------------------|------|
|-------------------------------|---------------------------|------|
|---------------4-4S2-2---------|---------------------------|------|
|-0-------------2-2S0-0-6-6S7-7-|-7-------------------------|-0----|
|-0-0-0-0-0-0-0---------4-4S5-5-|-7-7-7-7-7-7-7-7-7-7-7-7-7-|-0----|
|-0-0-0-0-0-0-0-----------------|-7-7-7-7-7-7-7-7-7-7-7-7-7-|-0----|


                                           Q=100
  Gtr I
  W          W              W              W
|----------|--------------|--------------|------|
|----------|--------------|--------------|------|
|----------|-3------------|--------------|------|
|-1--------|-3------------|-3------------|-0----|
|-1--------|-1------------|-3------------|-0----|
|-1--------|--------------|-3------------|-0----|
|
| Gtr II
| W          H    +Q   Q    H    +Q   Q    W
|----------|--------------|--------------|------|
|----------|-3----(3)-----|--------------|------|
|----------|-x----(x)-----|-5----(5)-----|------|
|-1--------|-0----(0)-----|-x----(x)-----|-0----|
|-1--------|--------------|-3----(3)-----|-0----|
|-1--------|--------------|--------------|-0----|


  W          W              W              E E   E    E    E    E    E    E
|----------|--------------|--------------|-----------------------------------|
|----------|--------------|--------------|-----------------------------------|
|----------|-3------------|--------------|-----------------------------------|
|-1--------|-3------------|-3------------|-0-0-------------------------------|
|-1--------|-1------------|-3------------|-0-0---0----0----0----0----0----0--|
|-1--------|--------------|-3------------|-0-0---0----0----0----0----0----0--|
|
| W          H    +Q   Q    H    +Q   Q    E E   E    E    E    E    E    E
|----------|--------------|--------------|-----<10>-<10>-<10>-<10>-<10>-<10>-|
|----------|-3----(3)-----|--------------|-----------------------------------|
|----------|-x----(x)-----|-5----(5)-----|-----------------------------------|
|-1--------|-0----(0)-----|-x----(x)-----|-0-0-------------------------------|
|-1--------|--------------|-3----(3)-----|-0-0-------------------------------|
|-1--------|--------------|--------------|-0-0-------------------------------|


    E    E    E    E    E    E    E    E
|-----------------------------------------|
|-----------------------------------------|
|-----------------------------------------|
|-----------------------------------------|
|---0----0----0----0----0----0----0----0--|
|---0----0----0----0----0----0----0----0--|
|
|   E    E    E    E    E    E    E    E
|-<10>-<10>-<10>-<10>-<10>-<10>-<10>-<10>-|
|-----------------------------------------|
|-----------------------------------------|
|-----------------------------------------|
|-----------------------------------------|
|-----------------------------------------|


  Q=90                Q=90                Q=90
  E E E E E E +E  E   E E E E E E +E  E   E E E E E E +E  E
|-------------------|-------------------|-------------------|
|-------------------|-------------------|-------------------|
|-------------------|-------------------|-------------------|
|-0-0---0-0-0-(0)---|-0-0---0-0-0-(0)---|-0-0---0-0-0-(0)---|
|-0-0-0-0-0-0-(0)---|-0-0-0-0-0-0-(0)---|-0-0-0-0-0-0-(0)---|
|-0-0-0-0-0-0-(0)---|-0-0-0-0-0-0-(0)---|-0-0-0-0-0-0-(0)---|
|
| E E E E E E +E  E   E E E E E E +E  E   E E E E E E +E  E
|-------------------|-------------------|-------------------|
|-------------------|-------------------|-------------------|
|-------------------|-------------------|-------------------|
|-0-0---0-0-0-(0)---|-0-0---0-0-0-(0)---|-0-0---0-0-0-(0)---|
|-0-0-0-0-0-0-(0)---|-0-0-0-0-0-0-(0)---|-0-0-0-0-0-0-(0)---|
|-0-0-0-0-0-0-(0)---|-0-0-0-0-0-0-(0)---|-0-0-0-0-0-0-(0)---|


  Q=90
  E E E E E E  Q      E E S S E E S S S S S S   E E S S E E S S S S S S
|-------------------|-------------------------|--------------------------|
|--------------3----|-------------------------|--------------------------|
|--------------x----|-------------------------|--------------------------|
|-0-0---0-0-0--0----|-0-0-----0-0-------------|-0-0-----0-0--------------|
|-0-0-0-0-0-0-------|-0-0-0-0-0-0-0-0-0-0-0-0-|-0-0-0-0-0-0-0-0-0-0-0-0--|
|-0-0-0-0-0-0-------|-0-0-0-0-0-0-0-0-0-0-0-0-|-0-0-0-0-0-0-0-0-0-0-0-0--|
|
| E E E E E E +E  E   E E S S E E S S S S S S   E E S S E E S S S S S S
|-------------------|-------------------------|--------------------------|
|-------------------|-------------------------|--------------------------|
|-------------------|-------------------------|--------------------------|
|-0-0---0-0-0-(0)---|-0-0-----0-0-------------|-0-0-----0-0--------------|
|-0-0-0-0-0-0-(0)---|-0-0-0-0-0-0-0-0-0-0-0-0-|-0-0-0-0-0-0-0-0-0-0-0-0--|
|-0-0-0-0-0-0-(0)---|-0-0-0-0-0-0-0-0-0-0-0-0-|-0-0-0-0-0-0-0-0-0-0-0-0--|


  Gtrs I, II
  E E S S E E S S S S S S   E E S S E E S S S S S S   E E E E E E E E
|-------------------------|-------------------------|------------------|
|-------------------------|-------------------------|------------------|
|-------------------------|-------------------------|------------------|
|-0-0-----0-0-------------|-0-0-----0-0-------------|------------------|
|-0-0-0-0-0-0-0-0-0-0-0-0-|-0-0-0-0-0-0-0-0-0-0-0-0-|-1-0-1-0-1-0-1-0--|
|-0-0-0-0-0-0-0-0-0-0-0-0-|-0-0-0-0-0-0-0-0-0-0-0-0-|-1-0-1-0-1-0-1-0--|


                                                        Q=105
  Gtr I
  E E E E E E E E   E E E E E E E E   E E E E E E E E   S S S S S S S S +H
|-----------------|-----------------|-----------------|------------------------|
|-----------------|-----------------|-----------------|------------------------|
|-----------------|-----------------|-----------------|------------------------|
|-----------------|-1-0-1-0-1-0-1-0-|-1-0-1-0-1-0-1-0-|------------------------|
|-1-0-1-0-1-0-1-0-|-1-0-1-0-1-0-1-0-|-1-0-1-0-1-0-1-0-|-5-8-7-5-8-7-5-1-(1)----|
|-1-0-1-0-1-0-1-0-|-1-0-1-0-1-0-1-0-|-1-0-1-0-1-0-1-0-|-5-8-7-5-8-7-5-1-(1)----|
|
| Gtr II
| E E E E E E E E   E E E E E E E E   E E E E E E E E   S S S S S S S S +H
|-----------------|-----------------|-----------------|------------------------|
|-----------------|-4-3-4-3-4-3-4-3-|-4-3-4-3-4-3-4-3-|------------------------|
|-----------------|-----------------|-----------------|------------------------|
|-----------------|-----------------|-----------------|------------------------|
|-1-0-1-0-1-0-1-0-|-----------------|-----------------|-5-8-7-5-8-7-5-1-(1)----|
|-1-0-1-0-1-0-1-0-|-----------------|-----------------|-5-8-7-5-8-7-5-1-(1)----|


  Gtrs I, II
  S S S S S S S  S  +H       S S S S S S S S S S S S S S S S
|--------------------------|---------------------------------|
|--------------------------|---------------------------------|
|---------------<5>-(5)----|---------------------------------|
|--------------------------|---------------------------------|
|-5-8-7-5-8-7-5------------|-0-0-0-0-0-0-0-0-0-0-0-0-0-0-0-0-|
|-5-8-7-5-8-7-5------------|-0-0-0-0-0-0-0-0-0-0-0-0-0-0-0-0-|


  S S S S S S S S S S S S S S S S   S S S S S S S S S S S S S S S S
|---------------------------------|---------------------------------|
|---------------------------------|---------------------------------|
|---------------------------------|---------------------------------|
|---------------------------------|---------------------------------|
|-0-0-0-0-0-0-0-0-0-0-0-0-0-0-0-0-|-0-0-0-0-0-0-0-0-0-0-0-0-0-0-0-0-|
|-0-0-0-0-0-0-0-0-0-0-0-0-0-0-0-0-|-0-0-0-0-0-0-0-0-0-0-0-0-0-0-0-0-|


                                    Q=100
  S S S S S S S S S S S S S S S S   S S E S S E S S E S S E
|---------------------------------|-------------------------|
|---------------------------------|-------------------------|
|---------------------------------|-------------------------|
|---------------------------------|-------------------------|
|-0-0-0-0-0-0-0-0-0-0-0-0-0-0-0-0-|-----0-----0-----0-----0-|
|-0-0-0-0-0-0-0-0-0-0-0-0-0-0-0-0-|-1-1-0-1-1-0-1-1-0-1-1-0-|


  S S E S S E S S E S S E   S S E S S E S S E S S E   S S E S S E S S E S S E
|-------------------------|-------------------------|--------------------------|
|-------------------------|-------------------------|--------------------------|
|-------------------------|-------------------------|--------------------------|
|-------------------------|-------------------------|--------------------------|
|-----0-----0-----0-----0-|-----0-----0-----0-----0-|-----0-----0-----0-----0--|
|-1-1-0-1-1-0-1-1-0-1-1-0-|-1-1-0-1-1-0-1-1-0-1-1-0-|-1-1-0-1-1-0-1-1-0-1-1-0--|


  Q=84
  Gtr I
   S  S E +Q   +H        S  S E +Q   +H
|---------------------|---------------------|
|---------------------|---------------------|
|-------3-(3)--(3)----|-------2-(2)--(2)----|
|--0--3---------------|-----3---------------|
|---------------------|--5------------------|
|---------------------|---------------------|
|
| Gtr II
| +W                    +W
|---------------------|---------------------|
|---------------------|---------------------|
|---------------------|---------------------|
|---------------------|---------------------|
|-(0)-----------------|-(0)-----------------|
|-(0)-----------------|-(0)-----------------|


   S  S E +Q   +H        S  S E +Q   +H
|---------------------|---------------------|
|---------------------|---------------------|
|-------3-(3)--(3)----|-------2-(2)--(2)----|
|--0--3---------------|-----3---------------|
|---------------------|--5------------------|
|---------------------|---------------------|
|
| +W                    +W
|---------------------|---------------------|
|---------------------|---------------------|
|---------------------|---------------------|
|---------------------|---------------------|
|-(0)-----------------|-(0)-----------------|
|-(0)-----------------|-(0)-----------------|


   S  S E +Q   +H           S S E +Q   +H
|-------------------------|-------------------|
|-------------------------|-------------------|
|-------3-(3)--(3)--------|-----2-(2)--(2)----|
|--0--3-------------------|---3---------------|
|-------------------------|-5-----------------|
|-------------------------|-------------------|
|
| +H           +S  S E Q    W
|-------------------------|-------------------|
|-------------------------|-------------------|
|-------------------------|-------------------|
|-------------------------|-------------------|
|-(0)----------(0)--------|-------------------|
|-(0)----------(0)--------|-------------------|


  S S E +Q   +H       S S E +Q   +H
|-------------------|-------------------|
|-------------------|-------------------|
|-----3-(3)--(3)----|-----2-(2)--(2)----|
|-0-3---------------|---3---------------|
|-------------------|-5-----------------|
|-------------------|-------------------|
|
| W                   W
|-------------------|-------------------|
|-------------------|-------------------|
|-------------------|-------------------|
|-------------------|-------------------|
|-------------------|-------------------|
|-------------------|-------------------|


  Q=100
  Gtrs I, II
  E E E E E E S E.   E E E E S S S S S S S S   E E E E E E S E.
|------------------|-------------------------|------------------|
|------------------|-------------------------|------------------|
|-3-3-3-3-3-3-3----|-------------------------|-3-3-3-3-3-3-3-5--|
|-3-3-3-3-3-3-3-3--|-0-0-0-0-------5-7-5-----|-3-3-3-3-3-3-3-5--|
|-1-1-1-1-1-1-1-3--|-0-0-0-0-5-3-5-------5-3-|-1-1-1-1-1-1-1-3--|
|---------------3--|-0-0-0-0-----------------|------------------|


  E E E E S S S S S S S S   E E E E E E S E.   E E E E S S S S S S S S
|-------------------------|------------------|--------------------------|
|-------------------------|------------------|--------------------------|
|-------------------------|-3-3-3-3-3-3-3----|--------------------------|
|-0-0-0-0-0-----5-7-5-----|-3-3-3-3-3-3-3-3--|-0-0-0-0-------5-7-5------|
|-0-0-0-0---3-5-------5-3-|-1-1-1-1-1-1-1-3--|-0-0-0-0-5-3-5-------5-3--|
|-0-0-0-0-----------------|---------------3--|-0-0-0-0------------------|


  Gtr I
  E E E E E E S E.   E E E E S S S S S S S S   E E E E E E S E.
|------------------|-------------------------|------------------|
|------------------|-------------------------|------------------|
|-3-3-3-3-3-3-3-5--|-------------------------|-3-3-3-3-3-3-3----|
|-3-3-3-3-3-3-3-5--|-0-0-0-0-0-----5-7-5-----|-3-3-3-3-3-3-3-3--|
|-1-1-1-1-1-1-1-3--|-0-0-0-0---3-5-------5-3-|-1-1-1-1-1-1-1-3--|
|------------------|-0-0-0-0-----------------|---------------3--|
|
| Gtr II
| E E E E E E S E.   E E E E S S S S S S S S   E E E E E E S E.
|------------------|-------------------------|-6-6-6-6-6-6-6-6--|
|------------------|-------------------------|-x-x-x-x-x-x-x-x--|
|-3-3-3-3-3-3-3-5--|-------------------------|-3-3-3-3-3-3-3-3--|
|-3-3-3-3-3-3-3-5--|-0-0-0---0-----5-7-5-----|------------------|
|-1-1-1-1-1-1-1-3--|-0-0-0-5---3-5-------5-3-|------------------|
|------------------|-0-0-0-0-----------------|------------------|


  E E E E S S S S S S S S   E E E E E E S E.   E E E E S S S S S S S S
|-------------------------|------------------|--------------------------|
|-------------------------|------------------|--------------------------|
|-------------------------|-3-3-3-3-3-3-3-5--|--------------------------|
|-0-0-0-0-------5-7-5-----|-3-3-3-3-3-3-3-5--|-0-0-0-0-0-----5-7-5------|
|-0-0-0-0-5-3-5-------5-3-|-1-1-1-1-1-1-1-3--|-0-0-0-0---3-5-------5-3--|
|-0-0-0-0-----------------|------------------|-0-0-0-0------------------|
|
| E E E E E   E   E   E     E E E E E E S E.   E E E E E   E   E   E
|-5-5-5-5-5---5---5---5---|-6-6-6-6-6-6-6-6--|--------------------------|
|-x-x-x-x-x---x---x---x---|-x-x-x-x-x-x-x-x--|-3-3-3-3-3---3---3---3----|
|-2-2-2-2-2---2---2---2---|-3-3-3-3-3-3-3-3--|-x-x-x-x-x---x---x---x----|
|-------------------------|------------------|-0-0-0-0-0---0---0---0----|
|-------------------------|------------------|--------------------------|
|-------------------------|------------------|--------------------------|


  E      E     E     E     E     E     S  E.
|------------------------------------------------|
|------------------------------------------------|
|-3------3-----3-----3-----3-----3-----3---------|
|-3------3-----3-----3-----3-----3-----3--3------|
|-1------1-----1-----1-----1-----1-----1--3------|
|-----------------------------------------3------|
|
| S +S  +S  S +S  S +S  S +S  S +S  S +S  E  +S
|-6-(6)-(6)-6-(6)-6-(6)-6-(6)-6-(6)-6-(6)-6--(6)-|
|-x-(x)-(x)-x-(x)-x-(x)-x-(x)-x-(x)-x-(x)-x--(x)-|
|-3-(3)-(3)-3-(3)-3-(3)-3-(3)-3-(3)-3-(3)-3--(3)-|
|------------------------------------------------|
|------------------------------------------------|
|------------------------------------------------|


  E     E     E     E     S  S  S  S  S  S  S  S
|-------------------------------------------------|
|-------------------------------------------------|
|-------------------------------------------------|
|-0-----0-----0-----0--------------5--7--5--------|
|-0-----0-----0-----0-----5--3--5-----------5--3--|
|-0-----0-----0-----0-----------------------------|
|
| S +S  S +S  S +S  S +S  S +S  S +S  S +S  S +S
|-5-(5)-5-(5)-5-(5)-5-(5)-5-(5)-5-(5)-5-(5)-5-(5)-|
|-x-(x)-x-----x-----x-----x-----x-----x-----x-----|
|-2-(2)-2-(2)-2-(2)-2-(2)-2-(2)-2-(2)-2-(2)-2-(2)-|
|-------------------------------------------------|
|-------------------------------------------------|
|-------------------------------------------------|


  E     E     E     E     E     E     S  E.
|------------------------------------------------|
|------------------------------------------------|
|-3-----3-----3-----3-----3-----3-----3--5-------|
|-3-----3-----3-----3-----3-----3-----3--5-------|
|-1-----1-----1-----1-----1-----1-----1--3-------|
|------------------------------------------------|
|
| S +S  S +S  S +S  S +S  S +S  S +S  S  E   +S
|-6-(6)-6-(6)-6-(6)-6-(6)-6-(6)-6-(6)-6----------|
|-x-----x-----x-----x-----x-----x-----x----------|
|-3-(3)-3-(3)-3-(3)-3-(3)-3-(3)-3-(3)-3-10--(10)-|
|----------------------------------------x-------|
|----------------------------------------8---(8)-|
|------------------------------------------------|


  W          +W
|----------|-------------------------*|
|----------|-------------------------*|
|----------|-------------------------*|
|-0--------|-(0)---------------------*|
|-5--------|-(5)---------------------*|
|-0--------|-(0)---------------------*|
|
| W          +Q   +S  +S  +E  +H
|----------|-------------------------*|
|----------|-------------------------*|
|-7--------|-(7)--(7)-(7)-(7)-(7)----*|
|-x--------|-(x)--(x)-(x)-(x)-(x)----*|
|-5--------|-(5)--(5)-(5)-(5)-(5)----*|
|----------|-------------------------*|

                BREAKING THEIR HOLD
                   As recorded by Avenged Sevenfold
                     (From the 2002 Album SOUNDING THE SEVENTH TRUMPET)



Gtr I (D A D G B E) - 'Synyster Gates'
Gtr II (Eb Ab Db Gb Bb Eb) - 'Zacky Vengeance'
Note: Zacky's Guitar Is supposed to be dropped D with really thrashed strings so it sounds like 
 Eb Ab Db Gb Bb Eb

  Q=194
 4/4
  Gtr I
  W          +W           W          S S E Q  H
|----------|------------|----------|---------------|
|----------|------------|----------|---------------|
|----------|------------|----------|---------------|
|----------|------------|----------|-0-------------|
|-4--------|-(4)--------|-4--------|-0-------------|
|-4--------|-(4)--------|-4--------|-0-------------|


  E E +E  E E E +E  E   E E +E  E E E +E  E
|-3-3-(3)-3-5-5-(5)-5-|-6-6-(6)-6-6-6-(6)-6-|
|---------------------|---------------------|
|-0-0-(0)-0-2-2-(2)-2-|-3-3-(3)-3-3-3-(3)-3-|
|---------------------|---------------------|
|---------------------|---------------------|
|---------------------|---------------------|
|
| Gtr II
| E E +E  E E E +E  E   E E +E  E E E +E  E
|---------------------|---------------------|
|---------------------|---------------------|
|-8-8-(8)-8-----------|---------------------|
|-8-8-(8)-8-4-4-(4)-4-|-2-2-(2)-2-2-2-(2)-2-|
|-6-6-(6)-6-4-4-(4)-4-|-2-2-(2)-2-2-2-(2)-2-|
|-----------2-2-(2)-2-|-0-0-(0)-0-0-0-(0)-0-|


  E E +E  E E E +E  E   E E +E  E E E +E  E
|---------------------|---------------------|
|-7-7-(7)-7-7-7-(7)-7-|-7-7-(7)-7-7-7-(7)-7-|
|---------------------|---------------------|
|-4-4-(4)-4-4-4-(4)-4-|-4-4-(4)-4-4-4-(4)-4-|
|---------------------|---------------------|
|---------------------|---------------------|
|
| E E +E  E E E +E  E   E E +E  E E E +E  E
|---------------------|---------------------|
|---------------------|---------------------|
|---------------------|---------------------|
|---------------------|---------------------|
|-5-5-(5)-5-5-5-(5)-5-|-5-5-(5)-5-5-5-(5)-5-|
|-3-3-(3)-3-3-3-(3)-3-|-3-3-(3)-3-3-3-(3)-3-|


  E E +E  E E E +E  E   E E +E  E E E +E  E
|-3-3-(3)-3-5-5-(5)-5-|-6-6-(6)-6-6-6-(6)-6-|
|---------------------|---------------------|
|-0-0-(0)-0-2-2-(2)-2-|-3-3-(3)-3-3-3-(3)-3-|
|---------------------|---------------------|
|---------------------|---------------------|
|---------------------|---------------------|
|
| E E +E  E E E +E  E   E E +E  E E E +E  E
|---------------------|---------------------|
|-4-4-(4)-4-----------|---------------------|
|-3-3-(3)-3-----------|---------------------|
|-1-1-(1)-1-4-4-(4)-4-|-2-2-(2)-2-2-2-(2)-2-|
|-----------4-4-(4)-4-|-2-2-(2)-2-2-2-(2)-2-|
|-----------2-2-(2)-2-|-0-0-(0)-0-0-0-(0)-0-|


  E E +E  E E E +E  E   E E +E  E E E +E  E
|---------------------|---------------------|
|-7-7-(7)-7-7-7-(7)-7-|-7-7-(7)-7-7-7-(7)-7-|
|---------------------|---------------------|
|-4-4-(4)-4-4-4-(4)-4-|-4-4-(4)-4-4-4-(4)-4-|
|---------------------|---------------------|
|---------------------|---------------------|
|
| E E +E  E E E +E  E   E E +E  E E E +E  E
|---------------------|---------------------|
|---------------------|---------------------|
|---------------------|---------------------|
|---------------------|---------------------|
|-5-5-(5)-5-5-5-(5)-5-|-5-5-(5)-5-5-5-(5)-5-|
|-3-3-(3)-3-3-3-(3)-3-|-3-3-(3)-3-3-3-(3)-3-|


  E E +E  E E E +E  E   E E +E  E E E +E  E
|-3-3-(3)-3-5-5-(5)-5-|-6-6-(6)-6-6-6-(6)-6-|
|---------------------|---------------------|
|-0-0-(0)-0-2-2-(2)-2-|-3-3-(3)-3-3-3-(3)-3-|
|---------------------|---------------------|
|---------------------|---------------------|
|---------------------|---------------------|
|
| E E +E  E E E +E  E   E E +E  E E E +E  E
|---------------------|---------------------|
|-4-4-(4)-4-----------|---------------------|
|-3-3-(3)-3-----------|---------------------|
|-1-1-(1)-1-4-4-(4)-4-|-2-2-(2)-2-2-2-(2)-2-|
|-----------4-4-(4)-4-|-2-2-(2)-2-2-2-(2)-2-|
|-----------2-2-(2)-2-|-0-0-(0)-0-0-0-(0)-0-|


  E E +E  E E E +E  E   E E +E  E E E +E  E
|---------------------|---------------------|
|-7-7-(7)-7-7-7-(7)-7-|-7-7-(7)-7-7-7-(7)-7-|
|---------------------|---------------------|
|-4-4-(4)-4-4-4-(4)-4-|-4-4-(4)-4-4-4-(4)-4-|
|---------------------|---------------------|
|---------------------|---------------------|
|
| E E +E  E E E +E  E   E E +E  E E E +E  E
|---------------------|---------------------|
|---------------------|---------------------|
|---------------------|---------------------|
|---------------------|---------------------|
|-5-5-(5)-5-5-5-(5)-5-|-5-5-(5)-5-5-5-(5)-5-|
|-3-3-(3)-3-3-3-(3)-3-|-3-3-(3)-3-3-3-(3)-3-|


  E E +E  E E E +E  E   E E +E  E E E +E  E
|-3-3-(3)-3-5-5-(5)-5-|-6-6-(6)-6-6-6-(6)-6-|
|---------------------|---------------------|
|-0-0-(0)-0-2-2-(2)-2-|-3-3-(3)-3-3-3-(3)-3-|
|---------------------|---------------------|
|---------------------|---------------------|
|---------------------|---------------------|
|
| E E +E  E E E +E  E   E E +E  E E E +E  E
|---------------------|---------------------|
|-4-4-(4)-4-----------|---------------------|
|-3-3-(3)-3-----------|---------------------|
|-1-1-(1)-1-4-4-(4)-4-|-2-2-(2)-2-2-2-(2)-2-|
|-----------4-4-(4)-4-|-2-2-(2)-2-2-2-(2)-2-|
|-----------2-2-(2)-2-|-0-0-(0)-0-0-0-(0)-0-|


  E E +E  E E E +E  E   E E +E  E E E +E  E
|---------------------|---------------------|
|-7-7-(7)-7-7-7-(7)-7-|-7-7-(7)-7-7-7-(7)-7-|
|---------------------|---------------------|
|-4-4-(4)-4-4-4-(4)-4-|-4-4-(4)-4-4-4-(4)-4-|
|---------------------|---------------------|
|---------------------|---------------------|
|
| E E +E  E E E +E  E   E E +E  E E E +E  E
|---------------------|---------------------|
|---------------------|---------------------|
|---------------------|---------------------|
|---------------------|---------------------|
|-5-5-(5)-5-5-5-(5)-5-|-5-5-(5)-5-5-5-(5)-5-|
|-3-3-(3)-3-3-3-(3)-3-|-3-3-(3)-3-3-3-(3)-3-|


  E E E E E E E E   E E E E E E E E   E E E E E E E E   Q  Q  Q  Q
|-----------------|-----------------|-----------------|-------------|
|-----------------|-----------------|-----------------|-------------|
|-----------------|-----------------|-----------------|-------------|
|-----------------|-------------2-1-|-----------------|-------------|
|---3-2---2-1---1-|---3-2---2-1-----|---3-2---2-1---1-|-------3--2--|
|-3-----3-----3---|-3-----3---------|-3-----3-----3---|-3--2--------|
|
| E E Q   H         E E Q   H         E E Q   H         Q  Q  Q  Q
|-----------------|-----------------|-----------------|-------------|
|-----------------|-----------------|-----------------|-------------|
|-----------------|-----------------|-----------------|-------------|
|-----------------|-----------------|-----------------|-------------|
|-4---------------|-4---------------|-4---------------|-------4--3--|
|-2---------------|-2---------------|-2---------------|-2--1--------|


  E E E E E E E E   E E E E E E E E   E E E E E E E E   Q  Q  Q  Q
|-----------------|-----------------|-----------------|-------------|
|-----------------|-----------------|-----------------|-------------|
|-----------------|-----------------|-----------------|-------------|
|-----------------|-------------2-1-|-----------------|-------------|
|---3-2---2-1---1-|---3-2---2-1-----|---3-2---2-1---1-|-------3--2--|
|-3-----3-----3---|-3-----3---------|-3-----3-----3---|-3--2--------|
|
| E E Q   H         E E Q   H         E E Q   H         Q  Q  Q  Q
|-----------------|-----------------|-----------------|-------------|
|-----------------|-----------------|-----------------|-------------|
|-----------------|-----------------|-----------------|-------------|
|-----------------|-----------------|-----------------|-------------|
|-4---------------|-4---------------|-4---------------|-------4--3--|
|-2---------------|-2---------------|-2---------------|-2--1--------|


  Q  Q  Q  Q    +W           E E Q  H      E E E E E E E E
|-------------|------------|-------------|-----------------|
|-------------|------------|-------------|-----------------|
|-------3--2--|-(2)--------|-2-----------|-----------------|
|-3--2--------|------------|-------------|-----------------|
|-------------|------------|-------------|---3-2---2-1---1-|
|-------------|------------|-------------|-3-----3-----3---|
|
| Q  Q  Q  Q    +W           E E Q  H      E E E E E E E E
|-------------|------------|-------------|-----------------|
|-------------|------------|-------------|-----------------|
|-------4--3--|-(3)--------|-3-----------|-----------------|
|-4--3--------|------------|-------------|-----------------|
|-------------|------------|-------------|---4-3---3-2---2-|
|-------------|------------|-------------|-2-----2-----2---|


  E E E E E E E E   E E E E E E E E   Q  Q  Q  Q    E E E E E E E E
|-----------------|-----------------|-------------|-----------------|
|-----------------|-----------------|-------------|-----------------|
|-----------------|-----------------|-------------|-----------------|
|-------------2-1-|-----------------|-------------|-----------------|
|---3-2---2-1-----|---3-2---2-1---1-|-------3--2--|---3-2---2-1---1-|
|-3-----3---------|-3-----3-----3---|-3--2--------|-3-----3-----3---|
|
| E E E E E E E E   E E E E E E E E   Q  Q  Q  Q    E E E E E E E E
|-----------------|-----------------|-------------|-----------------|
|-----------------|-----------------|-------------|-----------------|
|-----------------|-----------------|-------------|-----------------|
|-------------3-2-|-----------------|-------------|-----------------|
|---4-3---3-2-----|---4-3---3-2---2-|-------4--3--|---4-3---3-2---2-|
|-2-----2---------|-2-----2-----2---|-2--1--------|-2-----2-----2---|


  E E E E E E E E   E E E E E E E E   Q  Q  Q  Q    E E E E E E E E
|-----------------|-----------------|-------------|-----------------|
|-----------------|-----------------|-------------|-----------------|
|-----------------|-----------------|-------------|-----------------|
|-------------2-1-|-----------------|-------------|-----------------|
|---3-2---2-1-----|---3-2---2-1---1-|-------3--2--|---3-2---2-1---1-|
|-3-----3---------|-3-----3-----3---|-3--2--------|-3-----3-----3---|
|
| E E E E E E E E   E E E E E E E E   Q  Q  Q  Q    E E E E E E E E
|-----------------|-----------------|-------------|-----------------|
|-----------------|-----------------|-------------|-----------------|
|-----------------|-----------------|-------------|-----------------|
|-------------3-2-|-----------------|-------------|-----------------|
|---4-3---3-2-----|---4-3---3-2---2-|-------4--3--|---4-3---3-2---2-|
|-2-----2---------|-2-----2-----2---|-2--1--------|-2-----2-----2---|


  E E E E E E E E   E E E E E E E E   Q  Q  Q  Q    E E E E E E E E
|-----------------|-----------------|-------------|-----------------|
|-----------------|-----------------|-------------|-----------------|
|-----------------|-----------------|-------------|-----------------|
|-------------2-1-|-----------------|-------------|-----------------|
|---3-2---2-1-----|---3-2---2-1---1-|-------3--2--|---3-2---2-1---1-|
|-3-----3---------|-3-----3-----3---|-3--2--------|-3-----3-----3---|
|
| E E E E E E E E   E E E E E E E E   Q  Q  Q  Q    E E E E E E E E
|-----------------|-----------------|-------------|-----------------|
|-----------------|-----------------|-------------|-----------------|
|-----------------|-----------------|-------------|-----------------|
|-------------3-2-|-----------------|-------------|-----------------|
|---4-3---3-2-----|---4-3---3-2---2-|-------4--3--|---4-3---3-2---2-|
|-2-----2---------|-2-----2-----2---|-2--1--------|-2-----2-----2---|


  E E E E E E E E   E E E E E E E E   Q  Q  Q  Q    Q  Q  Q  Q
|-----------------|-----------------|-------------|-------------|
|-----------------|-----------------|-------------|-------------|
|-----------------|-----------------|-------------|-------3--2--|
|-------------2-1-|-----------------|-------------|-3--2--------|
|---3-2---2-1-----|---3-2---2-1---1-|-------3--2--|-------------|
|-3-----3---------|-3-----3-----3---|-3--2--------|-------------|
|
| E E E E E E E E   E E E E E E E E   Q  Q  Q  Q    Q  Q  Q  Q
|-----------------|-----------------|-------------|-------------|
|-----------------|-----------------|-------------|-------------|
|-----------------|-----------------|-------------|-------4--3--|
|-------------3-2-|-----------------|-------------|-4--3--------|
|---4-3---3-2-----|---4-3---3-2---2-|-------4--3--|-------------|
|-2-----2---------|-2-----2-----2---|-2--1--------|-------------|


  Q  Q  Q  Q    Q  Q  Q  Q    Q  Q  Q  Q    Q  Q  Q  Q
|-------------|-------------|-------------|-------------|
|-------------|-------------|-------------|-------------|
|-------------|-------3--2--|-------------|-------3--2--|
|-------------|-3--2--------|-------------|-3--2--------|
|-------3--2--|-------------|-------3--2--|-------------|
|-3--2--------|-------------|-3--2--------|-------------|
|
| Q  Q  Q  Q    Q  Q  Q  Q    Q  Q  Q  Q    Q  Q  Q  Q
|-------------|-------------|-------------|-------------|
|-------------|-------------|-------------|-------------|
|-------------|-------4--3--|-------------|-------4--3--|
|-------------|-4--3--------|-------------|-4--3--------|
|-------4--3--|-------------|-------4--3--|-------------|
|-2--1--------|-------------|-2--1--------|-------------|


  Q  Q  Q  Q    Q  Q  Q  Q
|-------------|-------------*|
|-------------|-------------*|
|-------------|-------3--2--*|
|-------------|-3--2--------*|
|-------3--2--|-------------*|
|-3--2--------|-------------*|
|
| Q  Q  Q  Q    Q  Q  Q  Q
|-------------|-------------*|
|-------------|-------------*|
|-------------|-------4--3--*|
|-------------|-4--3--------*|
|-------4--3--|-------------*|
|-2--1--------|-------------*|

FORGOTTEN FACES
As recorded by Avenged Sevenfold
(From the 2002 Album SOUNDING THE SEVENTH TRUMPET)



Gtr I (D A D G B E) - 'Zacky Vengeance'
Gtr II (D A D G B E) - 'Synyster Gates'
  Q=200
 4/4
  Gtrs I, II
  W          W          E E E E H      E E E E H
|----------|----------|--------------|--------------|
|----------|----------|---------3----|---------3----|
|----------|----------|---------2----|--------------|
|----------|----------|---------0----|---------0----|
|----------|----------|--------------|--------------|
|----------|----------|-0-0-0-0------|-0-0-0-0------|


  E E E E H      E E E E H      E E E E H      E E E E H
|--------------|--------------|--------------|--------------|
|--------------|---------4----|---------3----|---------3----|
|---------5----|--------------|---------2----|--------------|
|---------5----|---------1----|---------0----|---------0----|
|---------3----|--------------|--------------|--------------|
|-0-0-0-0------|-0-0-0-0------|-0-0-0-0------|-0-0-0-0------|


  E E E E H      E E E E H      E E E E H      E E E E H
|--------------|--------------|--------------|--------------|
|--------------|---------4----|---------3----|---------3----|
|---------5----|--------------|---------2----|--------------|
|---------5----|---------1----|---------0----|---------0----|
|---------3----|--------------|--------------|--------------|
|-0-0-0-0------|-0-0-0-0------|-0-0-0-0------|-0-0-0-0------|


  E E E E H      E E E E H      E E E E H      E E E E H
|--------------|--------------|--------------|--------------|
|--------------|---------4----|---------3----|---------3----|
|---------5----|--------------|---------2----|--------------|
|---------5----|---------1----|---------0----|---------0----|
|---------3----|--------------|--------------|--------------|
|-0-0-0-0------|-0-0-0-0------|-0-0-0-0------|-0-0-0-0------|


  E E E E H      E E E E H      W          W
|--------------|--------------|----------|------|
|--------------|---------4----|----------|------|
|---------5----|--------------|----------|------|
|---------5----|---------1----|----------|------|
|---------3----|--------------|----------|------|
|-0-0-0-0------|-0-0-0-0------|----------|------|


  Q=194
  E E E E H      E E E E H      E E E E H      E E E E H
|--------------|--------------|--------------|--------------|
|--------------|---------4----|---------3----|---------3----|
|---------5----|--------------|---------2----|--------------|
|---------5----|---------1----|---------0----|---------0----|
|---------3----|--------------|--------------|--------------|
|-0-0-0-0------|-0-0-0-0------|-0-0-0-0------|-0-0-0-0------|


  E E E E H      E E E E H      E E E E H      E E E E H
|--------------|--------------|--------------|--------------|
|--------------|---------4----|---------3----|---------3----|
|---------5----|--------------|---------2----|--------------|
|---------5----|---------1----|---------0----|---------0----|
|---------3----|--------------|--------------|--------------|
|-0-0-0-0------|-0-0-0-0------|-0-0-0-0------|-0-0-0-0------|


  E E E E H      E E E E H      E E E E H      E E E E H
|--------------|--------------|--------------|--------------|
|--------------|---------4----|---------3----|---------3----|
|---------5----|--------------|---------2----|--------------|
|---------5----|---------1----|---------0----|---------0----|
|---------3----|--------------|--------------|--------------|
|-0-0-0-0------|-0-0-0-0------|-0-0-0-0------|-0-0-0-0------|


                                Q=197
  E E E E H      E E E E H      Q  Q  H      E E +E  E +E  E Q
|--------------|--------------|------------|--------------------|
|--------------|---------4----|-3--3-------|-3-3-(3)-3-(3)-3-3--|
|---------5----|--------------|-2--2-------|-2-2-(2)-2-(2)-2-2--|
|---------5----|---------1----|-0--0-------|-0-0-(0)-0-(0)-0-0--|
|---------3----|--------------|------------|--------------------|
|-0-0-0-0------|-0-0-0-0------|------------|--------------------|


  Q  Q  E E Q    Q  E E +E  E Q    Q  Q  H      E E +E  E +E  E Q
|--------------|-----------------|------------|--------------------|
|--------------|-4--4-6-(6)-4-4--|-3--3-------|-3-3-(3)-3-(3)-3-3--|
|-5--5--5-5-5--|-3--3------------|-2--2-------|-2-2-(2)-2-(2)-2-2--|
|-5--5--5-5-5--|-1--1-3-(3)-1-1--|-0--0-------|-0-0-(0)-0-(0)-0-0--|
|-3--3--3-3-3--|-----------------|------------|--------------------|
|--------------|-----------------|------------|--------------------|


  Q  Q  E E Q    Q  E E +E  E Q    Q  Q  H      E E +E  E +E  E Q
|--------------|-----------------|------------|--------------------|
|--------------|-4--4-6-(6)-4-4--|-3--3-------|-3-3-(3)-3-(3)-3-3--|
|-5--5--5-5-5--|-3--3------------|-2--2-------|-2-2-(2)-2-(2)-2-2--|
|-5--5--5-5-5--|-1--1-3-(3)-1-1--|-0--0-------|-0-0-(0)-0-(0)-0-0--|
|-3--3--3-3-3--|-----------------|------------|--------------------|
|--------------|-----------------|------------|--------------------|


  Q  Q  E E Q    Q  E E +E  E Q    Q  Q  H      E E +E  E +E  E Q
|--------------|-----------------|------------|--------------------|
|--------------|-4--4-6-(6)-4-4--|-3--3-------|-3-3-(3)-3-(3)-3-3--|
|-5--5--5-5-5--|-3--3------------|-2--2-------|-2-2-(2)-2-(2)-2-2--|
|-5--5--5-5-5--|-1--1-3-(3)-1-1--|-0--0-------|-0-0-(0)-0-(0)-0-0--|
|-3--3--3-3-3--|-----------------|------------|--------------------|
|--------------|-----------------|------------|--------------------|


  Q  Q  E E Q    Q  E E +E  E Q    H    Q.   E   W
|--------------|-----------------|-------------|------|
|--------------|-4--4-6-(6)-4-4--|-------------|------|
|-5--5--5-5-5--|-3--3------------|-2-----------|------|
|-5--5--5-5-5--|-1--1-3-(3)-1-1--|-0----0------|------|
|-3--3--3-3-3--|-----------------|------0------|------|
|--------------|-----------------|------0------|------|


  H.      Q    +H     H      H    Q.   E   W
|------------|-------------|-------------|------|
|------------|-------------|-------------|------|
|------------|-------------|-------------|------|
|------------|-------------|-7----0------|------|
|-1-------3--|-(3)----5----|-5----0------|------|
|-1-------3--|-(3)----5----|------0------|------|


  H.      Q    +H     H      Q  Q  H      E E +E  E +E  E Q
|------------|-------------|------------|--------------------|
|------------|-------------|------------|--------------------|
|------------|-------------|-7--7-------|-7-7-(7)-7-(7)-7-7--|
|------------|-------------|-7--7-------|-7-7-(7)-7-(7)-7-7--|
|-1-------3--|-(3)----5----|-5--5-------|-5-5-(5)-5-(5)-5-5--|
|-1-------3--|-(3)----5----|------------|--------------------|


  Q  Q  E E Q    Q  E E +E  E Q    Q  Q  H      E E +E  E +E  E Q
|--------------|-----------------|------------|--------------------|
|--------------|-4--4-6-(6)-4-4--|-3--3-------|-3-3-(3)-3-(3)-3-3--|
|-5--5--5-5-5--|-3--3------------|-2--2-------|-2-2-(2)-2-(2)-2-2--|
|-5--5--5-5-5--|-1--1-3-(3)-1-1--|-0--0-------|-0-0-(0)-0-(0)-0-0--|
|-3--3--3-3-3--|-----------------|------------|--------------------|
|--------------|-----------------|------------|--------------------|


  Q  Q  E E Q    Q  E E +E  E Q    Q  Q  H      E E +E  E +E  E Q
|--------------|-----------------|------------|--------------------|
|--------------|-4--4-6-(6)-4-4--|-3--3-------|-3-3-(3)-3-(3)-3-3--|
|-5--5--5-5-5--|-3--3------------|-2--2-------|-2-2-(2)-2-(2)-2-2--|
|-5--5--5-5-5--|-1--1-3-(3)-1-1--|-0--0-------|-0-0-(0)-0-(0)-0-0--|
|-3--3--3-3-3--|-----------------|------------|--------------------|
|--------------|-----------------|------------|--------------------|


  Q  Q  E E Q    Q  E E +E  E Q    Q  Q  H      E E +E  E +E  E Q
|--------------|-----------------|------------|--------------------|
|--------------|-4--4-6-(6)-4-4--|-3--3-------|-3-3-(3)-3-(3)-3-3--|
|-5--5--5-5-5--|-3--3------------|-2--2-------|-2-2-(2)-2-(2)-2-2--|
|-5--5--5-5-5--|-1--1-3-(3)-1-1--|-0--0-------|-0-0-(0)-0-(0)-0-0--|
|-3--3--3-3-3--|-----------------|------------|--------------------|
|--------------|-----------------|------------|--------------------|


  Q  Q  E E Q    Q  E E +E  E Q    Q.   E +Q   Q    Q.   E +Q   Q
|--------------|-----------------|----------------|----------------|
|--------------|-4--4-6-(6)-4-4--|-3----5-(5)--6--|------6-(6)--5--|
|-5--5--5-5-5--|-3--3------------|----------------|-5--------------|
|-5--5--5-5-5--|-1--1-3-(3)-1-1--|-0----2-(2)--3--|------3-(3)--2--|
|-3--3--3-3-3--|-----------------|----------------|-3--------------|
|--------------|-----------------|----------------|----------------|


  Q  Q  Q  Q    E E E E E E Q    Q.   E +Q    Q     Q.    E  +Q   Q
|-------------|----------------|-----------------|-------------------|
|-------------|----------------|-----------------|-------------------|
|-------------|----------------|-7----9-(9)--10--|-------10-(10)--9--|
|-------------|---2-0----------|-0---------------|-10----------------|
|-5--5--5--5--|-4-----4-5-4----|------7-(7)---8--|--------8--(8)--7--|
|-5--5--5--5--|-------------7--|-----------------|-10----------------|


  Q  Q  Q  Q    Q  Q  Q  Q    Q.   E +Q    Q     Q.    E  +Q   Q
|-------------|-------------|-----------------|-------------------|
|-------------|-------------|-----------------|-------------------|
|-------------|-------------|-7----9-(9)--10--|-------10-(10)--9--|
|-------------|-------------|-0---------------|-10----------------|
|-5--5--5--5--|-7--3--5--7--|------7-(7)---8--|--------8--(8)--7--|
|-5--5--5--5--|-7--3--5--7--|-----------------|-10----------------|


  Q  Q  Q  Q    E E E E E E Q    Q.   E +Q    Q     Q.    E  +Q   Q
|-------------|----------------|-----------------|-------------------|
|-------------|----------------|-----------------|-------------------|
|-------------|----------------|-7----9-(9)--10--|-------10-(10)--9--|
|-------------|---2-0----------|-0---------------|-10----------------|
|-5--5--5--5--|-4-----4-5-4----|------7-(7)---8--|--------8--(8)--7--|
|-5--5--5--5--|-------------7--|-----------------|-10----------------|


  Q  Q  Q  Q    E E E E E E Q    E E E E H      E E E E H
|-------------|----------------|--------------|--------------|
|-------------|----------------|--------------|--------------|
|-------------|----------------|--------------|--------------|
|-------------|---2-0----------|--------------|--------------|
|-5--5--5--5--|-4-----4-5-4----|---------0----|---------5----|
|-5--5--5--5--|-------------7--|-0-0-0-0-0----|-5-5-5-5-5----|


  E E E E H      E E Q  E E Q    E E E E H      E E E E H
|--------------|---------------|--------------|--------------|
|--------------|---------------|--------------|--------------|
|--------------|---------------|--------------|--------------|
|--------------|-----3---------|--------------|--------------|
|---------3----|-1-1-1------3--|---------0----|---------5----|
|-3-3-3-3-3----|--------3-3-3--|-0-0-0-0-0----|-5-5-5-5-5----|


  E E E E H      E E Q  E E Q    E E E E H      E E E E H
|--------------|---------------|--------------|--------------|
|--------------|---------------|--------------|--------------|
|--------------|---------------|--------------|--------------|
|--------------|-----3---------|--------------|--------------|
|---------3----|-1-1-1------3--|---------0----|---------5----|
|-3-3-3-3-3----|--------3-3-3--|-0-0-0-0-0----|-5-5-5-5-5----|


  E E E E H      E E Q  E E Q    E E E E H      E E E E H
|--------------|---------------|--------------|--------------|
|--------------|---------------|--------------|--------------|
|--------------|---------------|--------------|--------------|
|--------------|-----3---------|--------------|--------------|
|---------3----|-1-1-1------3--|---------0----|---------5----|
|-3-3-3-3-3----|--------3-3-3--|-0-0-0-0-0----|-5-5-5-5-5----|


                                 Q=168
  E E E E H      E E Q  E E Q    W          +W
|--------------|---------------|----------|--------|
|--------------|---------------|----------|--------|
|--------------|---------------|----------|--------|
|--------------|-----3---------|----------|--------|
|---------3----|-1-1-1------3--|-0--------|-(0)----|
|-3-3-3-3-3----|--------3-3-3--|-0--------|-(0)----|


  +W           +W           +W           +W
|------------|------------|------------|--------|
|------------|------------|------------|--------|
|------------|------------|------------|--------|
|------------|------------|------------|--------|
|-(0)--------|-(0)--------|-(0)--------|-(0)----|
|-(0)--------|-(0)--------|-(0)--------|-(0)----|


  Gtr I
  W          W          W          W
|----------|----------|----------|------|
|----------|----------|----------|------|
|----------|----------|----------|------|
|----------|----------|----------|------|
|----------|----------|----------|------|
|----------|----------|----------|------|


  W          W          W          W
|----------|----------|----------|------|
|----------|----------|----------|------|
|----------|----------|----------|------|
|----------|----------|----------|------|
|----------|----------|----------|------|
|----------|----------|----------|------|


                        Q=178
  Gtrs I, II
  W          W          H    Q  E E   +E  E Q  E E Q
|----------|----------|-------------|-----------------|
|----------|----------|-------------|-----------------|
|----------|----------|-------------|-----------------|
|----------|----------|-------------|-----------------|
|----------|----------|-0-------0-0-|-(0)-0-0--0-0-0--|
|----------|----------|-0-------0-0-|-(0)-0-0--0-0-0--|


                                  Q=180
  H    Q  E E   +E  E Q  E E Q    H    Q  E E   +E  E Q  E E Q
|-------------|-----------------|-------------|-----------------|
|-------------|-----------------|-------------|-----------------|
|-------------|-----------------|-------------|-----------------|
|-------------|-----------------|-------------|-----------------|
|-3-------3-3-|-(3)-3-3--3-3-3--|-0-------0-0-|-(0)-0-0--0-0-0--|
|-3-------3-3-|-(3)-3-3--3-3-3--|-0-------0-0-|-(0)-0-0--0-0-0--|


                                  Q=182
  H    Q  E E   +E  E Q  E E Q    H    Q  E E   +E  E Q  E E Q
|-------------|-----------------|-------------|-----------------|
|-------------|-----------------|-------------|-----------------|
|-------------|-----------------|-------------|-----------------|
|-------------|-----------------|-------------|-----------------|
|-3-------3-3-|-(3)-3-3--3-3-3--|-0-------0-0-|-(0)-0-0--0-0-0--|
|-3-------3-3-|-(3)-3-3--3-3-3--|-0-------0-0-|-(0)-0-0--0-0-0--|


  Q=184
  H    Q  E E   +E  E Q  E E Q    H    Q  E E   +E  E Q  E E Q
|-------------|-----------------|-------------|-----------------|
|-------------|-----------------|-------------|-----------------|
|-------------|-----------------|-------------|-----------------|
|-------------|-----------------|-------------|-----------------|
|-3-------3-3-|-(3)-3-3--3-3-3--|-0-------0-0-|-(0)-0-0--0-0-0--|
|-3-------3-3-|-(3)-3-3--3-3-3--|-0-------0-0-|-(0)-0-0--0-0-0--|


                                     Q=176
  Q  E E E E E E   E E E E E E E E   E E E E E E E E   E E E E E E E E
|----------------|-----------------|-----------------|-----------------|
|----------------|-----------------|-----------------|-----------------|
|----------------|-----------------|-3-3-3-3-3-3-3-3-|-3-3-3-3-3-3-3-3-|
|----------------|-----------------|-3-3-3-3-3-3-3-3-|-3-3-3-3-3-3-3-3-|
|-3--3-3-3-3-3-3-|-3-3-3-3-3-3-3-3-|-1-1-1-1-1-1-1-1-|-1-1-1-1-1-1-1-1-|
|-3--3-3-3-3-3-3-|-3-3-3-3-3-3-3-3-|-----------------|-----------------|


  E E E E E E E E   E E E E E E E E   E E +Q   E S S +Q     +W
|-----------------|-----------------|---------------------|--------|
|-----------------|-----------------|---------------------|--------|
|-----------------|-5-5-5-5-5-5-5-5-|-3-3-(3)------3-(3)--|-(3)----|
|-----------------|-5-5-5-5-5-5-5-5-|-3-3-(3)------3-(3)--|-(3)----|
|-0-0-0-0-0-0-0-0-|-3-3-3-3-3-3-3-3-|-1-1-(1)------1-(1)--|-(1)----|
|-0-0-0-0-0-0-0-0-|-----------------|---------------------|--------|


  Gtr I
  Q  Q  Q  Q    Q  Q  Q  Q    Q  Q  S S E Q    +W
|-------------|----------3--|-------------6--|-(6)----|
|-3--3--3--6--|-5--5--5-----|-6--6-----------|--------|
|-------------|----------0--|-------0--------|--------|
|-0--0--0--3--|-2--2--2-----|-3--3--0--------|--------|
|-------------|-------------|-------0--------|--------|
|-------------|-------------|----------------|--------|
|
| Gtr II
| Q  Q  Q  Q    Q  Q  Q  Q    Q  Q  S S E Q    +W
|-------------|-------------|-------------6--|-(6)----|
|-------------|-------------|----------------|--------|
|-------------|-5--5--5--5--|-3--3--0--------|--------|
|-------------|-5--5--5--5--|-3--3--0--------|--------|
|-0--0--0--0--|-3--3--3--3--|-1--1--0--------|--------|
|-0--0--0--0--|-------------|----------------|--------|


  Q=225
  Gtrs I, II
  H    Q.   E   W          H    Q.   E   W
|-------------|----------|-------------|------|
|-------------|----------|-------------|------|
|-------------|----------|-------------|------|
|-7----0------|----------|-7----0------|------|
|-5----0------|----------|-5----0------|------|
|------0------|----------|------0------|------|


                           Q=229
  H    Q.   E   W          H    Q.   E   E E E E E E Q
|-------------|----------|-------------|----------------|
|-------------|----------|-------------|----------------|
|-------------|----------|-------------|----------------|
|-7----0------|----------|-7----0------|-------------3--|
|-5----0------|----------|-5----0------|-------------1--|
|------0------|----------|------0------|-5-3-2-0-2-3----|


  H    Q.   E   E E E E E E Q    H    Q.   E   E E E E E E Q
|-------------|----------------|-------------|----------------|
|-------------|----------------|-------------|----------------|
|-2-----------|----------------|-2-----------|----------------|
|-0----0------|-------------3--|-0----0------|-------------3--|
|------0------|-------------1--|------0------|-------------1--|
|------0------|-5-3-2-0-2-3----|------0------|-5-3-2-0-2-3----|


  H    Q.   E   E E E E E E Q    H    Q.   E   E E E E E E Q
|-------------|----------------|-------------|----------------|
|-------------|----------------|-------------|----------------|
|-2-----------|----------------|-2-----------|----------------|
|-0----0------|-------------3--|-0----0------|-------------3--|
|------0------|-------------1--|------0------|-------------1--|
|------0------|-5-3-2-0-2-3----|------0------|-5-3-2-0-2-3----|


  H    Q.   E
|----------------*|
|----------------*|
|-2--------------*|
|-0----0---------*|
|------0---------*|
|------0---------*|


THICK AND THIN
As recorded by Avenged Sevenfold
(From the 2002 Album SOUNDING THE SEVENTH TRUMPET)
Transcribed By:
Untitled
Edited By:
Seth Shadows

e|-Intro---------------------Bridge------------------------------------------| 
B|-----------------------------1x--------------------------------------------| 
G|-2x------------------------------------------------------------------------| 
D|---------------------------------------------------------------------------| 
A|----------0------0-0---------------1-0--3-5--------------------------------| 
D|----------0------0-0---------------1-0--3-5--------------------------------| 
. 
e|-Riff A--------------------------------------------------------------------| 
B|-1x---------------555------------------------------------------------------| 
G|------------------555-------------------555--------------------------------| 
D|----------000-333-333-8-7-3-2---000-333-555-8-7-5-3-5-3-2-0----------------| 
A|----------000-333-----8-7-3-2---000-333-333-8-7-5-3-5-3-2-0----------------| 
D|----------000-333-----8-7-3-2---000-333-----8-7-5-3-5-3-2-0----------------| 
. . . . . . . 
e|-Riff B--------------------------------------------------------------------| 
B|-6x------------------------------------------------------------------------| 
G|---------------------------------------------------------------------------| 
D|--------------------------------- -----------------------------10-8-7-8-7--| 
A|-------1-0--1-0-------1-0--1-0-------1-0--1-0------1-0--1-0--------------8-| 
D|-------1-0--1-0--000--1-0--1-0--000--1-0--1-0-000--1-0--1-0-00-------------| 
... ... ... .. 
e|-Riff C--------------------------------------------------------------------| 
B|-4x------------------------------------------------------------------------| 
G|---------------5---7---5---------------------------------------------------| 
D|--------00-----5-x-7-x-5-33-----3---5---3---2------------------------------| 
A|--------00---0 3-x-5-x-3-33-----3-x-5-x-3-x-2------------------------------| 
D|--------00-000-----------33-333-3-x-5-x-3-x-2------------------------------| 
... ... 
e|---------------------------------------------------------------------------| 
B|-Riff D--------------------------------------------------------------------| 
G|--2x-----------------------------------------------------------------------| 
D|---------0-3-2-0-3-0-6-7---5-8-7-5-3-2-3-0---------------------------------| 
A|---------0-3-2-0-3-0-6-7---5-8-7-5-3-2-3-0---------------------------------| 
D|---------0-3-2-0-3-0-6-7---5-8-7-5-3-2-3-0---------------------------------| 

e|---------------------------------------------------------------------------| 
B|-Riff C 4x---Riff D 2x-----------------------------------------------------| 
G|---------------------------------------------------------------------------| 
D|---------------------------------------------------------------------------| 
A|---------------------------------------------------------------------------| 
D|---------------------------------------------------------------------------| 

e|-Riff E--------------------------------------------------------------------| 
B|-2x------------------------------------------------------------------------| 
G|---------------------------------------------------------------------------| 
D|---------------------------------------------------------------------------| 
A|----------8p7-8p7-8p7-8p7---1p0-3-5—-1p0-3-5-------------------------------| 
D|----------8p7-8p7-8p7-8p7---1p0-3-5--1p0-3-5-------------------------------| 

e|-bridge-1------------Riff F------------------------------------------------| 
B|------------------------4x-------------------------------------------------| 
G|---------------------------------------------------------------------------| 
D|--------3-023-5-6------------0-0--------------0-0--------------------------| 
A|--------3-023-5-6------------000-x-0-0-0-3-5--000-x-0-0-0-6-5-3------------| 
D|--------3-023-5-6------------000-x-0-0-0-3-5--000-x-0-0-0-6-5-3------------| 
... 


e|---------------------------------------------------------------------------| 
B|--bridge1-1x-->--Riff-F-4x-->-Bridge1-1x-----------------------------------| 
G|---------------------------------------------------------------------------| 
D|---------------------------------------------------------------------------| 
A|---------------------------------------------------------------------------| 
D|---------------------------------------------------------------------------| 

e|--Bridge2------------------------------------------------------------------| 
B|---------------------------------------------------------------------------| 
G|-----------7------7------7~----------7------7------7-----------------------| 
D|-----------7-0000-7-0000-7~-1-0-3-5--7-0000-7-0000-7-----------------------| 
A|----------------------------1-0-3-5------------------7-5-3-5-3-2-0---------| 
D|----------------------------1-0-3-5------------------7-5-3-5-3-2-0---------| 
. . . . . . . 
e|---------------------------------------------------------------------------| 
B|---Riff-A-2x-->--Riff-B-4x-------------------------------------------------| 
G|---------------------------------------------------------------------------| 
D|---------------------------------------------------------------------------| 
A|---------------------------------------------------------------------------| 
D|---------------------------------------------------------------------------|








STREETS
As Recorded By Avenged Sevenfold
(from the 2002 album SOUNDING THE SEVENTH TRUMPET)



Gtr I (D A D G B E) - 'Zacky Vengeance'
Gtr II (D A D G B E) - 'Synyster Gates'
  Q=128
 4/4
  Gtr I
  W          W          W          W
|----------|----------|----------|------|
|----------|----------|----------|------|
|----------|----------|----------|------|
|----------|----------|----------|------|
|----------|----------|----------|------|
|----------|----------|----------|------|


  W          +W           +W
|----------|------------|--------|
|----------|------------|--------|
|-2--------|-(2)--------|-(2)----|
|-2--------|-(2)--------|-(2)----|
|-0--------|-(0)--------|-(0)----|
|----------|------------|--------|


  S S S S S S S S S S S S S S S S   S S S S E S S S S S S E S S
|---------------------------------|------------------------------|
|---------------------------------|------------------------------|
|---------------------------------|---------2-------------2------|
|-0-0-0-0-0-0-0-0-0-0-0-0-0-0-0-0-|---------2-------------2------|
|-0-0-0-0-0-0-0-0-0-0-0-0-0-0-0-0-|-0---0---0-0-0-0---0---0-0-0--|
|-0-0-0-0-0-0-0-0-0-0-0-0-0-0-0-0-|------------------------------|


  S S S S E S S S S S S E S S   S S S S E S S S S S S E S S
|-----------------------------|-----------------------------|
|---------6-------------6-----|-----------------------------|
|---------5-------------5-----|---------5-------------5-----|
|-3---3---3-3-3-3---3---3-3-3-|---------5-------------5-----|
|-----------------------------|-3---3---3-3-3-3---3---3-3-3-|
|-----------------------------|-----------------------------|


  S S S S E S S S S S S E S S   S S S S E S S S S S S E S S
|-----------------------------|-----------------------------|
|---------5-------------5-----|-----------------------------|
|---------4-------------4-----|---------2-------------2-----|
|-2---2---2-2-2-2---2---2-2-2-|---------2-------------2-----|
|-----------------------------|-0---0---0-0-0-0---0---0-0-0-|
|-----------------------------|-----------------------------|


  S S S S E S S S S S S E S S   S S S S E S S S S S S E S S
|-----------------------------|-----------------------------|
|---------6-------------6-----|-----------------------------|
|---------5-------------5-----|---------5-------------5-----|
|-3---3---3-3-3-3---3---3-3-3-|---------5-------------5-----|
|-----------------------------|-3---3---3-3-3-3---3---3-3-3-|
|-----------------------------|-----------------------------|


                                Q=106
  S S S S E S S S S S S E S S   W          +W
|-----------------------------|----------|--------|
|---------5-------------5-----|----------|--------|
|---------4-------------4-----|-2--------|-(2)----|
|-2---2---2-2-2-2---2---2-2-2-|-2--------|-(2)----|
|-----------------------------|-0--------|-(0)----|
|-----------------------------|----------|--------|


  S E S S E S S E S S E S   S E S S E S S E S S E S   S E S S E S S E S S E S
|-------------------------|-------------------------|--------------------------|
|-------------6-6-6-6-6-6-|-------------5-5-5-5-5-5-|-------------6-6-6-6-6-6--|
|-2-2-2-2-2-2-5-5-5-5-5-5-|-5-5-5-5-5-5-4-4-4-4-4-4-|-2-2-2-2-2-2-5-5-5-5-5-5--|
|-2-2-2-2-2-2-3-3-3-3-3-3-|-5-5-5-5-5-5-2-2-2-2-2-2-|-2-2-2-2-2-2-3-3-3-3-3-3--|
|-0-0-0-0-0-0-------------|-3-3-3-3-3-3-------------|-0-0-0-0-0-0--------------|
|-------------------------|-------------------------|--------------------------|


  S E S S E S S E S S E S   S E S S E S S E S S E S   S E S S E S S E S S E S
|-------------------------|-------------------------|--------------------------|
|-------------5-5-5-5-5-5-|-------------6-6-6-6-6-6-|-------------5-5-5-5-5-5--|
|-5-5-5-5-5-5-4-4-4-4-4-4-|-2-2-2-2-2-2-5-5-5-5-5-5-|-5-5-5-5-5-5-4-4-4-4-4-4--|
|-5-5-5-5-5-5-2-2-2-2-2-2-|-2-2-2-2-2-2-3-3-3-3-3-3-|-5-5-5-5-5-5-2-2-2-2-2-2--|
|-3-3-3-3-3-3-------------|-0-0-0-0-0-0-------------|-3-3-3-3-3-3--------------|
|-------------------------|-------------------------|--------------------------|


  S E S S E S S E S S E S   S E S S E S S E S S E S   S E S S E S S E S S E S
|-------------------------|-------------------------|--------------------------|
|-------------6-6-6-6-6-6-|-------------5-5-5-5-5-5-|-6-6-6-6-6-6--------------|
|-2-2-2-2-2-2-5-5-5-5-5-5-|-5-5-5-5-5-5-4-4-4-4-4-4-|-5-5-5-5-5-5-5-5-5-5-5-5--|
|-2-2-2-2-2-2-3-3-3-3-3-3-|-5-5-5-5-5-5-2-2-2-2-2-2-|-3-3-3-3-3-3-5-5-5-5-5-5--|
|-0-0-0-0-0-0-------------|-3-3-3-3-3-3-------------|-------------3-3-3-3-3-3--|
|-------------------------|-------------------------|--------------------------|


  S E S S E S S E S S E S   S E S S E S S E S S E S   S S S S S S S S E E Q
|-------------------------|-------------------------|-------------------------|
|-3-3-3-3-3-3-------------|-6-6-6-6-6-6-------------|-5-5-5-5-5-5-5-5-5-------|
|-2-2-2-2-2-2-2-2-2-2-2-2-|-5-5-5-5-5-5-5-5-5-5-5-5-|-4-4-4-4-4-4-4-4-4-------|
|-0-0-0-0-0-0-2-2-2-2-2-2-|-3-3-3-3-3-3-5-5-5-5-5-5-|-2-2-2-2-2-2-2-2-2-------|
|-------------0-0-0-0-0-0-|-------------3-3-3-3-3-3-|-------------------------|
|-------------------------|-------------------------|-------------------------|


  S E S S E S S E S S E S   S E S S E S S E S S E S   S E S S E S S E S S E S
|-------------------------|-------------------------|--------------------------|
|-6-6-6-6-6-6-------------|-3-3-3-3-3-3-------------|-6-6-6-6-6-6--------------|
|-5-5-5-5-5-5-5-5-5-5-5-5-|-2-2-2-2-2-2-2-2-2-2-2-2-|-5-5-5-5-5-5-5-5-5-5-5-5--|
|-3-3-3-3-3-3-5-5-5-5-5-5-|-0-0-0-0-0-0-2-2-2-2-2-2-|-3-3-3-3-3-3-5-5-5-5-5-5--|
|-------------3-3-3-3-3-3-|-------------0-0-0-0-0-0-|-------------3-3-3-3-3-3--|
|-------------------------|-------------------------|--------------------------|


                           Q=103
  S S S S S S S S E E Q    E S S S S S S S S S S S E.
|------------------------|----------------------------|
|-5-5-5-5-5-5-5-5-5------|----------------------------|
|-4-4-4-4-4-4-4-4-4------|-2-2-2-2-2-2-2-2-2-2-2-4-5--|
|-2-2-2-2-2-2-2-2-2------|-2-2-2-2-2-2-2-2-2-2-2-2-5--|
|------------------------|-0-0-0-0-0-0-0-0-0-0-0-0-3--|
|------------------------|----------------------------|
|
| Gtr II
| W                        E S S S S S S S S S S S E.
|------------------------|-5-5-5-5-5-5-5-5-5-5-5-7-8--|
|------------------------|-5-5-5-5-5-5-5-5-5-5-5------|
|------------------------|----------------------------|
|------------------------|----------------------------|
|------------------------|----------------------------|
|------------------------|----------------------------|


   E  S  S  S  S  E  E  S  S  S  S  S  S
|----------------------------------------|
|----------------------------------------|
|----------------------------------------|
|--3--3--3--3--3--3--5--5--5--5--5--5--5-|
|--3--3--3--3--3--3--5--5--5--5--5--5--5-|
|--3--3--3--3--3--3--5--5--5--5--5--5--5-|
|
|  E  S  S  S  S  E  E  S  S  S  S  S  S
|----------------------------------------|
|----------------------------------------|
|-10-10-10-10-10-10-12-12-12-12-12-12-12-|
|-10-10-10-10-10-10-12-12-12-12-12-12-12-|
|----------------------------------------|
|----------------------------------------|


  Q=103
   E  S  S  S  S  S  S  S  S  S  S  S  E.
|------------------------------------------|
|------------------------------------------|
|------------------------------------------|
|--7--7--7--7--7--7--7--7--7--7--7--9-10---|
|--7--7--7--7--7--7--7--7--7--7--7--7-10---|
|--7--7--7--7--7--7--7--7--7--7--7--7-10---|
|
|  E  S  S  S  S  S  S  S  S  S  S  S  E.
|------------------------------------------|
|----------------------------------12-13---|
|-14-14-14-14-14-14-14-14-14-14-14---------|
|-14-14-14-14-14-14-14-14-14-14-14---------|
|------------------------------------------|
|------------------------------------------|


   E  S  S  S  S  E  E  S  S  S  S  S  S   E S S S S S S S S S S S  E.
|----------------------------------------|------------------------------|
|----------------------------------------|------------------------------|
|----------------------------------------|------------------------------|
|--3--3--3--3--3--3--5--5--5--5--5--5--5-|-7-7-7-7-7-7-7-7-7-7-7-9-10---|
|--3--3--3--3--3--3--5--5--5--5--5--5--5-|-7-7-7-7-7-7-7-7-7-7-7-7-10---|
|--3--3--3--3--3--3--5--5--5--5--5--5--5-|-7-7-7-7-7-7-7-7-7-7-7-7-10---|
|
|  E  S  S  S  S  E  E  S  S  S  S  S  S   W
|----------------------------------------|------------------------------|
|----------------------------------------|------------------------------|
|----------------------------------------|------------------------------|
|-15-15-15-15-15-15-17-17-17-17-17-17-17-|------------------------------|
|-15-15-15-15-15-15-17-17-17-17-17-17-17-|------------------------------|
|----------------------------------------|------------------------------|


  E S S S S E E S S S S S S    E  S  S  S  S  S  S  S  S  S  S  S  E.
|---------------------------|------------------------------------------|
|---------------------------|------------------------------------------|
|---------------------------|------------------------------------------|
|-3-3-3-3-3-3-5-5-5-5-5-5-5-|--7--7--7--7--7--7--7--7--7--7--7--9-10---|
|-3-3-3-3-3-3-5-5-5-5-5-5-5-|--7--7--7--7--7--7--7--7--7--7--7--7-10---|
|-3-3-3-3-3-3-5-5-5-5-5-5-5-|--7--7--7--7--7--7--7--7--7--7--7--7-10---|
|
| W                            E  S  S  S  S  S  S  S  S  S  S  S  E.
|---------------------------|------------------------------------------|
|---------------------------|------------------------------------------|
|---------------------------|------------------------------------------|
|---------------------------|-19-19-19-19-19-19-19-19-19-19-19-21-22---|
|---------------------------|-19-19-19-19-19-19-19-19-19-19-19---------|
|---------------------------|------------------------------------------|


  Q=106
   E  S  S  S  S  E  E  S  S  S  S  S  S
|----------------------------------------|
|----------------------------------------|
|----------------------------------------|
|--3--3--3--3--3--3--5--5--5--5--5--5--5-|
|--3--3--3--3--3--3--5--5--5--5--5--5--5-|
|--3--3--3--3--3--3--5--5--5--5--5--5--5-|
|
|  E  S  S  S  S  E  E  S  S  S  S  S  S
|----------------------------------------|
|----------------------------------------|
|----------------------------------------|
|----------------------------------------|
|-20-20-20-20-20-20-22-22-22-22-22-22-22-|
|-24-24-24-24-24-24-24-24-24-24-24-24-24-|


  E E S S S S +E  E S S S S   E E S S S S +E  E S S S S
|---------------------------|---------------------------|
|---------------------------|---------------------------|
|---------------------------|-5-5-5-5-5-----------------|
|-7-7-7-7-7-3-(3)-3-3-3-3-3-|-5-5-5-5-5-5-(5)-5-5-5-5-5-|
|-7-7-7-7-7-3-(3)-3-3-3-3-3-|-3-3-3-3-3-5-(5)-5-5-5-5-5-|
|-7-7-7-7-7-3-(3)-3-3-3-3-3-|-----------5-(5)-5-5-5-5-5-|
|
| W                           W
|---------------------------|---------------------------|
|---------------------------|---------------------------|
|---------------------------|---------------------------|
|---------------------------|---------------------------|
|---------------------------|---------------------------|
|---------------------------|---------------------------|


  S S S S S S S S S S S S S S S S   S S S S S S S S S S S S S S S S
|---------------------------------|---------------------------------|
|---------------------------------|---------------------------------|
|---------------------------------|-5-5-5-5-5-5-5-5-----------------|
|-7-7-7-7-7-7-7-7-3-3-3-3-3-3-3-3-|-5-5-5-5-5-5-5-5-5-5-5-5-5-5-5-5-|
|-7-7-7-7-7-7-7-7-3-3-3-3-3-3-3-3-|-3-3-3-3-3-3-3-3-5-5-5-5-5-5-5-5-|
|-7-7-7-7-7-7-7-7-3-3-3-3-3-3-3-3-|-----------------5-5-5-5-5-5-5-5-|


  S E S S E S  S  E  S  S  E  S    S  E  S  S  E  S S S S S S S S S
|-------------------------------|------------------------------------|
|-------------------------------|------------------------------------|
|-------------10-10-10-10-10-10-|-------------------9-9-9-9-9-9-9-9--|
|-7-7-7-7-7-7-10-10-10-10-10-10-|-10-10-10-10-10-10-9-9-9-9-9-9-9-9--|
|-7-7-7-7-7-7--8--8--8--8--8--8-|-10-10-10-10-10-10-7-7-7-7-7-7-7-7--|
|-7-7-7-7-7-7-------------------|-10-10-10-10-10-10------------------|


  S E S S E S  S  E  S  S  E  S    S  E  S  S  E  S S S S S S S S S
|-------------------------------|------------------------------------|
|-------------------------------|------------------------------------|
|-------------10-10-10-10-10-10-|-------------------9-9-9-9-9-9-9-9--|
|-7-7-7-7-7-7-10-10-10-10-10-10-|-10-10-10-10-10-10-9-9-9-9-9-9-9-9--|
|-7-7-7-7-7-7--8--8--8--8--8--8-|-10-10-10-10-10-10-7-7-7-7-7-7-7-7--|
|-7-7-7-7-7-7-------------------|-10-10-10-10-10-10------------------|


  S E S S E S  S  E  S  S  E  S    S  E  S  S  E  S S S S S S S S S
|-------------------------------|------------------------------------|
|-------------------------------|------------------------------------|
|-------------10-10-10-10-10-10-|-------------------9-9-9-9-9-9-9-9--|
|-7-7-7-7-7-7-10-10-10-10-10-10-|-10-10-10-10-10-10-9-9-9-9-9-9-9-9--|
|-7-7-7-7-7-7--8--8--8--8--8--8-|-10-10-10-10-10-10-7-7-7-7-7-7-7-7--|
|-7-7-7-7-7-7-------------------|-10-10-10-10-10-10------------------|


  S E S S E S  S  E  S  S  E  S    S  E  S  S  E  S S S S S S S S S
|-------------------------------|------------------------------------|
|-------------------------------|------------------------------------|
|-------------10-10-10-10-10-10-|-------------------9-9-9-9-9-9-9-9--|
|-7-7-7-7-7-7-10-10-10-10-10-10-|-10-10-10-10-10-10-9-9-9-9-9-9-9-9--|
|-7-7-7-7-7-7--8--8--8--8--8--8-|-10-10-10-10-10-10-7-7-7-7-7-7-7-7--|
|-7-7-7-7-7-7-------------------|-10-10-10-10-10-10------------------|


   S  E  S  S  E  S  S  E  S  S  E  S
|-------------------------------------|
|-------------------------------------|
|-10-10-10-10-10-10-------------------|
|-10-10-10-10-10-10-10-10-10-10-10-10-|
|--8--8--8--8--8--8-10-10-10-10-10-10-|
|-------------------10-10-10-10-10-10-|


   S  E  S  S  E  S S E S S E S   S E S S E S S E S S E S
|-------------------------------|--------------------------|
|-------------------------------|-6-6-6-6-6-6--------------|
|-------------------2-2-2-2-2-2-|-5-5-5-5-5-5-5-5-5-5-5-5--|
|-12-12-12-12-12-12-2-2-2-2-2-2-|-3-3-3-3-3-3-5-5-5-5-5-5--|
|-12-12-12-12-12-12-0-0-0-0-0-0-|-------------3-3-3-3-3-3--|
|-12-12-12-12-12-12-------------|--------------------------|


  S S S S S S S S E E Q    S E S S E S S E S S E S   S E S S E S S E S S E S
|------------------------|-------------------------|--------------------------|
|-5-5-5-5-5-5-5-5-5------|-6-6-6-6-6-6-------------|-3-3-3-3-3-3--------------|
|-4-4-4-4-4-4-4-4-4------|-5-5-5-5-5-5-5-5-5-5-5-5-|-2-2-2-2-2-2-2-2-2-2-2-2--|
|-2-2-2-2-2-2-2-2-2------|-3-3-3-3-3-3-5-5-5-5-5-5-|-0-0-0-0-0-0-2-2-2-2-2-2--|
|------------------------|-------------3-3-3-3-3-3-|-------------0-0-0-0-0-0--|
|------------------------|-------------------------|--------------------------|


  S E S S E S S E S S E S   S S S S S S S S E E Q
|-------------------------|------------------------|
|-6-6-6-6-6-6-------------|-5-5-5-5-5-5-5-5-5------|
|-5-5-5-5-5-5-5-5-5-5-5-5-|-4-4-4-4-4-4-4-4-4------|
|-3-3-3-3-3-3-5-5-5-5-5-5-|-2-2-2-2-2-2-2-2-2------|
|-------------3-3-3-3-3-3-|------------------------|
|-------------------------|------------------------|
|
| Gtr II
| W                         W
|-------------------------|------------------------|
|-------------------------|------------------------|
|-------------------------|------------------------|
|-------------------------|------------------------|
|-------------------------|------------------------|
|-------------------------|------------------------|


  Q=99
   W
|--------------------------------------------------------------------------|
|--------------------------------------------------------------------------|
|--2-----------------------------------------------------------------------|
|--2-----------------------------------------------------------------------|
|--0-----------------------------------------------------------------------|
|--------------------------------------------------------------------------|
|
|  E     S     S     S     S     S     S     S     S     S     S     S  E.
|--------------------------------------------------------------------------|
|--------------------------------------------------------------------------|
|--------------------------------------------------------------------------|
|-------------------------------------------------------------------21-22--|
|-24----24----24----24----24----24----24----24----24----24----24-----------|
|-24b26-24b26-24b26-24b26-24b26-24b26-24b26-24b26-24b26-24b26-24b26--------|


   W
|----------------------------------------|
|----------------------------------------|
|--2-------------------------------------|
|--2-------------------------------------|
|--0-------------------------------------|
|----------------------------------------|
|
|  E  S  S  S  S  E  E  S  S  S  S  S  S
|----------------------------------------|
|----------------------------------------|
|----------------------------------------|
|----------------------------------------|
|-20-20-20-20-20-20-22-22-22-22-22-22-22-|
|-20-20-20-20-20-20-22-22-22-22-22-22-22-|


   W
|------------------------------------------|
|------------------------------------------|
|--2---------------------------------------|
|--2---------------------------------------|
|--0---------------------------------------|
|------------------------------------------|
|
|  E  S  S  S  S  S  S  S  S  S  S  S  E.
|------------------------------------------|
|------------------------------------------|
|------------------------------------------|
|----------------------------------21-22---|
|-24-24-24-24-24-24-24-24-24-24-24---------|
|-24-24-24-24-24-24-24-24-24-24-24---------|


   W
|----------------------------------------|
|----------------------------------------|
|--2-------------------------------------|
|--2-------------------------------------|
|--0-------------------------------------|
|----------------------------------------|
|
|  E  S  S  S  S  E  E  S  S  S  S  S  S
|----------------------------------------|
|----------------------------------------|
|----------------------------------------|
|----------------------------------------|
|-20-20-20-20-20-20-22-22-22-22-22-22-22-|
|-20-20-20-20-20-20-22-22-22-22-22-22-22-|


   E  S  S  S  S  S  S  S  S  S  S  S  E.
|------------------------------------------|
|------------------------------------------|
|--2--2--2--2--2--2--2--2--2--2--2--4--5---|
|--2--2--2--2--2--2--2--2--2--2--2--2--5---|
|--0--0--0--0--0--0--0--0--0--0--0--0--3---|
|------------------------------------------|
|
|  E  S  S  S  S  S  S  S  S  S  S  S  E.
|------------------------------------------|
|------------------------------------------|
|------------------------------------------|
|----------------------------------21-22---|
|-24-24-24-24-24-24-24-24-24-24-24---------|
|-24-24-24-24-24-24-24-24-24-24-24---------|


   E  S  S  S  S  E  E  S  S  S  S  S  S
|----------------------------------------|
|----------------------------------------|
|----------------------------------------|
|--3--3--3--3--3--3--5--5--5--5--5--5--5-|
|--3--3--3--3--3--3--5--5--5--5--5--5--5-|
|--3--3--3--3--3--3--5--5--5--5--5--5--5-|
|
|  E  S  S  S  S  E  E  S  S  S  S  S  S
|----------------------------------------|
|----------------------------------------|
|----------------------------------------|
|----------------------------------------|
|-20-20-20-20-20-20-22-22-22-22-22-22-22-|
|-20-20-20-20-20-20-22-22-22-22-22-22-22-|


   E  S  S  S  S  S  S  S  S  S  S  S  E.
|------------------------------------------|
|------------------------------------------|
|------------------------------------------|
|--7--7--7--7--7--7--7--7--7--7--7--9-10---|
|--7--7--7--7--7--7--7--7--7--7--7--7-10---|
|--7--7--7--7--7--7--7--7--7--7--7--7-10---|
|
|  E  S  S  S  S  S  S  S  S  S  S  S  E.
|------------------------------------------|
|------------------------------------------|
|------------------------------------------|
|----------------------------------21-22---|
|-24-24-24-24-24-24-24-24-24-24-24---------|
|-24-24-24-24-24-24-24-24-24-24-24---------|


                                           Q=102
   E  S  S  S  S  E  E  S  S  S  S  S  S    E    S S S S S S S S S S S  E.
|----------------------------------------|----------------------------------|
|----------------------------------------|----------------------------------|
|----------------------------------------|----------------------------------|
|--3--3--3--3--3--3--5--5--5--5--5--5--5-|--7----7-7-7-7-7-7-7-7-7-7-9-10---|
|--3--3--3--3--3--3--5--5--5--5--5--5--5-|--7----7-7-7-7-7-7-7-7-7-7-7-10---|
|--3--3--3--3--3--3--5--5--5--5--5--5--5-|--7----7-7-7-7-7-7-7-7-7-7-7-10---|
|
|  E  S  S  S  S  E  E  S  S  S  S  S  S    W
|----------------------------------------|----------------------------------|
|----------------------------------------|----------------------------------|
|----------------------------------------|----------------------------------|
|----------------------------------------|----------------------------------|
|-20-20-20-20-20-20-22-22-22-22-22-22-22-|-24-------------------------------|
|-22-22-22-22-22-22-22-22-22-24-24-24-24-|-24b26----------------------------|


    E  S S S S E E S S S S S S   E S S S S S S S S S S S  E.
|------------------------------|------------------------------|
|------------------------------|------------------------------|
|------------------------------|------------------------------|
|---3--3-3-3-3-3-5-5-5-5-5-5-5-|-7-7-7-7-7-7-7-7-7-7-7-9-10---|
|---3--3-3-3-3-3-5-5-5-5-5-5-5-|-7-7-7-7-7-7-7-7-7-7-7-7-10---|
|---3--3-3-3-3-3-5-5-5-5-5-5-5-|-7-7-7-7-7-7-7-7-7-7-7-7-10---|
|
|  +W                            W
|------------------------------|------------------------------|
|------------------------------|------------------------------|
|------------------------------|------------------------------|
|------------------------------|------------------------------|
|-(24)-------------------------|------------------------------|
|-(24)-------------------------|------------------------------|


  E S S S S E E S S S S S S   E S S S S S S S S S S S  E.
|---------------------------|------------------------------|
|---------------------------|------------------------------|
|---------------------------|------------------------------|
|-3-3-3-3-3-3-5-5-5-5-5-5-5-|-7-7-7-7-7-7-7-7-7-7-7-9-10---|
|-3-3-3-3-3-3-5-5-5-5-5-5-5-|-7-7-7-7-7-7-7-7-7-7-7-7-10---|
|-3-3-3-3-3-3-5-5-5-5-5-5-5-|-7-7-7-7-7-7-7-7-7-7-7-7-10---|


  E S S S S E E S S S S S S   E S S S S S S S S S S S  E.
|---------------------------|------------------------------|
|---------------------------|------------------------------|
|---------------------------|------------------------------|
|-3-3-3-3-3-3-5-5-5-5-5-5-5-|-7-7-7-7-7-7-7-7-7-7-7-9-10---|
|-3-3-3-3-3-3-5-5-5-5-5-5-5-|-7-7-7-7-7-7-7-7-7-7-7-7-10---|
|-3-3-3-3-3-3-5-5-5-5-5-5-5-|-7-7-7-7-7-7-7-7-7-7-7-7-10---|


  E S S S S E E S S S S S S   W          +W           +W
|---------------------------|----------|------------|--------*|
|---------------------------|----------|------------|--------*|
|---------------------------|----------|------------|--------*|
|-3-3-3-3-3-3-5-5-5-5-5-5-5-|-7--------|-(7)--------|-(7)----*|
|-3-3-3-3-3-3-5-5-5-5-5-5-5-|-7--------|-(7)--------|-(7)----*|
|-3-3-3-3-3-3-5-5-5-5-5-5-5-|-7--------|-(7)--------|-(7)----*|


SHATTERED BY BROKEN DREAMS
As recorded by Avenged Sevenfold
(From the 2002 Album SOUNDING THE SEVENTH TRUMPET)
Transcribed By MOONEY
Way To Go Man



Gtr I (E A D G B E) - 'Acoustic Guitar'
Gtr II (E A D G B E) - 'Clean Guitar'
Gtr III (D A D G B E) - 'Heavy Guitar 1'
Gtr IV (D A D G B E) - 'Heavy Guitar 2'
   Intro
    Q=60
    Asus2         Am                Asus2         Am
   4/4
    Gtr I
    S S S S S S S E S S S S S S S   S S S S S S S E S S S S S S S
||----------0-------------0-------|---------0-------------0-------|
||o-----0-----0-------1-----1-----|-----0-----0-------1-----1-----|
||--------2-----2-------2-----2---|-------2-----2-------2-----2---|
||----2-------------2-----------2-|---2-------------2-----------2-|
||o-0-------------0---------------|-0-------------0---------------|
||--------------------------------|-------------------------------|


  G                               Em
  S S S S S S S E S S S S S S S   S S S S S S S S S S S S S S S S
|-------------------------------|-----------------------------------||
|-----------------------0-------|---------0---------------0--------o||
|---------0---------0-----0-----|-------0---0-----------0---0-------||
|-----0-----0-----0---0-----0---|-----2-------2-------2-------2-----||
|---2---2-----2-----------------|---2-----------2---2-----------2--o||
|-3-------------3-------------3-|-0---------------0-----------------||


   Verse
    Asus2         Am                  Asus2         Am
    S S S S S S S E S S S S   S S S   S S S S S S S E S S S S   S S S
||----------0-------------0---------|---------0-------------0----------|
||o-----0-----0-------1-------1-----|-----0-----0-------1-------1------|
||--------2-----2-------2-------2---|-------2-----2-------2-------2----|
||----2-------------2-------------2-|---2-------------2-------------2--|
||o-0-------------0-----------------|-0-------------0------------------|
||----------------------------------|----------------------------------|
|
|   Gtr II
|   E   E   E   S E S E   T T S E     E   E   E   S E S E   T T S E
||----------------------------------|----------------------------------|
||o---------------------------------|----------------------------------|
||--2---2---2---2-2-2-2---2-4-2-5---|-2---2---2---2-2-2-2---2-4-2-5----|
||----------------------------------|----------------------------------|
||o---------------------------------|----------------------------------|
||----------------------------------|----------------------------------|


  G                                 Em
  S S S S S S S E S S S S   S S S   S S S S S S S S S S S S S   S S S
|---------------------------------|-------------------------------------||
|-----------------------0---------|---------0---------------0----------o||
|---------0---------0-------0-----|-------0---0-----------0-----0-------||
|-----0-----0-----0---0-------0---|-----2-------2-------2---------2-----||
|---2---2-----2-------------------|---2-----------2---2-------------2--o||
|-3-------------3---------------3-|-0---------------0-------------------||
|
| E   E   E   S E S E   T T S E     E   E   E   S E   S E   T T S E
|---------------------------------|-------------------------------------||
|---------------------------------|------------------------------------o||
|-0---0---0---0-0-0-0---0-2-0-2---|-0---0---0---0-0---0-0---0-2-0-2-----||
|---------------------------------|-------------------------------------||
|---------------------------------|------------------------------------o||
|---------------------------------|-------------------------------------||


   Chorus
    Q=63
    C/E                     B5/E
    E S S E S E S E E S S   E S S E S E S E E S S
||------------------------|-----------------------|
||o-1-1-1-1-1-1-1-1-1-1-1-|-0-0-0-0-0-0-0-0-0-0-0-|
||--0-0-0-0-0-0-0-0-0-0-0-|-x-x-x-x-x-x-x-x-x-x-x-|
||--x-x-x-x-x-x-x-x-x-x-x-|-4-4-4-4-4-4-4-4-4-4-4-|
||o-3-3-3-3-3-3-3-3-3-3-3-|-2-2-2-2-2-2-2-2-2-2-2-|
||--0-0-0-0-0-0-0-0-0-0-0-|-0-0-0-0-0-0-0-0-0-0-0-|


  A5/E                    G5        B5/E
  E S S E S E S E E S S   E S S E S E S S S S S S S
|-----------------------|----------------------------||
|-----------------------|-----------0-0-0-0-0-0-0-0-o||
|-2-2-2-2-2-2-2-2-2-2-2-|-0-0-0-0-0-x-x-x-x-x-x-x-x--||
|-x-x-x-x-x-x-x-x-x-x-x-|-0-0-0-0-0-4-4-4-4-4-4-4-4--||
|-0-0-0-0-0-0-0-0-0-0-0-|-5-5-5-5-5-2-2-2-2-2-2-2-2-o||
|-0-0-0-0-0-0-0-0-0-0-0-|-3-3-3-3-3-0-0-0-0-0-0-0-0--||


  C/E                     B5/E
  E S S E S E S E E S S   E S S  E  S  E S E E S S
|-----------------------|--------------------------|
|-1-1-1-1-1-1-1-1-1-1-1-|-0-0-0--0--0--0-0-0-0-0-0-|
|-0-0-0-0-0-0-0-0-0-0-0-|-x-x-x--x--x--x-x-x-x-x-x-|
|-x-x-x-x-x-x-x-x-x-x-x-|-4-4-4--4--4--4-4-4-4-4-4-|
|-3-3-3-3-3-3-3-3-3-3-3-|-2-2-2--2--2--2-2-2-2-2-2-|
|-0-0-0-0-0-0-0-0-0-0-0-|-0-0-0--0--0--0-0-0-0-0-0-|
|
| Gtrs III, IV
| E S S E S E S E E S S   E S S  E  S  E S E E S S
|-----------------------|--------------------------|
|-----------------------|--------------------------|
|-5-5-5-5-5-5-5-5-5-5-5-|-9-9-9-12-12-12-9-9-9-9-9-|
|-----------------------|--------------------------|
|-----------------------|--------------------------|
|-----------------------|--------------------------|


  A5/E
   E  S  S  E  S  E     S  E     E     S  S
|-------------------------------------------|
|-------------------------------------------|
|--2--2--2--2--2--2-----2--2-----2-----2--2-|
|--x--x--x--x--x--x-----x--x-----x-----x--x-|
|--0--0--0--0--0--0-----0--0-----0-----0--0-|
|--0--0--0--0--0--0-----0--0-----0-----0--0-|
|
|  E  S  S  E  S  S  S  S  S  S  S  S  S  S
|-------------------------------------------|
|-------------------------------------------|
|-14-14-14-14-14-14-14-14-14-14-14-16-16-16-|
|-------------------------------------------|
|-------------------------------------------|
|-------------------------------------------|


  G5             B5/E
   E  S  S  E  S  E  S  S  S  S  S S S
|---------------------------------------|
|-----------------0--0--0--0--0--0-0-0--|
|--0--0--0--0--0--x--x--x--x--x--x-x-x--|
|--0--0--0--0--0--4--4--4--4--4--4-4-4--|
|--5--5--5--5--5--2--2--2--2--2--2-2-2--|
|--3--3--3--3--3--0--0--0--0--0--0-0-0--|
|
|  E  S  S  E  S  E  S  S  S  S  S S S
|---------------------------------------|
|---------------------------------------|
|-16-14-14-12-12-12-12-10-10-10-10-9-9--|
|---------------------------------------|
|---------------------------------------|
|---------------------------------------|


  C/E                               B5/E
  E   S S E   S E   S E   E   S S   E   S S E   S E   S E   E   S S
|---------------------------------|---------------------------------|
|-1---1-1-1---1-1---1-1---1---1-1-|-0---0-0-0---0-0---0-0---0---0-0-|
|-0---0-0-0---0-0---0-0---0---0-0-|-x---x-x-x---x-x---x-x---x---x-x-|
|-x---x-x-x---x-x---x-x---x---x-x-|-4---4-4-4---4-4---4-4---4---4-4-|
|-3---3-3-3---3-3---3-3---3---3-3-|-2---2-2-2---2-2---2-2---2---2-2-|
|-0---0-0-0---0-0---0-0---0---0-0-|-0---0-0-0---0-0---0-0---0---0-0-|
|
| S S S S S S S S S S S S S S S S   S S S S S S S S S S S S S S S S
|---------------------------------|---------------------------------|
|---------------------------------|---------------------------------|
|-9-9-9-9-9-9-9-9-9-9-9-9-9-9-9-9-|-4-4-4-4-4-4-4-4-9-9-7-7-5-5-4-4-|
|---------------------------------|---------------------------------|
|---------------------------------|---------------------------------|
|---------------------------------|---------------------------------|


  A5/E                              G5            B5/E
  E   S S E   S E   S E   E   S S   E   S S E   S E   S S S S S S S
|---------------------------------|---------------------------------|
|---------------------------------|---------------0---0-0-0-0-0-0-0-|
|-2---2-2-2---2-2---2-2---2---2-2-|-0---0-0-0---0-x---x-x-x-x-x-x-x-|
|-x---x-x-x---x-x---x-x---x---x-x-|-0---0-0-0---0-4---4-4-4-4-4-4-4-|
|-0---0-0-0---0-0---0-0---0---0-0-|-5---5-5-5---5-2---2-2-2-2-2-2-2-|
|-0---0-0-0---0-0---0-0---0---0-0-|-3---3-3-3---3-0---0-0-0-0-0-0-0-|
|
| S S S S S S S S S S S S S S S S   S S S S S S S S S S S S S S S S
|---------------------------------|---------------------------------|
|---------------------------------|---------------------------------|
|-5-5-5-5-5-5-5-5-5-5-5-5-5-5-5-5-|-4-4-4-4-4-4-4-4-4-4-4-4-4-4-4-4-|
|---------------------------------|---------------------------------|
|---------------------------------|---------------------------------|
|---------------------------------|---------------------------------|


 Pre-Verse
  Q=65
  A5                                A5
  Gtr III
    PM------------------------|       PM--------------------------|
  E s s s s s s s s s s s s s s     E s s s   s s s s s s s s s s s   3x
|-------------------------------||------------------------------------||
|-------------------------------||o----------------------------------o||
|-------------------------------||------------------------------------||
|-7-7-7-7-7-7-7-7-7-7-7-7-7-7-7-||--7-7-7-7---7-7-7-7-7-7-7-7-7-7-7---||
|-7-7-7-7-7-7-7-7-7-7-7-7-7-7-7-||o-7-7-7-7---7-7-7-7-7-7-7-7-7-7-7--o||
|-7-7-7-7-7-7-7-7-7-7-7-7-7-7-7-||--7-7-7-7---7-7-7-7-7-7-7-7-7-7-7---||
|
| Gtr IV
| H             S S S S S S S S     E S S T T S S S S S S S S S S S   3x
|-------------------------------||------------------------------------||
|-------------------------------||o----------------------------------o||
|-------------------------------||--2-2-2-2h3p2-0-2-------------------||
|-------------------------------||------------------3-5-2-3-----------||
|---------------------------3-2-||o-------------------------3-5-2-0--o||
|---------------3-2-0-2-3-2-----||------------------------------------||


  A5                                  E     D     C B
    PM--------------|     PM|
  E s s s   s s s S S E   S S E       E E E E E E S E +S   4x
|---------------------------------||-----------------------||
|---------------------------------||o---------------------o||
|---------------------------------||--9-9-9-7-7-7-5-4-(4)--||
|-7-7-7-7---7-7-7-7-7-----7-7-----||--x-x-x-x-x-x-x-x-(x)--||
|-7-7-7-7---7-7-7-7-7-----7-7-----||o-7-7-7-5-5-5-3-2-(2)-o||
|-7-7-7-7---7-7-7-7-7-----7-7-----||-----------------------||
|
| E S S T T S S S S S S S S S S S     E E E E E E S E +S   4x
|---------------------------------||-----------------------||
|---------------------------------||o---------------------o||
|-2-2-2-2h3p2-0-2-----------------||--9-9-9-7-7-7-5-4-(4)--||
|-----------------3-5-2-3---------||--x-x-x-x-x-x-x-x-(x)--||
|-------------------------3-5-2-0-||o-7-7-7-5-5-5-3-2-(2)-o||
|---------------------------------||-----------------------||


   Verse
    A5    C5  G/B          A5    C5  G/B
      PM|   PM               PM|   PM
    E s s E s H    +S   4x E s s E s H    +S
||----------------------||--------------------|
||o--------------------o||--------------------|
||--------5-5-4----(4)--||-------5-5-4----(4)-|
||--7-7-7-5-5-5----(5)--||-7-7-7-5-5-5----(5)-|
||o-7-7-7-3-3-2----(2)-o||-7-7-7-3-3-2----(2)-|
||--7-7-7---------------||-7-7-7--------------|
|
|                            PM|   PM
|   W                   4x E s s E s H    +S
||----------------------||--------------------|
||o--------------------o||--------------------|
||----------------------||-------5-5-4----(4)-|
||----------------------||-7-7-7-5-5-5----(5)-|
||o--------------------o||-7-7-7-3-3-2----(2)-|
||----------------------||-7-7-7--------------|


    A5    C5  G/B          A5                A5
    Gtrs III, IV
      PM|   PM             PM------------------------|
    E s s E s H    +S   3x e e e e e e e e   e e e e e E Q
||----------------------||-----------------|----------------|
||o--------------------o||-----------------|----------------|
||--------5-5-4----(4)--||-----------------|----------------|
||--7-7-7-5-5-5----(5)--||-7-7-7-7-7-7-7-7-|-7-7-7-7-7------|
||o-7-7-7-3-3-2----(2)-o||-7-7-7-7-7-7-7-7-|-7-7-7-7-7------|
||--7-7-7---------------||-7-7-7-7-7-7-7-7-|-7-7-7-7-7------|


 Verse
  Q=160
  D5                E5                D5                E5
  E E E E E E E E   E E E E E E E E   E E E E E E E E   E E E E Q  Q
|-----------------|-----------------|-----------------|---------------|
|-----------------|-----------------|-----------------|---------------|
|-----------------|-----------------|-----------------|---------------|
|-0-0-0-0-0-0-0-0-|-2-2-2-2-2-2-2-2-|-0-0-0-0-0-0-0-0-|-2-2-2-2-------|
|-0-0-0-0-0-0-0-0-|-2-2-2-2-2-2-2-2-|-0-0-0-0-0-0-0-0-|-2-2-2-2-3--2--|
|-0-0-0-0-0-0-0-0-|-2-2-2-2-2-2-2-2-|-0-0-0-0-0-0-0-0-|-2-2-2-2-------|


    A5                              C5
      PM------------------------|     PM------------------------|
    E S S S S S S S S S S S S S S   E S S S S S S S S S S S S S S
||--------------------------------|--------------------------------|
||o-------------------------------|--------------------------------|
||--------------------------------|--------------------------------|
||--------------------------------|-5-5-5-5-5-5-5-5-5-5-5-5-5-5-5--|
||o-7-7-7-7-7-7-7-7-7-7-7-7-7-7-7-|-3-3-3-3-3-3-3-3-3-3-3-3-3-3-3--|
||--7-7-7-7-7-7-7-7-7-7-7-7-7-7-7-|--------------------------------|


  G5                              E5
    PM------------------------|
  E S S S S S S S S S S S S S S   E E Q  E E E E
|-------------------------------|-----------------||
|-------------------------------|----------------o||
|-------------------------------|-----------------||
|-------------------------------|-2-2-2--------3--||
|-5-5-5-5-5-5-5-5-5-5-5-5-5-5-5-|-2-2-2--2-3-5---o||
|-5-5-5-5-5-5-5-5-5-5-5-5-5-5-5-|-2-2-2-----------||


 Bridge
  A5          C5                   G5          E5
  E Q  E E Q  E   E Q  E E E E E   E Q  E E Q  E   E Q  E E E E E
|---------------|----------------|---------------|----------------|
|---------------|----------------|---------------|----------------|
|-------------5-|-5-5--5---------|---------------|----------------|
|-7-7--7-7-7--5-|-5-5--5-2-0-----|-5-5--5-5-5--2-|-2-2--2-------3-|
|-7-7--7-7-7--3-|-3-3--3-----3-2-|-5-5--5-5-5--2-|-2-2--2-2-3-5---|
|-7-7--7-7-7----|----------------|-5-5--5-5-5--2-|-2-2--2---------|


  A5          C5                   G5                E5
  E Q  E E Q  E   E Q  E E E E E   E E E E E E E E   E E E E E E E E
|---------------|----------------|-----------------|-----------------|
|---------------|----------------|-----------------|-----------------|
|-------------5-|-5-5--5---------|-----------------|-----------------|
|-7-7--7-7-7--5-|-5-5--5-2-0-----|-5-5-5-5-5-5-5-5-|-2-2-2-2-2-2-2-2-|
|-7-7--7-7-7--3-|-3-3--3-----3-2-|-5-5-5-5-5-5-5-5-|-2-2-2-2-2-2-2-2-|
|-7-7--7-7-7----|----------------|-5-5-5-5-5-5-5-5-|-2-2-2-2-2-2-2-2-|


 Interlude
  slower Q=129
  A5
  Gtr III
  PM                TP
  q  H    Q    H    H       W
|------------|------------|-------|
|------------|------------|-------|
|------------|------------|-------|
|-7----------|------x\----|-------|
|-7----------|------x\----|-------|
|-7----------|------x\----|-------|
|
| Gtr IV
| PM                        TP
| q  H    Q    W            W
|------------|------------|-------|
|------------|------------|-------|
|------------|------------|-------|
|-7----------|------------|-x\----|
|-7----------|------------|-x\----|
|-7----------|------------|-x\----|


   Breakdown
    Q=150
    A5       D5E5F5  D5     C5    B5    A5       D5E5F5
    Gtrs III, IV
                     PM--|
    E E E Q  E E E   e e q   E  E E E   E E E Q  E E E
||-----------------|------------------|----------------|
||o----------------|------------------|----------------|
||-----------------|------------------|----------------|
||--7-7-7----0-2-3-|-0-0-0--10-10-9-9-|-7-7-7----0-2-3-|
||o-7-7-7----0-2-3-|-0-0-0--10-10-9-9-|-7-7-7----0-2-3-|
||--7-7-7----0-2-3-|-0-0-0--10-10-9-9-|-7-7-7----0-2-3-|


  D5              C5          B5
  PM--------------------------------|
  S S S S S S S S  S  S  S  S S S S S  4x
|--------------------------------------||
|-------------------------------------o||
|--------------------------------------||
|--------------------------------------||
|-0-0-0-0-0-0-0-0-10-10-10-10-9-9-9-9-o||
|-0-0-0-0-0-0-0-0-10-10-10-10-9-9-9-9--||


 Guitar Break
  A5
  PM
  q  H    Q    W          W
|------------|----------|------|
|------------|----------|------|
|------------|----------|------|
|-7----------|----------|------|
|-7----------|----------|------|
|-7----------|----------|------|


   Re-Chorus
    Q=146
    C5                                E5
    Q  E E Q  E E   E E E E E E E E   Q  E E Q  E E   E E E E E E E E
||----------------|-----------------|---------------|------------------|
||o---------------|-----------------|---------------|------------------|
||--5--5-5-5--5-5-|-5-5-5-5-5-5-5-5-|---------------|------------------|
||--5--5-5-5--5-5-|-5-5-5-5-5-5-5-5-|-2--2-2-2--2-2-|-2-2-2-2-2-2-2-2--|
||o-3--3-3-3--3-3-|-3-3-3-3-3-3-3-3-|-2--2-2-2--2-2-|-2-2-2-2-2-2-2-2--|
||----------------|-----------------|-2--2-2-2--2-2-|-2-2-2-2-2-2-2-2--|


  A5                                G5
                                    PM---------------------|
  Q  E E Q  E E   E E E E E E E E   q  q  q  q    q  q  q  q
|---------------|-----------------|-------------|--------------||
|---------------|-----------------|-------------|-------------o||
|---------------|-----------------|-------------|--------------||
|-7--7-7-7--7-7-|-7-7-7-7-7-7-7-7-|-------------|--------------||
|-7--7-7-7--7-7-|-7-7-7-7-7-7-7-7-|-5--5--5--5--|-5--5--5--5--o||
|-7--7-7-7--7-7-|-7-7-7-7-7-7-7-7-|-5--5--5--5--|-5--5--5--5---||


    C5
    Gtr III
    Q  E E Q  E E   E E E E  E  E  E  E
||----------------|---------------------|
||o---------------|---------------------|
||--5--5-5-5--5-5-|-5-5-5-5--5--5--5--5-|
||--5--5-5-5--5-5-|-5-5-5-5--5--5--5--5-|
||o-3--3-3-3--3-3-|-3-3-3-3--3--3--3--3-|
||----------------|---------------------|
|
|   Gtr IV
|   Q  E E Q  E E   E E E E  E  E  E  E
||----------------|---------------------|
||o---------------|---------------------|
||--5--5-5-5--5-5-|-9-9-9-9-12-12-12-12-|
||----------------|---------------------|
||o---------------|---------------------|
||----------------|---------------------|


  E5
  Q  E E Q  E E    E  E  E  E  E  E  E  E
|---------------|--------------------------|
|---------------|--------------------------|
|---------------|--------------------------|
|-2--2-2-2--2-2-|--2--2--2--2--2--2--2--2--|
|-2--2-2-2--2-2-|--2--2--2--2--2--2--2--2--|
|-2--2-2-2--2-2-|--2--2--2--2--2--2--2--2--|
|
| Q  E E Q  E E    E  E  E  E  E  E  E  E
|---------------|--------------------------|
|---------------|--------------------------|
|-9--9-9-9--9-9-|-14-14-14-14-16-16-16-16--|
|---------------|--------------------------|
|---------------|--------------------------|
|---------------|--------------------------|


  A5                                  G5
                                      PM----------------------------|
  Q   E E Q   E E   E E E E E E E E   q   q   q   q     q   q   q   q
|-----------------|-----------------|-----------------|------------------||
|-----------------|-----------------|-----------------|-----------------o||
|-----------------|-----------------|-----------------|------------------||
|-7---7-7-7---7-7-|-7-7-7-7-7-7-7-7-|-----------------|------------------||
|-7---7-7-7---7-7-|-7-7-7-7-7-7-7-7-|-5---5---5---5---|-5---5---5---5---o||
|-7---7-7-7---7-7-|-7-7-7-7-7-7-7-7-|-5---5---5---5---|-5---5---5---5----||
|
| E E E E E E E E   E E E E E E E E   E E E E E E E E   E E E E E E E E
|-----------------|-----------------|-----------------|------------------||
|-----------------|-----------------|-----------------|-----------------o||
|-9-9-9-9-9-9-9-9-|-9-9-9-9-9-9-9-9-|-4-4-4-4-4-4-4-4-|-9-9-7-7-5-5-4-4--||
|-----------------|-----------------|-----------------|------------------||
|-----------------|-----------------|-----------------|-----------------o||
|-----------------|-----------------|-----------------|------------------||


 Bridge
  Q=113
  E5          E5
                          TP
   W           W          W
|-----------|-----------|-------|
|-----------|-----------|-------|
|-----------|-----------|-------|
|--2--------|--2--------|-x\----|
|--2--------|--2--------|-x\----|
|--2--------|--2--------|-x\----|
|
|                         TP
|  W           W          W
|-----------|-----------|-------|
|-----------|-----------|-------|
|-----------|-----------|-------|
|-----------|-----------|-x\----|
|-/7--------|-/7--------|-x\----|
|-----------|-----------|-x\----|


 Pre-Verse
  E5        F#G5            F#5
  Gtrs III, IV
                            PM----------------------------|
  S E S S E S S E S S E S   S S S S S S S S S S S S S S S S
|-------------------------|---------------------------------|
|-------------------------|---------------------------------|
|-------------------------|---------------------------------|
|-2-2-2-2-2-4-5-5-5-5-5-5-|---------------------------------|
|-2-2-2-2-2-4-5-5-5-5-5-5-|-4-4-4-4-4-4-4-4-4-4-4-4-4-4-4-4-|
|-2-2-2-2-2-4-5-5-5-5-5-5-|-4-4-4-4-4-4-4-4-4-4-4-4-4-4-4-4-|


  E5        F#G5            F#5
  Gtr III
                            PM-----------------------------|
  S E S S E S S E S S E S   S S S S S S S S  S S S S S S S S
|-------------------------|----------------------------------|
|-------------------------|----------------------------------|
|-------------------------|----------------------------------|
|-2-2-2-2-2-4-5-5-5-5-5-5-|----------------------------------|
|-2-2-2-2-2-4-5-5-5-5-5-5-|-4-4-4-4-4-4-4-4--4-4-4-4-4-4-4-4-|
|-2-2-2-2-2-4-5-5-5-5-5-5-|-4-4-4-4-4-4-4-4--4-4-4-4-4-4-4-4-|
|
| Gtr IV
| W                         H                H
|-------------------------|----------------------------------|
|-------------------------|----------------------------------|
|-------------------------|-----------------11---------------|
|-------------------------|------------------x---------------|
|-------------------------|------------------9---------------|
|-------------------------|----------------------------------|


  E5         F#5G5            F#5
                              PM----------------------------|
  S E S S  E  S S E S S E S   S S S S S S S S S S S S S S S S
|---------------------------|---------------------------------|
|---------------------------|---------------------------------|
|---------------------------|---------------------------------|
|-2-2-2-2--2--4-5-5-5-5-5-5-|---------------------------------|
|-2-2-2-2--2--4-5-5-5-5-5-5-|-4-4-4-4-4-4-4-4-4-4-4-4-4-4-4-4-|
|-2-2-2-2--2--4-5-5-5-5-5-5-|-4-4-4-4-4-4-4-4-4-4-4-4-4-4-4-4-|
|
| S E S S  E  S S E S S E S   W
|---------------------------|---------------------------------|
|---------------------------|---------------------------------|
|-9-9-9-9-11-12-7-7-7-7-7-7-|-7-------------------------------|
|-x-x-x-x--x--x-x-x-x-x-x-x-|-x-------------------------------|
|-7-7-7-7--9-10-5-5-5-5-5-5-|-5-------------------------------|
|---------------------------|---------------------------------|


  E5         F#5G5            F#5                                    E
                              PM---------------------------------|
  S E S S  E  S S E S S E S   S  S  S S  S S S S S S S S  S  S S S   W
|---------------------------|--------------------------------------|------|
|---------------------------|--------------------------------------|------|
|---------------------------|--------------------------------------|------|
|-2-2-2-2--2--4-5-5-5-5-5-5-|--------------------------------------|------|
|-2-2-2-2--2--4-5-5-5-5-5-5-|-4--4--4-4--4-4-4-4-4-4-4-4--4--4-4-4-|------|
|-2-2-2-2--2--4-5-5-5-5-5-5-|-4--4--4-4--4-4-4-4-4-4-4-4--4--4-4-4-|------|
|
| S E S S  E  S S E S S E S   S  S  E    Q       Q       +Q          W
|---------------------------|--------------------------------------|------|
|---------------------------|--------------------------------------|------|
|-9-9-9-9-11-12-7-7-7-7-7-7-|-7-11-11---11-------8-------(8)-------|-9----|
|-x-x-x-x--x--x-x-x-x-x-x-x-|-x--x--x----x-------x-------(x)-------|-x----|
|-7-7-7-7--9-10-5-5-5-5-5-5-|-5--9--9----9-------6-------(6)-------|-7----|
|---------------------------|--------------------------------------|------|


 Out-Chorus
  C5                                      B5  G5E5
                                        PM----|
   S   S  S  S  S  S  S  S  S  S  S  S  E E   E S S S S S S S S S S S S S S
|-------------------------------------------|-------------------------------|
|-------------------------------------------|-------------------------------|
|-------------------------------------------|-------------------------------|
|-10--10-10-10-10-10-10-10-10-10-10-10-10-9-|-5-----------------------------|
|-10--10-10-10-10-10-10-10-10-10-10-10-10-9-|-5-2-2-2-2-2-2-2-2-2-2-2-2-2-2-|
|-10--10-10-10-10-10-10-10-10-10-10-10-10-9-|-5-2-2-2-2-2-2-2-2-2-2-2-2-2-2-|
|
|                                             PM
| +W                                          E S S S S S S S S S S S S S S
|-------------------------------------------|-------------------------------|
|-------------------------------------------|-------------------------------|
|-(9)---------------------------------------|-------------------------------|
|-(x)---------------------------------------|-5-----------------------------|
|-(7)---------------------------------------|-5-2-2-2-2-2-2-2-2-2-2-2-2-2-2-|
|-------------------------------------------|-5-2-2-2-2-2-2-2-2-2-2-2-2-2-2-|


    C5                                     B5  G5E5
    Gtrs III, IV
                                         PM----|
     S  S  S  S  S  S  S  S  S  S  S  S  E E   E S S S S S S S S S S S S S S  3x
||-------------------------------------------|--------------------------------||
||o------------------------------------------|-------------------------------o||
||-------------------------------------------|--------------------------------||
||--10-10-10-10-10-10-10-10-10-10-10-10-10-9-|-5------------------------------||
||o-10-10-10-10-10-10-10-10-10-10-10-10-10-9-|-5-2-2-2-2-2-2-2-2-2-2-2-2-2-2-o||
||--10-10-10-10-10-10-10-10-10-10-10-10-10-9-|-5-2-2-2-2-2-2-2-2-2-2-2-2-2-2--||


    C5                                D5
    S S S S S S S S S S S S S S S S   S S S S S S S S S S S S S S S S
||----------------------------------|----------------------------------|
||o---------------------------------|----------------------------------|
||--5-5-5-5-5-5-5-5-5-5-5-5-5-5-5-5-|----------------------------------|
||--5-5-5-5-5-5-5-5-5-5-5-5-5-5-5-5-|-0-0-0-0-0-0-0-0-0-0-0-0-0-0-0-0--|
||o-3-3-3-3-3-3-3-3-3-3-3-3-3-3-3-3-|-0-0-0-0-0-0-0-0-0-0-0-0-0-0-0-0--|
||----------------------------------|-0-0-0-0-0-0-0-0-0-0-0-0-0-0-0-0--|


  G5              F5                E5              D5
  S S S S S S S S S S S S S S S S   S S S S S S S S S S S S S S S S
|---------------------------------|----------------------------------||
|---------------------------------|---------------------------------o||
|---------------------------------|----------------------------------||
|-5-5-5-5-5-5-5-5-3-3-3-3-3-3-3-3-|-2-2-2-2-2-2-2-2-0-0-0-0-0-0-0-0--||
|-5-5-5-5-5-5-5-5-3-3-3-3-3-3-3-3-|-2-2-2-2-2-2-2-2-0-0-0-0-0-0-0-0-o||
|-5-5-5-5-5-5-5-5-3-3-3-3-3-3-3-3-|-2-2-2-2-2-2-2-2-0-0-0-0-0-0-0-0--||


 Outro
  Q=95       Q=80       Q=60
  C5         D5         G5
                        >
  W          W          W          +W
|----------|----------|----------|--------*|
|----------|----------|----------|--------*|
|-5--------|----------|----------|--------*|
|-5--------|-0--------|-5--------|-(5)----*|
|-3--------|-0--------|-5--------|-(5)----*|
|----------|-0--------|-5--------|-(5)----*|



Duration Legend
---------------
W - whole; H - half; Q - quarter; E - 8th; S - 16th; T - 32nd; X - 64th; a - acciaccatura
+ - note tied to previous; . - note dotted; .. - note double dotted
Uncapitalized letters represent notes that are staccato (1/2 duration)
Irregular groupings are notated above the duration line
Duration letters will always appear directly above the note/fret number it represents the
duration for.  Duration letters with no fret number below them represent rests.  Multi-
bar rests are notated in the form Wxn, where n is the number of bars to rest for.  Low
melody durations appear below the staff

Tablature Legend
----------------
 h   - hammer-on
 p   - pull-off
 b   - bend
 pb  - pre-bend
 r   - bend release (if no number after the r, then release immediately)
 /\  - slide into or out of (from/to "nowhere")
 s   - legato slide
 S   - shift slide
 - natural harmonic
[n]  - artificial harmonic
n(n) - tapped harmonic
 ~   - vibrato
 tr  - trill
 T   - tap
 TP  - trem. picking
 PM  - palm muting
\n/  - tremolo bar dip; n = amount to dip
 \n  - tremolo bar down
 n/  - tremolo bar up
/n\  - tremolo bar inverted dip
 =   - hold bend; also acts as connecting device for hammers/pulls
 <> - volume swell (louder/softer)
 x   - on rhythm slash represents muted slash
 o   - on rhythm slash represents single note slash

Misc Legend
-----------
 |  - bar
||  - double bar
||o - repeat start
o|| - repeat end
*|  - double bar (ending)
 :  - bar (freetime)
 $  - Segno
 &  - Coda
Tempo markers -  = BPM(8/16=s8/s16), where s8 = swing 8ths, s16 = swing 16ths

Any Complaints, Questions Or Comments
Please Email f.u.c.kallyoufalsebeauty@Hotmail.com
-Seth Sanders-
comments
print report bad tab
8 comments total. Showing first comments.
0 reply
glcometdude32 wrote on March 6 2007, 05:18 pm

good tabs. instead of trying to play really high notes sometimes, just try harmonics. its easier

0 reply
Rhythman wrote on March 9 2007, 12:56 pm

YEAHAHAHHHAHA MOTHAFUCKA!

0 reply
tait100 wrote on June 27 2007, 09:02 am

This ****ing awesome must of taking ****ing ages :D
nice going man ;)
awesome album, awesome tab, nice one :D
xx

I want to post or [tab]
guest
You may want to rate the tab now too:
select rating
Please do not post tabs as comments. Select "correction" instead!