Oops, an error
Loading. Please wait.

Tonight The World Dies Tab

ver1
ver1

Whole song

Interactive

More versions @911Tabs.com
36,342 views 86 this week
4 commentsread comments
1 2 3 4 5
excellent!
x 8
Autoscroll
+/-
esc
set tempo
stop
Contributor
Tuning
D A D G B E
Hey! There's an official Ultimate Guitar app which is ideal
for learning songs when you're away from computer. Get the app
WARNING: You are trying to view
                                    content from Ultimate-Guitar.com
                                    in an unauthorized application,
                                    which is prohibited.

                                    Please use an official Ultimate
                                    Guitar Tabs application for iPhone,
                                    iPad or Android to access legitimate
                                    chords, guitar, bass, and drum tabs
                                    from Ultimate-Guitar.com database.

                                    Type "ultimate guitar tabs" in Apple
                                    App Store's or Android Market's
                                    search to find the application.
Artist - Avenged Sevenfold
Album - Nightmare
Track - Tonight The World Dies
Guitar 1 tuning - Dropped D (DADGBE) - Lightly Distorted/Clean
Guitar 2 tuning - Standard (EADGBE) - Acoustic

NB - When Guitar 1+2 is stated, Guitar 1 is tabbed and Guitar 2's chords shown above the bar
   - Guitar 1 is only clean during the chorus

Key:
/   slide up
\   slide down
h   hammer-on
p   pull-off
~   vibrato
+   harmonic
x   Mute note
b   Bend
pb  Pre-bend
br  Bend release
pbr Pre-bend release
brb Bend release bend
()  Optional notes
Repeats more than x2 shown above the bar

Chords used:
Guitar 1
    Em    C   Am    G    E    B    D
e|---0----0----0----3----0----2----2----------------------|
B|---0----1----1----3----0----4----3----------------------|
G|---0----0----2----0----1----4----2----------------------|
D|---2----2----2----0----2----4----0----------------------|
A|---2----3----0----2----2----2---------------------------|
E|---0--------------3----0---------------------------------|
Guitar 2
    Em    C   Am    E    B    D
e|---------------------------------------------------|
B|---------------------------------------------------|
G|--------5----2----1----4----7----------------------|
D|---2----5----2----2----4----7----------------------|
A|---2----3----0----2----2----5----------------------|
D|---2--------------2--------------------------------|

Intro
Guitar 1
e|--------------------------------|--------------------------------|
B|--------------------------------|--------------------------------|
G|--------------------------------|--------------------------------|
D|--------------------------------|--------------------------------|
A|--------------------------------|--------------------------------|
D|--------------------------------|--------------------------------|

e|--------------------------------|--------------------------------|
B|--------------------------------|--------------------------------|
G|--------------------------------|--------------------------------|
D|------------------------12b14---|--------------r12-------/-------|
A|--------------------------------|--------------------------------|
D|--------------------------------|--------------------------------|

e|--------------------------------|--------------------------------|
B|--------------------------------|--------------------------------|
G|--------------------------------|--------------------------------|
D|-17-----------------------------|--------------------------------|
A|--------------------------------|--------------------------------|
D|--------------------------------|--------------------------------|

e|--------------------------------|--------------------------------|
B|--------------------------------|--------------------------------|
G|-----------------------19---16--|-19---16----------\-------------|
D|--------------17b19-------------|--------------------------------|
A|--------------------------------|--------------------------------|
D|--------------------------------|--------------------------------|

e|--------------------------------|--------------------------------|
B|--------------------------------|--------------------------------|
G|--------------------------------|--------------------------------|
D|--------------------------------|--------------------------------|
A|--------------------------------|--------------------------------|
D|--------------------------------|--------------------------------|

e|--------------------------------|--------------------------------|
B|--------------------------------|--------------------------------|
G|-------14b15---r14--------------|-12b13---r12-12---11------------|
D|--------------------------------|-----------------------12-------|
A|--------------------------------|--------------------------------|
D|--------------------------------|--------------------------------|

e|--------------------------------|--------------------------------|
B|--------------------------------|--------------------------------|
G|--------------------------------|--------------------------------|
D|-/----14------------------------|--------------------------------|
A|--------------------------------|--------------------------------|
D|--------------------------------|--------------------------------|

e|--------------------------------|--------------------------------|
B|-19b20----r19-------------------|-17b18r17---17------------------|
G|--------------------------------|-----------------16----/----17--|
D|--------------------------------|--------------------------------|
A|--------------------------------|--------------------------------|
D|--------------------------------|--------------------------------|

Guitar 2
e|--------------------------------|--------------------------------|
B|o-------------------------------|--------------------------------|
G|--------------------------------|--------------------------------|
D|-2----------------2---------2---|---2---2-------2---2---2------2-|
A|o2----------------2---------2---|---2---2-------2---2---2------2-|
E|--------------------------------|--------------------------------|
                                                                 x4
e|--------------------------------|--------------------------------|
B|--------------------------------|-------------------------------o|
G|-4----------------4---------4---|---4---4-------4---4---4------4-|
D|-2----------------2---------2---|---2---2-------2---2---2------2-|
A|-1----------------1---------1---|---1---1-------1---1---1------1o|
E|--------------------------------|--------------------------------|

Verse 1
Guitar 1+2
   C                                
e|--------------------------------|--------------------------------|
B|--------------------------------|--------------------------------|
G|--------------------------------|--------------------------------|
D|--------------------------------|--------------------------------|
A|--------------------------------|--------------------------------|
D|--------------------------------|--------------------------------|
   Em                               
e|--------------------------------|--------------------------------|
B|--------------------------------|--------------------------------|
G|-------------------------14---\-|-12------------11b12r11---------|
D|--------------------------------|--------------------------------|
A|--------------------------------|--------------------------------|
D|--------------------------------|--------------------------------|
   C                               
e|--------------------------------|--------------------------------|
B|--------------------------------|--------------------------------|
G|-11---\---9---------------------|--------------------------------|
D|--------------------------------|--------------------------------|
A|--------------------------------|--------------------------------|
D|--------------------------------|--------------------------------|
   Em                                
e|--------------------------------|--------------------------------|
B|--------------17b19-------------|-19---\---17--------------------|
G|--------------------------------|------------------------16------|
D|--------------------------------|--------------------------------|
A|--------------------------------|--------------------------------|
D|--------------------------------|--------------------------------|
   C                                
e|--------------------------------|--------------------------------|
B|--------------------------------|--------------------------------|
G|-16b17--------------------------|--------------------------------|
D|--------------------------------|--------------------------------|
A|--------------------------------|--------------------------------|
D|--------------------------------|--------------------------------|
   Em
e|--------------------------------|--------------------------------|
B|--------------------------------|--------------------------------|
G|---------------16--------\------|-12--------------\--------------|
D|--------------------------------|--------------------------------|
A|--------------------------------|--------------------------------|
D|--------------------------------|--------------------------------|
   Am                                
e|--------------------------------|--------------------------------|
B|--------------------------------|--------------------------------|
G|-9------------------------------|--------------------------------|
D|--------------------------------|--------------------------------|
A|--------------------------------|--------------------------------|
D|--------------------------------|--------------------------------|
   G                                
e|--------------------------------|--------------------------------|
B|--------------------------------|--------------------------------|
G|--------------------------------|--------------------------------|
D|--------------------------------|-12---\---10--------------------|
A|--------------------------------|--------------------------------|
D|--------------------------------|--------------------------------|

Pre Verse 2
Guitar 1
e|--------------------------------|--------------------------------|
B|--------------------------------|--------------------------------|
G|--------------------------------|--------------------------------|
D|--------------------------------|--------------------------------|
A|-12b14--------------------------|--------------------------------|
D|--------------------------------|--------------------------------|

e|--------------------------------|--------------------------------|
B|-------------------------15-----|--15---15b17--------------------|
G|-----------14b16-------------15-|--------------------------------|
D|--------------------------------|--------------------------------|
A|--------------------------------|--------------------------------|
D|--------------------------------|--------------------------------|

e|--------------------------------|--------------------------------|
B|--------------------------------|--------------------------------|
G|--------------------------------|--------------------------------|
D|--------------------------------|--------------------------------|
A|--------------------------------|--------------------------------|
D|--------------------------------|--------------------------------|

e|--------------------------------|--------------------------------|
B|-17-\-15------15-\-13-----------|-12b14r12-------12-------\------|
G|--------------------------------|--------------------------------|
D|--------------------------------|--------------------------------|
A|--------------------------------|--------------------------------|
D|--------------------------------|--------------------------------|

Guitar 2
e|--------------------------------|--------------------------------|
B|o-------------------------------|--------------------------------|
G|--------------------------------|--------------------------------|
D|-2----------------2---------2---|---2---2-------2---2---2------2-|
A|o2----------------2---------2---|---2---2-------2---2---2------2-|
E|--------------------------------|--------------------------------|
                                                                 
e|--------------------------------|--------------------------------|
B|--------------------------------|-------------------------------o|
G|-4----------------4---------4---|---4---4-------4---4---4------4-|
D|-2----------------2---------2---|---2---2-------2---2---2------2-|
A|-1----------------1---------1---|---1---1-------1---1---1------1o|
E|--------------------------------|--------------------------------|

Verse 2
Guitar 1+2
   C
e|--------------------------------|--------------------------------|
B|-8------------------------------|--------------------------------|
G|--------------------------------|--------------------------------|
D|--------------------------------|--------------------------------|
A|--------------------------------|--------------------------------|
D|--------------------------------|--------------------------------|
   Em
e|--------------------------------|--------------------------------|
B|-------------12---------/-------|-17----------\----------12---/--|
G|--------------------------------|--------------------------------|
D|--------------------------------|--------------------------------|
A|--------------------------------|--------------------------------|
D|--------------------------------|--------------------------------|
   C
e|--------------------------------|--------------------------------|
B|-13-----------------------------|--------------------------------|
G|--------------------------------|--------------------------------|
D|--------------------------------|--------------------------------|
A|--------------------------------|--------------------------------|
D|--------------------------------|--------------------------------|
   Em
e|--------------15---\---12---/---|-19-----------19---\---15---/---|
B|--------------------------------|--------------------------------|
G|--------------------------------|--------------------------------|
D|--------------------------------|--------------------------------|
A|--------------------------------|--------------------------------|
D|--------------------------------|--------------------------------|
   C
e|-20-----------------------------|--------------------------------|
B|--------------------------------|--------------------------------|
G|--------------------------------|--------------------------------|
D|--------------------------------|--------------------------------|
A|--------------------------------|--------------------------------|
D|--------------------------------|--------------------------------|
   Em
e|--------------------------------|--------------------------------|
B|--------------------------------|--------------------------------|
G|--------------------------------|--------------------------------|
D|--------------------------------|--------------------------------|
A|--------------------------------|--------------------------------|
D|--------------------------------|--------------------------------|
   Am
e|--------------------------------|--------------------------------|
B|--------------------------------|--------------------------------|
G|--------------------------------|--------------------------------|
D|-12b14-------r12----------------|----------------14---------\----|
A|--------------------------------|--------------------------------|
D|--------------------------------|--------------------------------|
   G
e|--------------------------------|--------------------------------|
B|--------------------------------|--------------------------------|
G|--------------------------------|--------------------------------|
D|-12-----------------------------|--------------------------------|
A|--------------------------------|--------------------------------|
D|--------------------------------|--------------------------------|

Chorus
Guitar 1+2
Em - C - Em - C - Am - C

Pre Verse 3
Guitar 1
e|--------------------------------|--------------------------------|
B|/16b18--------------------------|--------------------------------|
G|--------------------------------|--------------------------------|
D|--------------------------------|--------------------------------|
A|--------------------------------|--------------------------------|
D|--------------------------------|--------------------------------|

e|--------------------------------|--------------------------------|
B|-----------15b17r15-------------|--------------------------------|
G|--------------------------------|-17b19r17-------17b19r17--------|
D|--------------------------------|--------------------------------|
A|--------------------------------|--------------------------------|
D|--------------------------------|--------------------------------|

e|--------------------------------|--------------------------------|
B|--------------------------------|--------------------------------|
G|--------------------------------|------------------14-/-16---\---|
D|--------------------------------|--------------------------------|
A|--------------------------------|--------------------------------|
D|--------------------------------|--------------------------------|

e|--------------------------------|--------------------------------|
B|--------------------------------|--------------------------------|
G|-12-----------------------------|---------------11b13r11---------|
D|--------------------------------|--------------------------------|
A|--------------------------------|--------------------------------|
D|--------------------------------|--------------------------------|

Guitar 2
e|--------------------------------|--------------------------------|
B|o-------------------------------|--------------------------------|
G|--------------------------------|--------------------------------|
D|-2----------------2---------2---|---2---2-------2---2---2------2-|
A|o2----------------2---------2---|---2---2-------2---2---2------2-|
E|--------------------------------|--------------------------------|
                                                                 
e|--------------------------------|--------------------------------|
B|--------------------------------|-------------------------------o|
G|-4----------------4---------4---|---4---4-------4---4---4------4-|
D|-2----------------2---------2---|---2---2-------2---2---2------2-|
A|-1----------------1---------1---|---1---1-------1---1---1------1o|
E|--------------------------------|--------------------------------|

Verse 3
Guitar 1+2
   C
e|--------------------------------|--------------------------------|
B|--------------------------------|--------------------------------|
G|--------------------------------|--------------------------------|
D|-12-/-14------------------------|--------------------------------|
A|--------------------------------|--------------------------------|
D|--------------------------------|--------------------------------|
   Em
e|--------------------------------|--------------------------------|
B|-------19b20r19--------17-------|-17---\---15------15------------|
G|--------------------------------|-------------------------16-----|
D|--------------------------------|--------------------------------|
A|--------------------------------|--------------------------------|
D|--------------------------------|--------------------------------|
   C                                
e|--------------------------------|--------------------------------|
B|--------------------------------|--------------------------------|
G|-16-/-17------------------------|--------------------------------|
D|--------------------------------|--------------------------------|
A|--------------------------------|--------------------------------|
D|--------------------------------|--------------------------------|
   Em                                
e|--------------------------------|--------------------------------|
B|-----------------12b13r12b13r12-|--------------------------------|
G|--------------------------------|--------------------------------|
D|--------------------------------|---------------14b16r15r14------|
A|--------------------------------|--------------------------------|
D|--------------------------------|--------------------------------|
   C                                
e|--------------------------------|--------------------------------|
B|--------------------------------|--------------------------------|
G|--------------------------------|--------------------------------|
D|--------------------------------|--------------------------------|
A|--------------------------------|--------------------------------|
D|--------------------------------|--------------------------------|
   Em                                
e|--------------------------------|--------------------------------|
B|--------------------------------|--------------------------------|
G|--------------------------------|--------------------------------|
D|--------------------------------|--------------------------------|
A|--------------------------------|--------------------------------|
D|--------------------------------|--------------------------------|
   Am                                
e|--------------------------------|--------------------------------|
B|--------------------------------|--------------------------------|
G|--------------------------------|--------------------------------|
D|-14b16--------------------------|--------------------------------|
A|--------------------------------|--------------------------------|
D|--------------------------------|--------------------------------|
   G
e|--------------------------------|--------------------------------|
B|---------15b17------------------|--------------------------------|
G|--------------------------------|-16b18b16b18b16-----------------|
D|--------------------------------|--------------------------------|
A|--------------------------------|--------------------------------|
D|--------------------------------|--------------------------------|

Chorus
Guitar 1+2
Em - C - Em - C - Am - C - Am - C

Pre Solo
Guitar 1+2
E - B - C - D - E - B - C - D

Solo
Guitar 1+2
   D                                Em
e|---------------------10-12-14-15|-17b19--------------------------|
B|---------10----10-12------------|--------------------------------|
G|----9-11----12------------------|--------------------------------|
D|-12-----------------------------|--------------------------------|
A|--------------------------------|--------------------------------|
D|--------------------------------|--------------------------------|
                                    C
e|--------------19-\-17-----------|--------------------------------|
B|------------------------17--17--|---------------15-\-17b19r17b19-|
G|--------------------------------|--------------------------------|
D|--------------------------------|--------------------------------|
A|--------------------------------|--------------------------------|
D|--------------------------------|--------------------------------|
                                    Em
e|--------------------------------|--------------------------------|
B|--------------17b19----17b19----|----------------------15---17---|
G|--------------------------------|--------------------------------|
D|--------------------------------|--------------------------------|
A|--------------------------------|--------------------------------|
D|--------------------------------|--------------------------------|
                                    C
e|--------------------------------|-15\----------------------------|
B|--------------------------------|----------------------15---17---|
G|--------------------------------|--------------------------------|
D|--------------------------------|--------------------------------|
A|--------------------------------|--------------------------------|
D|--------------------------------|--------------------------------|
                                    Am
e|--------------------------------|--------------------------------|
B|--------------------------------|--------------------------------|
G|-----------------------------12\|-9------------------------------|
D|--------------------------------|--------------------------------|
A|--------------------------------|--------------------------------|
D|--------------------------------|--------------------------------|
                                    C
e|--------------------------------|--------------------------------|
B|--------------------------------|----------------15------17------|
G|--\---14------14------16--------|-17-----------------------------|
D|--------------------------------|--------------------------------|
A|--------------------------------|--------------------------------|
D|--------------------------------|--------------------------------|
                                    Am
e|--------------------------------|--------------------------------|
B|--------------------------------|-14-----------------------15-14-|
G|--------------------------------|-----------------------14-------|
D|--------------------------------|--------------------------------|
A|--------------------------------|--------------------------------|
D|--------------------------------|--------------------------------|
                                    C
e|--------------------------------|--------------------------------|
B|--------------------------------|--------------------------------|
G|-14-------------14--16--15b17---|--------------------------------|
D|-----14------14-----------------|--------------------------------|
A|---------16---------------------|--------------------------------|
D|--------------------------------|--------------------------------|

e|--------------------------------|
B|--------------------------------|
G|15b16-1412----------------------|
D|-----------14-12----------------|
A|-----------------1012-----------|
D|-----------------------12--14---|   

Outro
Guitar 1
e|--------------------------------|--------------------------------|
B|--------------------------------|--------------------------------|
G|--------------------------------|--------------------------------|
D|--------------------------------|--------------------------------|
A|--------------------------------|--------------------------------|
D|--------------------------------|--------------------------------|

e|--------------------------------|--------------------------------|
B|--------------------------------|--------------------------------|
G|-------------14b16--------------|-------16------16---\---14------|
D|--------------------------------|--------------------------------|
A|--------------------------------|--------------------------------|
D|--------------------------------|--------------------------------|

e|--------------------------------|--------------------------------|
B|--------------------------------|--------------------------------|
G|-14---/---16--------------------|--------------------------------|
D|--------------------------------|--------------------------------|
A|--------------------------------|--------------------------------|
D|--------------------------------|--------------------------------|

e|--------------------------------|--------------------------------|
B|--------------17---\---15---/---|-17---/---20--------------------|
G|--------------------------------|--------------------------------|
D|--------------------------------|--------------------------------|
A|--------------------------------|--------------------------------|
D|--------------------------------|--------------------------------|

e|--------------------------------|--------------------------------|
B|--------------------------------|--------------------------------|
G|--------------------------------|--------------------------------|
D|--------------------------------|--------------------------------|
A|--------------------------------|--------------------------------|
D|--------------------------------|--------------------------------|

e|--------------------------------|--------------------------------|
B|--------------------------------|--------------------------------|
G|--------------------------------|---------19------19------19-----|
D|--------------12--------/-------|-16-----------------------------|
A|--------------------------------|--------------------------------|
D|--------------------------------|--------------------------------|

e|--------------------------------|--------------------------------|
B|--------------------------------|--------------------------------|
G|-19b21--------------------------|--------------------------------|
D|--------------------------------|--------------------------------|
A|--------------------------------|--------------------------------|
D|--------------------------------|--------------------------------|

e|--------------------------------|
B|--------------------------------|
G|--------------------------------|
D|--------------------------------|
A|--------------------------------|
D|--------------------------------|

Guitar 2
e|--------------------------------|--------------------------------|
B|o-------------------------------|--------------------------------|
G|--------------------------------|--------------------------------|
D|-2----------------2---------2---|---2---2-------2---2---2------2-|
A|o2----------------2---------2---|---2---2-------2---2---2------2-|
E|--------------------------------|--------------------------------|
                                                                 x3
e|--------------------------------|--------------------------------|
B|--------------------------------|-------------------------------o|
G|-4----------------4---------4---|---4---4-------4---4---4------4-|
D|-2----------------2---------2---|---2---2-------2---2---2------2-|
A|-1----------------1---------1---|---1---1-------1---1---1------1o|
E|--------------------------------|--------------------------------|

e|-0------------------------------|
B|-0------------------------------|
G|-0------------------------------|
D|-2------------------------------|
A|-2------------------------------|
E|-0------------------------------|
comments
print report bad tab
4 comments total. Showing first comments.
+2 reply
NaytronA7X wrote on September 16 2010, 05:55 pm

In one word, 'flawless'

-1 reply
jason7799 wrote on December 5 2010, 06:47 am

Why are there two different chorus's? lmao!

0 reply
jason7799 wrote on December 5 2010, 07:15 am

my bad on the chorus thing I figured it out..but i think I have a small correction I just heard that seems to sound more accurate at the end of the song for the lead guitar

e----------------------------------------------------------------------------------
b----------------------------------------------------------------------------------
g---------------------------19-----------19----------19-------19-------19Hb
d----12/-16--------16---------16-----------16---------16-------16--------
a----------------------------------------------------------------------------------
d----------------------------------------------------------------------------------

and fade out on the last bend on the 19
I dont know if anyone will understand my small suggestion but keep in mind i dont really tab im only a simple guitarist

I want to post or [tab]
guest
You may want to rate the tab now too:
select rating
Please do not post tabs as comments. Select "correction" instead!