Oops, an error
Loading. Please wait.

Tonight The World Dies Tab

ver2
ver2

Whole song

More versions @911Tabs.com
6,301 views 3 this week
no commentswrite comment
1 2 3 4 5
accurate
x 7
Autoscroll
+/-
esc
set tempo
stop
Contributor
Difficulty
intermediate
WARNING: You are trying to view
                                    content from Ultimate-Guitar.com
                                    in an unauthorized application,
                                    which is prohibited.

                                    Please use an official Ultimate
                                    Guitar Tabs application for iPhone,
                                    iPad or Android to access legitimate
                                    chords, guitar, bass, and drum tabs
                                    from Ultimate-Guitar.com database.

                                    Type "ultimate guitar tabs" in Apple
                                    App Store's or Android Market's
                                    search to find the application.
#----------------------------------PLEASE NOTE---------------------------------#
#This file is the author's own work and represents their interpretation of the #
#song. You may only use this file for private study, scholarship, or research. #
#------------------------------------------------------------------------------##

                             TONIGHT THE WORLD DIES
                        As recorded by Liam Briggs - lb.
                         (From the 2010 Album NIGHTMARE)

Words and Music by Avenged Sevenfold
Transcribed by Liam Briggs - lb.guitar.boy@gmail.com

           C                   Em                   Am                    G
      x 3 2 0 1 0          0 2 2 0 0 0          x 0 2 2 1 0          3 2 0 0 3 3

           E                 Badd11                Cmaj7              Dadd6add9
      0 2 2 1 0 0          7 9 9 8 0 0         8 10 10 9 0 0       10 12 12 11 0 0

         Asus2                 E5                  E5/A#
      x 0 2 2 0 0          0 2 2 4 x x          0 2 2 3 0 0

Gtr I (E A D G B E) - 'Guitar 1'
Gtr II (E A D G B E) - 'Guitar 2'
Gtr III (E A D G B E) - 'Guitar 3'
Gtr IV (E A D G B E) - 'Guitar 4'
Gtr V (E A D G B E) - 'Guitar 5'
Gtr VI (E A D G B E) - 'Guitar 6'

 Intro
  Slowly Q=67
  E5                        E5/A#
 4/4
  Gtr I
  E S S E. S +S  S E S E.   E S S E S S +S  S S S  S  S S S
|-0-----0--0-(0)-0---0-0--|-0-----0-0-0-(0)-0------0--0-0-0-|
|-0-----0--0-(0)-0---0-0--|-0-0-0-0-0-0-(0)-0------0--0-0-0-|
|-4-4-4-4--4-(4)-4---4-4--|-3-3-3-4-3-3-(3)-3------3--3-3-3-|
|-2-2-2-2----------2-2-2--|-2-----2-2-2-(2)-2-2-2--2--2-2-2-|
|-2-2-2-2----------2-2-2--|-2-----2-----------2-2--2--2-2-2-|
|-0-----0----------0-0-0--|-0-----0-----------0-0--0--0-0-0-|
|
| Gtr II
|                                        ~~~
| W                         Q     E E    Q        +E    E
|-------------------------|---------------------------------|
|-------------------------|---------------------------------|
|-------------------------|---------7s===9--------(9)s==7s==|
|-------------------------|---------------------------------|
|-------------------------|---------------------------------|
|-------------------------|---------------------------------|


  E5
   E S S   E. S  +S  S   E   S E.
|--0-------0--0--(0)-0-------0-0---|
|--0-------0--0--(0)-0-------0-0---|
|--4-4-4---4--4--(4)-4-------4-4---|
|--2-2-2---2-------------2---2-2---|
|--2-2-2---2-------------2---2-2---|
|--0-------0-------------0---0-0---|
|
|          ~~~~~~~~~~
|  Q      +Q     +E     +E   Q
|----------------------------------|
|----------------------------------|
|-12-----(12)---(12)---(12)\-------|
|----------------------------------|
|----------------------------------|
|----------------------------------|


  E5/A#
  E S S  E  S  S +S     S      S  S S S   S   S
|-0------0--0--0-(0)----0-----------0-0---0---0-|
|-0-0-0--0--0--0-(0)----0-----------0-0---0---0-|
|-3-3-3--4--3--3-(3)----3-----------3-3---3---3-|
|-2------2--2--2-(2)----2------2--2-2-2---2---2-|
|-2------2---------------------2--2-2-2---2---2-|
|-0------0---------------------0--0-0-0---0---0-|
|
|                 |---3----|
| Q      E  S  S  S   S    S  +Q         +E
|-----------------------------------------------|
|-------------15-----15---15-(15)-------(15)\---|
|-------12s15----15-------15-(15)-------(15)\---|
|-----------------------------------------------|
|-----------------------------------------------|
|-----------------------------------------------|


  E5                        E5/A#
  E S S E. S +S  S E S E.   E  S  S  E  S S +S  S S S S S S S
|-0-----0--0-(0)-0---0-0--|-0--------0--0-0-(0)-0-----0-0-0-0---|
|-0-----0--0-(0)-0---0-0--|-0--0--0--0--0-0-(0)-0-----0-0-0-0---|
|-4-4-4-4--4-(4)-4---4-4--|-3--3--3--4--3-3-(3)-3-----3-3-3-3---|
|-2-2-2-2----------2-2-2--|-2--------2--2-2-(2)-2-2-2-2-2-2-2---|
|-2-2-2-2----------2-2-2--|-2--------2------------2-2-2-2-2-2---|
|-0-----0----------0-0-0--|-0--------0------------0-0-0-0-0-0---|
|
|                                    ~~~
| W                         E  S  S  E.   S  S  S S S S S e
|-------------------------|-------------------------------------|
|-------------------------|---10s11s10-------8s10s8---8s7-------|
|-------------------------|-------------------------------7-----|
|-------------------------|-------------------------------------|
|-------------------------|-------------------------------------|
|-------------------------|-------------------------------------|


  E5                          E5/A#
  E S  S E. S +S   S E S E.   E  S  S  E  S S +S  S  S S  S  S   E
|-0------0--0-(0)--0---0-0--|-0--------0--0-0-(0)-0--0-0--0--0---0---||
|-0------0--0-(0)--0---0-0--|-0--0--0--0--0-0-(0)-0--0-0--0--0---0---||
|-4-4--4-4--4-(4)--4---4-4--|-3--3--3--4----3-(3)-3--3-3--3--3---3---||
|-2-2--2-2-----------2-2-2--|-2--------2----2-(2)-2--2-2--2--2---2---||
|-2-2--2-2-----------2-2-2--|-2--------2------------------2--2---2---||
|-0------0-----------0-0-0--|-0--------0------------------0--0---0---||
|
|   ~~                                 ~~~
| E Q.        +E     E Q      E  S  S  E.   S  S  S  S S  S  S  +E
|---------------------------|---14s15s14------12s14s12---12----------||
|---------------------------|-------------------------------12-(12)s=||
|-7s9---------(9)\----------|----------------------------------------||
|---------------------------|----------------------------------------||
|---------------------------|----------------------------------------||
|---------------------------|----------------------------------------||


 Verse 1
  C       Cadd9        C          Em      Emadd9
  Gtr I
   Q  E S S  +S  S E S E.         Q  E  S S  S S E  S  E    S
|-^0--0-0-----------------------|----0----0---------0---------|
|-^1--1-1-3--(3)-3-3-3-1--------|-0--0----0----0-0--0--0----0-|
|-^0--0-0-0--(0)-0-0-0-0--------|-0--0----0----0-0--0--0----0-|
|-^2--2-2-2--(2)-2-2-2-2--------|-2--2--2-4--4---4------------|
|-^3--3-3-3--(3)-3-3-3-3--------|-2--2--2-2-------------------|
|-------------------------------|-0--0--0-0-------------------|
|
| Gtr II
|  ~~                                        ~~
|  H         +Q.           +E     Q  E  E    Q      S  S  S S
|-------------------------------|-----------------------------|
|-13--------(13)----------(13)\-|-----------------------------|
|-------------------------------|------14s==12-----11s12s11---|
|-------------------------------|-----------------------------|
|-------------------------------|-----------------------------|
|-------------------------------|-----------------------------|


  C           Cadd9            C
   E S  S E S S +S  S S S  S   E S
|--0-0--0-0-0--------------------0--|
|--1-1--1-1-1-3-(3)-3-3-3--3---1-0--|
|--0-0--0-0-0-0-(0)-0-0-0--0---0-0--|
|--2-2--2-2-2-2-(2)-2-2-2--2---2----|
|--3-3--3-3-3-3-(3)-3-3-3--3---3----|
|-----------------------------------|
|
|    ~~~~~~~~~~~~~~~
|  E Q.         +Q        +E.    S
|-----------------------------------|
|-----------------------------------|
|-11s9----------(9)-------(9)\------|
|-----------------------------------|
|-----------------------------------|
|-----------------------------------|


  Em       Emadd9            Em       C            Cadd9              C
  E S S  E  S S +S S  S S  S E    S    E.    S E S S  +S  S S S   S   E  S
|-0-0-0--0--0-0-(0)0--0-0--0------0-|--0-----0-0-0-----------------------0-|
|-0-0-0--0--0-0-(0)0--0-0--0-0----0-|--1-----1-1-1-3--(3)-3-3-3---3---1--0-|
|-0-0-0--0--0-0-(0)0--0-0--0-0----0-|--0-----0-0-0-0--(0)-0-0-0---0---0--0-|
|-2-2-2--2--4-4-(4)4--4-4----2------|--2-----2-2-2-2--(2)-2-2-2---2---2----|
|-2-2-2--2--------------------------|--3-----3-3-3-3--(3)-3-3-3---3---3----|
|-0-0-0--0--------------------------|--------------------------------------|
|
|                     ~~~~~~~             ~~~~~~~~~~~~~~~~
| Q      E  S S  E    E    E    E      E  Q.          +Q         +S   E.
|-------12s14---14s==12---12--------|--------------------------------------|
|------------------------------12---|-12s13----------(13)-------(13)\------|
|-----------------------------------|--------------------------------------|
|-----------------------------------|--------------------------------------|
|-----------------------------------|--------------------------------------|
|-----------------------------------|--------------------------------------|


  Em          Em7
  Q   E.      S +S  S S S  S E      S
|-0---0-------0-(0)-0-0-0--0-0------0---|
|-0---0-------3-(3)-3-3-3--3-0------0---|
|-0---0-------0-(0)-0-0-0--0-0------0---|
|-2---2-------------2-2-2--2-2----------|
|-2---2---------------------------------|
|-0---0---------------------------------|
|
|                ~~~
| Q   E   +E     Q         E    +E
|---------------------------------------|
|---------------------------------------|
|----16--(16)s==12--------12---(12)s====|
|---------------------------------------|
|---------------------------------------|
|---------------------------------------|


  Am                        G
  Q  E. S +S  E S  S  E S   E. S E. S +S E S  S E S
|-0--0--0-(0)-0----0--0---|-3--3-3--3-(3)3-3--3-3---||
|-1--1--1-(1)-1----1--1---|-3--3-3--3-(3)3-3--3-3---||
|-2--2--2-(2)-2----2--2-x-|-0--0-0--0-(0)0-0--0-0---||
|-2--2--2-(2)-2-2--2--2-x-|-0--0-0--0-(0)0-0--0-0-x-||
|-0--0--0-(0)-0-0--0--0-x-|-2--2-2--2-(2)2-2--2-2-x-||
|-------------------------|-3--3-3--3-(3)3-3--3-3-x-||
|
| ~~~~~~~~~~~~~~~~~~~~
| H       +Q      +E.   S   H          Q      Q
|-------------------------|-------------------------||
|-------------------------|-------------------------||
|-9-------(9)-----(9)-----|-------------------------||
|-------------------------|-----------12S====10S====||
|-------------------------|-------------------------||
|-------------------------|-------------------------||


 Interlude
  E5                         E5/A#
  Gtr I
  E S S  E. S +S  S E S E.   E S S E  S    S    +S     S   S  S  S S S S
|-0------0--0-(0)-0---0-0--|-0-----0--0----0----(0)----0---------0-0-0-0--|
|-0------0--0-(0)-0---0-0--|-0-0-0-0--0----0----(0)----0---------0-0-0-0--|
|-4-4-4--4--4-(4)-4---4-4--|-3-3-3-4--3----3----(3)----3---------3-3-3-3--|
|-2-2-2--2----------2-2-2--|-2-----2--2----2----(2)----2---2--2--2-2-2-2--|
|-2-2-2--2----------2-2-2--|-2-----2-----------------------2--2--2-2-2-2--|
|-0------0----------0-0-0--|-0-----0-----------------------0--0--0-0-0-0--|
|
| Gtr II
|        ~~~                                                     ~~
|                                     |---3---|  |-3-|
| E E   +Q    +E    E Q      Q     E  S  S    S  S   E    +E     Q
|--------------------------|----------------------------------------------|
|--------------------------|------------15------15--15---(15)s==17--------|
|--------------------------|-------9-15------15---------------------------|
|-8s9---(9)---(9)----------|----------------------------------------------|
|--------------------------|----------------------------------------------|
|--------------------------|----------------------------------------------|


  E5                               E5/A#
    E    S   S E. S +S  S E S E.   E  S  S E    S  S +S  S  S S  S S   S  S
|---0----------0--0-(0)-0---0-0--|-0-------0----0--0-(0)-0-------0-0---0--0-||
|---0----------0--0-(0)-0---0-0--|-0--0--0-0----0--0-(0)-0-------0-0---0--0-||
|---4----4---4-4--4-(4)-4---4-4--|-3--3--3-4----3--3-(3)-3-------3-3---3--3-||
|---2----2---2-2----------2-2-2--|-2-------2----2--2-(2)-2--2-2--2-2---2--2-||
|---2----2---2-2----------2-2-2--|-2-------2----------------2-2--2-2---2--2-||
|---0----------0----------0-0-0--|-0-------0----------------0-0--0-0---0--0-||
|
|   ~~~~
|  +E   +E     Q     H             E  S  S S  E    S  S  S  S S  E    +E
|--------------------------------|------------------------------------------||
|-(17)-(17)\---------------------|---17s15---15s==12-12s15s12---12---(12)s==||
|--------------------------------|------------------------------------------||
|--------------------------------|------------------------------------------||
|--------------------------------|------------------------------------------||
|--------------------------------|------------------------------------------||


 Verse 2
  C                        Em
  Gtr III
   W                       W
   |                       |
   /                       /

  Gtr I
   Q  E S S +S  S E S E.   Q  E S S  S S E  S E   S
|-^0--0-0----------------|----0---0---------0-------|
|-^1--1-1-3-(3)-3-3-3-1--|-0--0---0----0-0--0-0---0-|
|-^0--0-0-0-(0)-0-0-0-0--|-0--0---0----0-0--0-0---0-|
|-^2--2-2-2-(2)-2-2-2-2--|-2--2-2-4--4---4----------|
|-^3--3-3-3-(3)-3-3-3-3--|-2--2-2-2-----------------|
|------------------------|-0--0-0-0-----------------|
|
| Gtr II
|  ~~                                ~~
|  W                       Q  Q      Q      E   E
|------------------------|----7S====12-----12s==7---|
|--8---------------------|--------------------------|
|------------------------|--------------------------|
|------------------------|--------------------------|
|------------------------|--------------------------|
|------------------------|--------------------------|


  C
  W
  |
  /

  E    S S  E  S S +S  S S S S E S
|-0----0-0--0--0-----------------0--|
|-1----1-1--1--1-3-(3)-3-3-3-3-1-0--|
|-0----0-0--0--0-0-(0)-0-0-0-0-0-0--|
|-2----2-2--2--2-2-(2)-2-2-2-2-2----|
|-3----3-3--3--3-3-(3)-3-3-3-3-3----|
|-----------------------------------|
|
|   ~~~~~~~~~~~
| S E.     +H                Q
|-7s8------(8)----------------------|
|-----------------------------------|
|-----------------------------------|
|-----------------------------------|
|-----------------------------------|
|-----------------------------------|


  Em
  W
  |
  /

  E S S  E  S S +S  S S S  S E    S
|-0-0-0--0--0-0-(0)-0-0-0--0------0-|
|-0-0-0--0--0-0-(0)-0-0-0--0-0----0-|
|-0-0-0--0--0-0-(0)-0-0-0--0-0----0-|
|-2-2-2--2--4-4-(4)-4-4-4----2------|
|-2-2-2--2--------------------------|
|-0-0-0--0--------------------------|
|
| Q      E  E    E    S S  E    E
|-------15s12s==19------x-19s==15s==|
|-----------------------------------|
|-----------------------------------|
|-----------------------------------|
|-----------------------------------|
|-----------------------------------|


  C                             Em
   W                            W
   |                            |
   /                            /

   E. S E S S +S  S S S S E S   Q  E. S +S  S S S S E S
|--0--0-0-0-----------------0-|-0--0--0-(0)-0-0-0-0-0-0-|
|--1--1-1-1-3-(3)-3-3-3-3-1-0-|-0--0--3-(3)-3-3-3-3-0-0-|
|--0--0-0-0-0-(0)-0-0-0-0-0-0-|-0--0--0-(0)-0-0-0-0-0-0-|
|--2--2-2-2-2-(2)-2-2-2-2-2---|-2--2--------2-2-2-2-2---|
|--3--3-3-3-3-(3)-3-3-3-3-3---|-2--2--------------------|
|-----------------------------|-0--0--------------------|
|
|  ~~~
|  H.                   Q       W
|-20--------------------------|-------------------------|
|-----------------------------|-------------------------|
|-----------------------------|-------------------------|
|-----------------------------|-------------------------|
|-----------------------------|-------------------------|
|-----------------------------|-------------------------|


  Am                        G
  W                         W
  |                         |
  /                         /

  Q  E. S +S  E S  S  E S   E. S E. S +S  E S S E S
|-0--0--0-(0)-0----0--0---|-3--3-3--3-(3)-3-3-3-3---||
|-1--1--1-(1)-1----1--1---|-3--3-3--3-(3)-3-3-3-3---||
|-2--2--2-(2)-2----2--2-x-|-0--0-0--0-(0)-0-0-0-0---||
|-2--2--2-(2)-2-2--2--2-x-|-0--0-0--0-(0)-0-0-0-0-x-||
|-0--0--0-(0)-0-0--0--0-x-|-2--2-2--2-(2)-2-2-2-2-x-||
|-------------------------|-3--3-3--3-(3)-3-3-3-3-x-||
|
|    ~~~~~~~~~~~~~~~~~      ~~
| Q  H            +S  E.    H         +E.   S Q
|-------------------------|-------------------------||
|-------------------------|-------------------------||
|-7s=9------------(9)-9s==|=7---------(7)-----------||
|-------------------------|-------------------------||
|-------------------------|-------------------------||
|-------------------------|-------------------------||


 Chorus
  $
  Em                         C
  Gtrs I, III, IV
  Q  E S S +S  S E S S S S   E E E S S +S  S E S S S S
|-0--0-0-0-(0)-0-0-0-0-0-0-|-0-0-0-0-0-(0)-0-0-0-0-0-0-|
|-0--0-0-0-(0)-0-0-0-0-0-0-|-1-1-1-1-1-(1)-1-1-1-1-1-1-|
|-0--0-0-0-(0)-0-0-0-0-0-0-|-0-0-0-0-0-(0)-0-0-0-0-0-0-|
|-2--2-2-2-(2)-2-2-2-2-2-2-|-2-2-2-2-2-(2)-2-2-2-2-2-2-|
|-2--2-2-2-(2)-2-2-2-2-2-2-|-3-3-3-3-3-(3)-3-3-3-3-3-3-|
|-0--0-0-0-(0)-0-0-0-0-0-0-|---------------------------|


  Em                         C
  Q  E S S +S  S E S S S S   E E E. S +S  S E S S S S
|-0--0-0-0-(0)-0-0-0-0-0-0-|-0-0-0--0-(0)-0-0-0-0-0-0-|
|-0--0-0-0-(0)-0-0-0-0-0-0-|-1-1-1--1-(1)-1-1-1-1-1-1-|
|-0--0-0-0-(0)-0-0-0-0-0-0-|-0-0-0--0-(0)-0-0-0-0-0-0-|
|-2--2-2-2-(2)-2-2-2-2-2-2-|-2-2-2--2-(2)-2-2-2-2-2-2-|
|-2--2-2-2-(2)-2-2-2-2-2-2-|-3-3-3--3-(3)-3-3-3-3-3-3-|
|-0--0-0-0-(0)-0-0-0-0-0-0-|--------------------------|


                                        To Coda
  Asus2               G/B  C
  Q  E. S +S  S S S S E.   Q  E. S +S  S S S S E.
|-0--0--0-(0)-0-0-0-0----|-0--0--0-(0)-0-0-0-0-0--||
|-0--0--0-(0)-0-0-0-0----|-1--1--1-(1)-1-1-1-1-1--||
|-2--2--2-(2)-2-2-2-2----|-0--0--0-(0)-0-0-0-0-0--||
|-2--2--2-(2)-2-2-2-2----|-2--2--2-(2)-2-2-2-2-2--||
|-0--0--0-(0)-0-0-0-0-2--|-3--3--3-(3)-3-3-3-3-3--||
|------------------------|------------------------||


 Interlude
  E5                                  E5/A#
  Gtr I
   E S S  E. S +S  S E   S    E.      E S S     E  S S +S S  S S  S  S  S S
|--0------0--0-(0)-0-----0----0-----|-0---------0--0-0-(0)0-------0--0--0-0-|
|--0------0--0-(0)-0-----0----0-----|-0-0-0-----0--0-0-(0)0-------0--0--0-0-|
|--4-4-4--4--4-(4)-4-----4----4-----|-3-3-3-----4--3-3-(3)3-------3--3--3-3-|
|--2-2-2--2----------2---2----2-----|-2---------2--2-2-(2)2--2-2--2--2--2-2-|
|--2-2-2--2----------2---2----2-----|-2---------2------------2-2--2--2--2-2-|
|--0------0----------0---0----0-----|-0---------0------------0-0--0--0--0-0-|
|
| Gtr II
|         ~~~                                                           ~~
|  Q      H             +S   +E   S   Q      a  E  S S  E    S S  S  S  E
|-----------------------------------|---------------------------------------|
|-10s====17------------(17)-(17)\---|-------15s17s15---15s==12---12s15s12---|
|-----------------------------------|---------------------------------------|
|-----------------------------------|---------------------------------------|
|-----------------------------------|---------------------------------------|
|-----------------------------------|---------------------------------------|


  E5                                   E5/A#
    E  S S E.       S +S  S E S E.     E S S E S S +S   S S S S S S S
|---0------0--------0-(0)-0---0-0----|-0-----0-0-0-(0)--0-----0-0-0-0-||
|---0------0--------0-(0)-0---0-0----|-0-0-0-0-0-0-(0)--0-----0-0-0-0-||
|---4--4-4-4--------4-(4)-4---4-4----|-3-3-3-4-3-3-(3)--3-----3-3-3-3-||
|---2--2-2-2----------------2-2-2----|-2-----2-2-2-(2)--2-2-2-2-2-2-2-||
|---2--2-2-2----------------2-2-2----|-2-----2------------2-2-2-2-2-2-||
|---0------0----------------0-0-0----|-0-----0------------0-0-0-0-0-0-||
|
|   ~~~~                               ~
|  +Q.         +E      Q      S S  E   H           +E     E   S S E
|------------------------------------|--------------------------------||
|-(12)--------(12)\-------------7s12s|=8-----------(8)\-------7s8s7---||
|------------------------------------|--------------------------------||
|------------------------------------|--------------------------------||
|------------------------------------|--------------------------------||
|------------------------------------|--------------------------------||


 Verse 3
  C         Cadd9        C    Em            Emadd9
  Gtr I
   Q    E S S +S   S E S E.   Q        E  S S  S S  E S E   S
|-^0----0-0-----------------|----------0----0---------0-------|
|-^1----1-1-3-(3)--3-3-3-1--|-0--------0----0----0--0-0-0---0-|
|-^0----0-0-0-(0)--0-0-0-0--|-0--------0----0----0--0-0-0---0-|
|-^2----2-2-2-(2)--2-2-2-2--|-2--------2--2-4--4----4---------|
|-^3----3-3-3-(3)--3-3-3-3--|-2--------2--2-2-----------------|
|---------------------------|-0--------0--0-0-----------------|
|
| Gtr II
|    ~~
|  E Q.       +E     E Q      E  S  S  e  e    E    e E   e
|---------------------------|---14s15s14-12---12S==10-8S==7---|
|---------------------------|---------------------------------|
|--7s9--------(9)\----------|---------------------------------|
|---------------------------|---------------------------------|
|---------------------------|---------------------------------|
|---------------------------|---------------------------------|


    C         Cadd9         C
    E S S E S S +S  S S S S E S
|---0-0-0-0-0-----------------0-|
|---1-1-1-1-1-3-(3)-3-3-3-3-1-0-|
|---0-0-0-0-0-0-(0)-0-0-0-0-0-0-|
|---2-2-2-2-2-2-(2)-2-2-2-2-2---|
|---3-3-3-3-3-3-(3)-3-3-3-3-3---|
|-------------------------------|
|
|   ~
| a W
|-7s8---------------------------|
|-------------------------------|
|-------------------------------|
|-------------------------------|
|-------------------------------|
|-------------------------------|


  Em          Emadd9             Em
  E S S  E     S  S +S S S S   S E   S
|-0-0-0--0-----0--0-(0)0-0-0---0-----0-|
|-0-0-0--0-----0--0-(0)0-0-0---0-0---0-|
|-0-0-0--0-----0--0-(0)0-0-0---0-0---0-|
|-2-2-2--2-----4--4-(4)4-4-4-----2-----|
|-2-2-2--2-----------------------------|
|-0-0-0--0-----------------------------|
|
| Q      S  S  S  S  E   E   a E   E
|--------------------------------------|
|-------12s13s12s13-12s==5---5s8s==7s==|
|--------------------------------------|
|--------------------------------------|
|--------------------------------------|
|--------------------------------------|


  C        Cadd9         C     Em    Em7           Em
  E. S E S S +S  S S S S E S   Q  E. S +S  S S S S E   S
|-0--0-0-0-----------------0-|-0--0--0-(0)-0-0-0-0-0---0---|
|-1--1-1-1-3-(3)-3-3-3-3-1-0-|-0--0--3-(3)-3-3-3-3-0---0---|
|-0--0-0-0-0-(0)-0-0-0-0-0-0-|-0--0--0-(0)-0-0-0-0-0---0---|
|-2--2-2-2-2-(2)-2-2-2-2-2---|-2--2--------2-2-2-2-2-------|
|-3--3-3-3-3-(3)-3-3-3-3-3---|-2--2------------------------|
|----------------------------|-0--0------------------------|
|
| ~~
| H           H                H        Q        S S E
|----------------------------|-----------------------------|
|-5--------------------------|---------------------5-------|
|----------------------------|-----------------------------|
|----------------------------|-----------------------------|
|----------------------------|-----------------------------|
|----------------------------|-----------------------------|


                                                D.S. al Coda
  Am                      G
  Q  E. S +S  E S S E S   E.       S  E. S +S  E     S  S E S
|-0--0--0-(0)-0---0-0---|-3--------3--3--3-(3)-3-----3--3-3---||
|-1--1--1-(1)-1---1-1---|-3--------3--3--3-(3)-3-----3--3-3---||
|-2--2--2-(2)-2---2-2-x-|-0--------0--0--0-(0)-0-----0--0-0---||
|-2--2--2-(2)-2-2-2-2-x-|-0--------0--0--0-(0)-0-----0--0-0-x-||
|-0--0--0-(0)-0-0-0-0-x-|-2--------2--2--2-(2)-2-----2--2-2-x-||
|-----------------------|-3--------3--3--3-(3)-3-----3--3-3-x-||
|
|    ~~                               ~~~               ~~
| Q  Q    +E.   S Q       E   a  E    Q     S  S  S  S  Q
|-----------------------|-------------------------------------||
|-5s=8----(8)-----------|----15s17s==15----12s15s12s16s12-----||
|-----------------------|-------------------------------------||
|-----------------------|-------------------------------------||
|-----------------------|-------------------------------------||
|-----------------------|-------------------------------------||


  &
  Asus2               G/B  C
  Gtrs I, III, IV
  Q  E. S +S  S S S S E.   E E E. S +S  S S S S E.
|-0--0--0-(0)-0-0-0-0----|-0-0-0--0-(0)-0-0-0-0-0--||
|-0--0--0-(0)-0-0-0-0----|-1-1-1--1-(1)-1-1-1-1-1--||
|-2--2--2-(2)-2-2-2-2----|-0-0-0--0-(0)-0-0-0-0-0--||
|-2--2--2-(2)-2-2-2-2----|-2-2-2--2-(2)-2-2-2-2-2--||
|-0--0--0-(0)-0-0-0-0-2--|-3-3-3--3-(3)-3-3-3-3-3--||
|------------------------|-------------------------||


   Bridge
    E                                Badd11
    Gtrs I, III, IV, VI
    E  S S S S E +S  S S S S S S S   E S S  E  S S  S  E S S S S S
    |  | | | | |  |  | | | | | | |   | | |  |  | |  |  | | | | | |
    /  / / / / /  /  / / / / / / /   / / /  /  / /  /  / / / / / /

    Gtr V
    Q.         E +Q        S S E     Q     +E  E   +Q      S S E
||---------------------------------|-------------------------------|
||o--------------------------------|-------------------------------|
||--9----------9-(9)-------9-9-9S==|=4-----(4)S8---(8)-----8-8-8S==|
||--x----------x-----------x-x-x---|-x---------x-----------x-x-x---|
||o-7----------7-(7)-------7-7-7S==|=2-----(2)S6---(6)-----6-6-6S==|
||---------------------------------|-------------------------------|


                                 1.
  Cmaj7                           Dadd6add9
  E S S  E  S S  S  E S S S S S   E S S  S  S  E   S  S S S  S  S  S S
  | | |  |  | |  |  | | | | | |   | | |  |  |  |   |  | | |  |  |  | |
  / / /  /  / /  /  / / / / / /   / / /  /  /  /   /  / / /  /  /  / /

  Gtr V
  Q     +E  E   +Q      S S E     Q     +E     E  +Q         S  S  E
|-------------------------------|---------------------------------------||
|-------------------------------|--------------------------------------o||
|-5-----(5)S9---(9)-----9-9-9S==|=7-----(7)---11-(11)-------11-12-11----||
|-x---------x-----------x-x-x---|-x------------x-------------x--x--x----||
|-3-----(3)S7---(7)-----7-7-7S==|=5-----(5)----9--(9)--------9-10--9---o||
|-------------------------------|---------------------------------------||
|
| Gtr II
| W                               W
|-------------------------------|---------------------------------------||
|-------------------------------|--------------------------------------o||
|-------------------------------|---------------------------------------||
|-------------------------------|---------------------------------------||
|-------------------------------|--------------------------------------o||
|-------------------------------|---------------------------------------||


  2.
  Dadd6add9
  E S S  S  S  E   S     S     S    S     S     S     S    S
  | | |  |  |  |   |     |     |    |     |     |     |    |
  / / /  /  /  /   /     /     /    /     /     /     /    /

  Q     +E     E  +Q                      S     S     E
|------------------------------------------------------------------||
|------------------------------------------------------------------||
|-7-----(7)---11-(11)--------------------11----12----11------------||
|-x------------x--------------------------x-----x-----x------------||
|-5-----(5)----9--(9)---------------------9----10-----9------------||
|------------------------------------------------------------------||
|
|                  |---------6---------|  |---------6---------|
| H                S   S    S  S  S    S  S  S     S  S  S    S
|----------------------------------------------------14-15---17----||
|-------------------------------------------15----17---------------||
|-----------------------------14------14-16------------------------||
|---------------------14---16----17--------------------------------||
|-----------------17-----------------------------------------------||
|------------------------------------------------------------------||


 Chorus-Guitar Solo
  Em
  Gtrs I, III, IV
   Q     E S S +S S E  S       S      S  S
   |     | | |  | | |  |       |      |  |
   /     / / /  / / /  /       /      /  /

  Gtr II
                                         ~~~
   H.                  S      +T   T  S  S
|-17b19---------------17pb19r(17)p15-------|
|------------------------------------17-17-|
|------------------------------------------|
|------------------------------------------|
|------------------------------------------|
|------------------------------------------|


  C
    E  E  E          S    S       +S  S E               S      S     S S
    |  |  |          |    |        |  | |               |      |     | |
    /  /  /          /    /        /  / /               /      /     / /

 ~~~~~~
   +Q     S  S      +S   +S       +E.       a   +T   T  S      E.
|------------------------------------------------------------------------|
|-(17)---15-17b20==(17)r(17)b20==(17)-----(17)r(17)p15-17b20==17b20======|
|------------------------------------------------------------------------|
|------------------------------------------------------------------------|
|------------------------------------------------------------------------|
|------------------------------------------------------------------------|


  Em
    Q     E   S  S  +S  S E   S      S   S   S
    |     |   |  |   |  | |   |      |   |   |
    /     /   /  /   /  / /   /      /   /   /

                 ~~~~~~~
   +Q    +E   S  S  +Q       +T   S.    +E
|----------------------------------------------|
|-(17)r=(17)-15-17-(17)-----(17)-17----(17)\---|
|----------------------------------------------|
|----------------------------------------------|
|----------------------------------------------|
|----------------------------------------------|


  C
   E     E   E   S  S  +S  S E S S S  S
   |     |   |   |  |   |  | | | | |  |
   /     /   /   /  /   /  / / / / /  /

                    ~~~~~~~
   Q        +E   S  S  +Q.         S  S
|------------------------------------------|
|-17pb20r==(17)-15-17-(17)-----------------|
|------------------------------------12b13-|
|------------------------------------------|
|------------------------------------------|
|------------------------------------------|


  Asus2                            G/B
   Q    E.   S   +S    S  S  S  S  E.
   |    |    |    |    |  |  |  |  |
   /    /    /    /    /  /  /  /  o

   ~~
   Q   +E.  +S    S a  S  S  S  S.     T  +S   S
|-----------------------------------------------------|
|-----------------------------------------------------|
|------------------------14-14-14-----16-(16)-16pb17==|
|-14--(14)-(14)\----9s14------------------------------|
|-----------------------------------------------------|
|-----------------------------------------------------|


  C
    Q     E.          S      +S  S S S   S  E.
    |     |           |       |  | | |   |  |
    /     /           /       /  / / /   /  /

   +Q    +S   +S   S  S      +Q         +E      +E
|----------------------------------------------------|
|-----------------15-15b17==(15)-------(15)r===(15)--|
|-(16)--(16)r(16)------------------------------------|
|----------------------------------------------------|
|----------------------------------------------------|
|----------------------------------------------------|


  Asus2                          G/B
   Q  E.        S +S  S  S  S  S  E.
   |  |         |  |  |  |  |  |  |
   /  /         /  /  /  /  /  /  o

   Q  S   S  S  S  S  S  S  S  S  S   E
|------------------------------------------|
|-14--------15-14--------------------------|
|--------14-------14----------14-----16b17-|
|--------------------14----14----14--------|
|-----------------------16-----------------|
|------------------------------------------|


  C
    Q   E. S +S       S      S  S  S      E.
    |   |  |  |       |      |  |  |      |
    /   /  /  /       /      /  /  /      /

   +H         S      +T   T  S  S  S     +T   T  S  S
|------------------------------------------------------||
|------------------------------------------------------||
|-(16)-------14pb16r(14)p12----------------------------||
|---------------------------14-12----------------------||
|---------------------------------12b14r(12)p10--------||
|-----------------------------------------------12-12--||


 Outro
  E5                               E5/A#
  Gtr I
    E  S S E. S  +S   S E   S E.   E S S E S  S  +S  S  S S  S S  S S
|---0------0--0--(0)--0-----0-0--|-0-----0-0--0--(0)-0-------0-0--0-0-|
|---0------0--0--(0)--0-----0-0--|-0-0-0-0-0--0--(0)-0-------0-0--0-0-|
|---4--4-4-4--4--(4)--4-----4-4--|-3-3-3-4-3--3--(3)-3-------3-3--3-3-|
|---2--2-2-2------------2---2-2--|-2-----2-2--2--(2)-2--2-2--2-2--2-2-|
|---2--2-2-2------------2---2-2--|-2-----2--------------2-2--2-2--2-2-|
|---0------0------------0---0-0--|-0-----0--------------0-0--0-0--0-0-|
|
| Gtr II
|                                             ~~~~~~~
|  +H            +E.      S Q      Q     E.   S  +E     e    E    E
|--------------------------------|------------------------------------|
|--------------------------------|-------8s==12-(12)---12---12s==11---|
|--------------------------------|------------------------------------|
|--------------------------------|------------------------------------|
|--------------------------------|------------------------------------|
|-(12)----------(12)\------------|------------------------------------|


  E5
   E     S S   E. S  +S   S E S E.
|--0-----------0--0--(0)--0---0-0---|
|--0-----------0--0--(0)--0---0-0---|
|--4-----4-4---4--4--(4)--4---4-4---|
|--2-----2-2---2------------2-2-2---|
|--2-----2-2---2------------2-2-2---|
|--0-----------0------------0-0-0---|
|
|     ~~~~~~~~~~~~
|  S  E.      +Q     +E     E Q
|-----------------------------------|
|-11s12------(12)---(12)\-----------|
|-----------------------------------|
|-----------------------------------|
|-----------------------------------|
|-----------------------------------|


  E5/A#                              E5
  E S S  E  S S +S S  S S  S S S S     E  S S E S S   S   S S S S S S S
|-0------0--0-0-(0)0-------0-0-0-0-|------------------------------------|
|-0-0-0--0--0-0-(0)0-------0-0-0-0-|------------------------------------|
|-3-3-3--4--3-3-(3)3-------3-3-3-3-|---4--4-4-4-4-4---4---4-4-4-4-4-4-4-|
|-2------2--2-2-(2)2--2-2--2-2-2-2-|---2--2-2-2-2-2---2---2-2-2-2-2-2-2-|
|-2------2------------2-2--2-2-2-2-|---2--2-2-2-2-2---2---2-2-2-2-2-2-2-|
|-0------0------------0-0--0-0-0-0-|---0--0-0-0-0-0---0---0-0-0-0-0-0-0-|
|
|                          ~~
| Q      E  E    E    E    Q          +H             +E     E   Q
|-------12s10---12s==15---15-------|-(15)-----------(15)\---------------|
|----------------------------------|------------------------------------|
|----------------------------------|------------------------------------|
|----------------------------------|------------------------------------|
|----------------------------------|------------------------------------|
|----------------------------------|------------------------------------|


  E5/A#                                  E5
  E. S S S E     S  S  S  S  S  S  S S    W
|--------------------------------------|-------*|
|--------------------------------------|-------*|
|-3--3-3-3-3-----3--3--3--3--3--3--3-3-|--4----*|
|-2--2-2-2-2-----2--2--2--2--2--2--2-2-|--2----*|
|-2--2-2-2-2-----2--2--2--2--2--2--2-2-|--2----*|
|-0--0-0-0-0-----0--0--0--0--0--0--0-0-|--0----*|
|
|                                         ~~
| Q    E.     S  S  S  S  S  S  S  E      W
|--------------------------------------|-------*|
|---------------15----15----15----15s==|=17----*|
|------8s====15----15----15----15------|-------*|
|--------------------------------------|-------*|
|--------------------------------------|-------*|
|--------------------------------------|-------*|


Duration Legend
---------------
W - whole; H - half; Q - quarter; E - 8th; S - 16th; T - 32nd; X - 64th; a - acciaccatura
+ - note tied to previous; . - note dotted; .. - note double dotted
Uncapitalized letters represent notes that are staccato (1/2 duration)
Irregular groupings are notated above the duration line
Duration letters will always appear directly above the note/fret number it represents the
duration for.  Duration letters with no fret number below them represent rests.  Multi-
bar rests are notated in the form Wxn, where n is the number of bars to rest for.  Low
melody durations appear below the staff

Tablature Legend
----------------
 h   - hammer-on
 p   - pull-off
 b   - bend
 pb  - pre-bend
 r   - bend release (if no number after the r, then release immediately)
 /\  - slide into or out of (from/to "nowhere")
 s   - legato slide
 S   - shift slide
  - natural harmonic
[n]  - artificial harmonic
n(n) - tapped harmonic
 ~   - vibrato
 tr  - trill
 T   - tap
 TP  - trem. picking
 PM  - palm muting
\n/  - tremolo bar dip; n = amount to dip
 \n  - tremolo bar down
 n/  - tremolo bar up
/n\  - tremolo bar inverted dip
 =   - hold bend; also acts as connecting device for hammers/pulls
 <>  - volume swell (louder/softer)
 x   - on rhythm slash represents muted slash
 o   - on rhythm slash represents single note slash

Misc Legend
-----------
 |  - bar
||  - double bar
||o - repeat start
o|| - repeat end
*|  - double bar (ending)
 :  - bar (freetime)
 $  - Segno
 &  - Coda
Tempo markers -  = BPM(8/16=s8/s16), where s8 = swing 8ths, s16 = swing 16ths


***************************************************************************************
* Generated using Power Tab Editor by Brad Larsen - http://powertab.guitarnetwork.org *
***************************************************************************************
comments
print report bad tab
I want to post or [tab]
guest
You may want to rate the tab now too:
select rating
Please do not post tabs as comments. Select "correction" instead!